  0
SECTION
  2
HEADER
  9
$ACADVER
  1
AC1015
  9
$ACADMAINTVER
 70
     6
  9
$DWGCODEPAGE
  3
DOS850
  9
$INSBASE
 10
0.0
 20
0.0
 30
0.0
  9
$EXTMIN
 10
1.000000E+20
 20
1.000000E+20
 30
1.000000E+20
  9
$EXTMAX
 10
-1.000000E+20
 20
-1.000000E+20
 30
-1.000000E+20
  9
$LIMMIN
 10
0.0
 20
0.0
  9
$LIMMAX
 10
0.0
 20
0.0
  9
$ORTHOMODE
 70
     0
  9
$REGENMODE
 70
     1
  9
$FILLMODE
 70
     1
  9
$QTEXTMODE
 70
     0
  9
$MIRRTEXT
 70
     1
  9
$LTSCALE
 40
1.0
  9
$ATTMODE
 70
     1
  9
$TEXTSIZE
 40
0.2
  9
$TRACEWID
 40
0.05
  9
$TEXTSTYLE
  7
Standard
  9
$CLAYER
  8
0
  9
$CELTYPE
  6
Continuous
  9
$CECOLOR
 62
   256
  9
$CELTSCALE
 40
1.0
  9
$DISPSILH
 70
     0
  9
$DIMSCALE
 40
1.0
  9
$DIMASZ
 40
0.18
  9
$DIMEXO
 40
0.0625
  9
$DIMDLI
 40
0.38
  9
$DIMRND
 40
0.0
  9
$DIMDLE
 40
0.0
  9
$DIMEXE
 40
0.18
  9
$DIMTP
 40
0.0
  9
$DIMTM
 40
0.0
  9
$DIMTXT
 40
0.18
  9
$DIMCEN
 40
0.09
  9
$DIMTSZ
 40
0.0
  9
$DIMTOL
 70
     0
  9
$DIMLIM
 70
     0
  9
$DIMTIH
 70
     1
  9
$DIMTOH
 70
     1
  9
$DIMSE1
 70
     0
  9
$DIMSE2
 70
     0
  9
$DIMTAD
 70
     0
  9
$DIMZIN
 70
     0
  9
$DIMBLK
  1

  9
$DIMASO
 70
     1
  9
$DIMSHO
 70
     1
  9
$DIMPOST
  1

  9
$DIMAPOST
  1

  9
$DIMALT
 70
     0
  9
$DIMALTD
 70
     2
  9
$DIMALTF
 40
25.4
  9
$DIMLFAC
 40
1.0
  9
$DIMTOFL
 70
     0
  9
$DIMTVP
 40
0.0
  9
$DIMTIX
 70
     0
  9
$DIMSOXD
 70
     0
  9
$DIMSAH
 70
     0
  9
$DIMBLK1
  1

  9
$DIMBLK2
  1

  9
$DIMSTYLE
  2
Standard
  9
$DIMCLRD
 70
     0
  9
$DIMCLRE
 70
     0
  9
$DIMCLRT
 70
     0
  9
$DIMTFAC
 40
1.0
  9
$DIMGAP
 40
0.09
  9
$DIMJUST
 70
     0
  9
$DIMSD1
 70
     0
  9
$DIMSD2
 70
     0
  9
$DIMTOLJ
 70
     1
  9
$DIMTZIN
 70
     0
  9
$DIMALTZ
 70
     0
  9
$DIMALTTZ
 70
     0
  9
$DIMUPT
 70
     0
  9
$DIMDEC
 70
     4
  9
$DIMTDEC
 70
     4
  9
$DIMALTU
 70
     2
  9
$DIMALTTD
 70
     2
  9
$DIMTXSTY
  7
Standard
  9
$DIMAUNIT
 70
     0
  9
$DIMADEC
 70
     0
  9
$DIMALTRND
 40
0.0
  9
$DIMAZIN
 70
     0
  9
$DIMDSEP
 70
     0
  9
$DIMATFIT
 70
     3
  9
$DIMFRAC
 70
     0
  9
$DIMLDRBLK
  1

  9
$DIMLUNIT
 70
     2
  9
$DIMLWD
 70
     0
  9
$DIMLWE
 70
     0
  9
$DIMTMOVE
 70
     0
  9
$LUNITS
 70
     2
  9
$LUPREC
 70
     4
  9
$SKETCHINC
 40
0.1
  9
$FILLETRAD
 40
0.0
  9
$AUNITS
 70
     0
  9
$AUPREC
 70
     0
  9
$MENU
  1
acad
  9
$ELEVATION
 40
0.0
  9
$PELEVATION
 40
0.0
  9
$THICKNESS
 40
0.0
  9
$LIMCHECK
 70
     0
  9
$CHAMFERA
 40
0.0
  9
$CHAMFERB
 40
0.0
  9
$CHAMFERC
 40
0.0
  9
$CHAMFERD
 40
0.0
  9
$SKPOLY
 70
     0
  9
$TDCREATE
 40
0.000000000
  9
$TDUCREATE
 40
0.000000000
  9
$TDUPDATE
 40
0.000000000
  9
$TDUUPDATE
 40
0.000000000
  9
$TDINDWG
 40
0.0000000000
  9
$TDUSRTIMER
 40
0.0000000000
  9
$USRTIMER
 70
     1
  9
$ANGBASE
 50
0.0
  9
$ANGDIR
 70
     0
  9
$PDMODE
 70
     0
  9
$PDSIZE
 40
0.0
  9
$PLINEWID
 40
0.0
  9
$SPLFRAME
 70
     0
  9
$SPLINETYPE
 70
     6
  9
$SPLINESEGS
 70
     8
  9
$HANDSEED
  5
53C
  9
$SURFTAB1
 70
     6
  9
$SURFTAB2
 70
     6
  9
$SURFTYPE
 70
     6
  9
$SURFU
 70
     6
  9
$SURFV
 70
     6
  9
$UCSBASE
  2

  9
$UCSNAME
  2

  9
$UCSORG
 10
0.0
 20
0.0
 30
0.0
  9
$UCSXDIR
 10
1.0
 20
0.0
 30
0.0
  9
$UCSYDIR
 10
0.0
 20
1.0
 30
0.0
  9
$UCSORTHOREF
  2

  9
$UCSORTHOVIEW
 70
     0
  9
$UCSORGTOP
 10
0.0
 20
0.0
 30
0.0
  9
$UCSORGBOTTOM
 10
0.0
 20
0.0
 30
0.0
  9
$UCSORGLEFT
 10
0.0
 20
0.0
 30
0.0
  9
$UCSORGRIGHT
 10
0.0
 20
0.0
 30
0.0
  9
$UCSORGFRONT
 10
0.0
 20
0.0
 30
0.0
  9
$UCSORGBACK
 10
0.0
 20
0.0
 30
0.0
  9
$PUCSBASE
  2

  9
$PUCSNAME
  2

  9
$PUCSORG
 10
0.0
 20
0.0
 30
0.0
  9
$PUCSXDIR
 10
1.0
 20
0.0
 30
0.0
  9
$PUCSYDIR
 10
0.0
 20
1.0
 30
0.0
  9
$PUCSORTHOREF
  2

  9
$PUCSORTHOVIEW
 70
     0
  9
$PUCSORGTOP
 10
0.0
 20
0.0
 30
0.0
  9
$PUCSORGBOTTOM
 10
0.0
 20
0.0
 30
0.0
  9
$PUCSORGLEFT
 10
0.0
 20
0.0
 30
0.0
  9
$PUCSORGRIGHT
 10
0.0
 20
0.0
 30
0.0
  9
$PUCSORGFRONT
 10
0.0
 20
0.0
 30
0.0
  9
$PUCSORGBACK
 10
0.0
 20
0.0
 30
0.0
  9
$USERI1
 70
     0
  9
$USERI2
 70
     0
  9
$USERI3
 70
     0
  9
$USERI4
 70
     0
  9
$USERI5
 70
     0
  9
$USERR1
 40
0.0
  9
$USERR2
 40
0.0
  9
$USERR3
 40
0.0
  9
$USERR4
 40
0.0
  9
$USERR5
 40
0.0
  9
$WORLDVIEW
 70
     1
  9
$SHADEDGE
 70
     3
  9
$SHADEDIF
 70
    70
  9
$TILEMODE
 70
     1
  9
$MAXACTVP
 70
    16
  9
$PINSBASE
 10
0.0
 20
0.0
 30
0.0
  9
$PLIMCHECK
 70
     0
  9
$PEXTMIN
 10
1.000000E+20
 20
1.000000E+20
 30
1.000000E+20
  9
$PEXTMAX
 10
-1.000000E+20
 20
-1.000000E+20
 30
-1.000000E+20
  9
$PLIMMIN
 10
0.0
 20
0.0
  9
$PLIMMAX
 10
12.0
 20
9.0
  9
$UNITMODE
 70
     0
  9
$VISRETAIN
 70
     0
  9
$PLINEGEN
 70
     1
  9
$PSLTSCALE
 70
     0
  9
$TREEDEPTH
 70
  3020
  9
$CMLSTYLE
  2
Standard
  9
$CMLJUST
 70
     0
  9
$CMLSCALE
 40
1.0
  9
$PROXYGRAPHICS
 70
     0
  9
$MEASUREMENT
 70
     0
  9
$CELWEIGHT
370
     0
  9
$ENDCAPS
280
     0
  9
$JOINSTYLE
280
     0
  9
$LWDISPLAY
290
     0
  9
$INSUNITS
 70
     0
  9
$HYPERLINKBASE
  1

  9
$XEDIT
290
     1
  9
$CEPSNTYPE
380
     0
  9
$PSTYLEMODE
290
     1
  9
$FINGERPRINTGUID
  2

  9
$VERSIONGUID
  2

  9
$EXTNAMES
290
     1
  9
$PSVPSCALE
 40
0.0
  0
ENDSEC
  0
SECTION
  2
CLASSES
  0
CLASS
  1
LWPOLYLINE
  2
AcDbPolyline
  3
AutoCAD 2000
 90
        0
280
     0
281
     1
  0
CLASS
  1
IMAGE
  2
AcDbRasterImage
  3
ISM
 90
    32895
280
     0
281
     1
  0
CLASS
  1
OLE2FRAME
  2
AcDbOle2Frame
  3
AutoCAD 2000
 90
    32768
280
     0
281
     1
  0
CLASS
  1
HATCH
  2
AcDbHatch
  3
AutoCAD 2000
 90
    32768
280
     0
281
     1
  0
CLASS
  1
DICTIONARYVAR
  2
AcDbDictionaryVar
  3
AutoCAD 2000
 90
    32768
280
     0
281
     0
  0
CLASS
  1
RASTERVARIABLES
  2
AcDbRasterVariables
  3
ISM
 90
    32768
280
     0
281
     0
  0
CLASS
  1
IMAGEDEF
  2
AcDbRasterImageDef
  3
ISM
 90
    32768
280
     0
281
     0
  0
CLASS
  1
IMAGEDEF_REACTOR
  2
AcDbRasterImageDefReactor
  3
ISM
 90
    32769
280
     0
281
     0
  0
CLASS
  1
IDBUFFER
  2
AcDbIdBuffer
  3
AutoCAD 2000
 90
    32768
280
     0
281
     0
  0
CLASS
  1
SPATIAL_FILTER
  2
AcDbSpatialFilter
  3
AutoCAD 2000
 90
    32768
280
     0
281
     0
  0
CLASS
  1
XRECORD
  2
AcDbXrecord
  3
AutoCAD 2000
 90
    32768
280
     0
281
     0
  0
CLASS
  1
SORTENTSTABLE
  2
AcDbSortentsTable
  3
AutoCAD 2000
 90
    32768
280
     0
281
     0
  0
CLASS
  1
LAYER_INDEX
  2
AcDbLayerIndex
  3
AutoCAD 2000
 90
    32768
280
     0
281
     0
  0
CLASS
  1
SPATIAL_INDEX
  2
AcDbSpatialIndex
  3
AutoCAD 2000
 90
    32768
280
     0
281
     0
  0
CLASS
  1
OBJECT_PTR
  2
CAseDLPNTableRecord
  3
"ASE-LPNTableRecord"
 90
    32769
280
     0
281
     0
  0
CLASS
  1
LAYOUT
  2
AcDbLayout
  3
AutoCAD 2000
 90
        0
280
     0
281
     0
  0
CLASS
  1
PLOTSETTINGS
  2
AcDbPlotSettings
  3
AutoCAD 2000
 90
    32768
280
     0
281
     0
  0
CLASS
  1
ACDBDICTIONARYWDFLT
  2
AcDbDictionaryWithDefault
  3
AutoCAD 2000
 90
        0
280
     0
281
     0
  0
CLASS
  1
ACDBPLACEHOLDER
  2
AcDbPlaceHolder
  3
AutoCAD 2000
 90
        0
280
     0
281
     0
  0
CLASS
  1
VBA_PROJECT
  2
AcDbVbaProject
  3
acadvba
 90
    32768
280
     0
281
     0
  0
CLASS
  1
WIPEOUT
  2
AcDbWipeout
  3
WipeOut|AutoCAD Express Tool|expresstools@autodesk.com
 90
    32895
280
     0
281
     1
  0
CLASS
  1
WIPEOUTVARIABLES
  2
AcDbWipeoutVariables
  3
WipeOut|AutoCAD Express Tool|expresstools@autodesk.com
 90
        0
280
     0
281
     0
  0
CLASS
  1
RTEXT
  2
RText
  3
RText|AutoCAD Express Tool|expresstools@autodesk.com
 90
    32768
280
     0
281
     1
  0
CLASS
  1
ARCALIGNEDTEXT
  2
AcDbArcAlignedText
  3
ATEXT|AutoCAD Express Tool|expresstools@autodesk.com
 90
    32768
280
     0
281
     1
  0
ENDSEC
  0
SECTION
  2
TABLES
  0
TABLE
  2
VPORT
  5
7
100
AcDbSymbolTable
 70
     1
  0
VPORT
  5
15
100
AcDbSymbolTableRecord
100
AcDbViewportTableRecord
  2
*ACTIVE
 70
     0
 10
0.0
 20
0.0
 11
1.0
 21
1.0
 12
6.591288
 22
4.579184
 13
0.0
 23
0.0
 14
1.0
 24
1.0
 15
0.0
 25
0.0
 16
0.0
 26
0.0
 36
1.0
 17
0.0
 27
0.0
 37
0.0
 40
9.158369
 41
0.688564
 42
50.0
 43
0.0
 44
0.0
 50
0.0
 51
0.0
 71
     0
 72
   100
 73
     1
 74
     1
 75
     0
 76
     0
 77
     0
 78
     0
281
     0
 65
     0
110
0.0
120
0.0
130
0.0
111
1.0
121
0.0
131
0.0
112
0.0
122
1.0
132
0.0
345
0
346
0
 79
     0
146
0.0
  0
ENDTAB
  0
TABLE
  2
LTYPE
  5
4
100
AcDbSymbolTable
 70
     3
  0
LTYPE
  5
11
100
AcDbSymbolTableRecord
100
AcDbLinetypeTableRecord
  2
ByBlock
 70
    64
  3

 72
    65
 73
     0
 40
0.0
  0
LTYPE
  5
12
100
AcDbSymbolTableRecord
100
AcDbLinetypeTableRecord
  2
ByLayer
 70
    64
  3

 72
    65
 73
     0
 40
0.0
  0
LTYPE
  5
13
100
AcDbSymbolTableRecord
100
AcDbLinetypeTableRecord
  2
Continuous
 70
    64
  3
Solid line
 72
    65
 73
     0
 40
0.0
  0
ENDTAB
  0
TABLE
  2
LAYER
  5
2
100
AcDbSymbolTable
 70
     1
  0
LAYER
  5
14
100
AcDbSymbolTableRecord
100
AcDbLayerTableRecord
  2
0
 70
     0
 62
     7
  6
Continuous
290
     1
370
    -3
390
1D
  0
ENDTAB
  0
TABLE
  2
STYLE
  5
3
100
AcDbSymbolTable
 70
     1
  0
STYLE
  5
17
100
AcDbSymbolTableRecord
100
AcDbTextStyleTableRecord
  2
Standard
 70
     0
 40
0.0
 41
1.0
 50
0.0
 71
     0
 42
0.0
  3
txt
  4

  0
ENDTAB
  0
TABLE
  2
VIEW
  5
5
100
AcDbSymbolTable
 70
     0
  0
ENDTAB
  0
TABLE
  2
UCS
  5
6
100
AcDbSymbolTable
 70
     0
  0
ENDTAB
  0
TABLE
  2
APPID
  5
8
100
AcDbSymbolTable
 70
     1
  0
APPID
  5
16
100
AcDbSymbolTableRecord
100
AcDbRegAppTableRecord
  2
ACAD
 70
     0
  0
ENDTAB
  0
TABLE
  2
DIMSTYLE
  5
9
100
AcDbSymbolTable
 70
     1
100
AcDbDimStyleTable
 71
     0
  0
DIMSTYLE
105
18
100
AcDbSymbolTableRecord
100
AcDbDimStyleTableRecord
  2
Standard
 70
     0
  3

  4

 40
1.0
 41
0.18
 42
0.0625
 43
0.38
 44
0.18
 45
0.0
 46
0.0
 47
0.0
 48
0.0
 71
     0
 72
     0
 73
     1
 74
     1
 75
     0
 76
     0
 77
     0
 78
     0
 79
     0
140
0.18
141
0.09
142
0.0
143
25.4
144
1.0
145
0.0
146
1.0
147
0.09
148
0.0
170
     0
171
     2
172
     0
173
     0
174
     0
175
     0
176
     0
177
     0
178
     0
179
     0
271
     4
272
     4
273
     2
274
     2
275
     0
276
     0
277
     2
278
    46
279
     0
280
     0
281
     0
282
     0
283
     1
284
     0
285
     0
286
     0
288
     0
340
17
341
0
342
0
343
0
344
0
371
    -2
372
    -2
  0
ENDTAB
  0
TABLE
  2
BLOCK_RECORD
  5
1
100
AcDbSymbolTable
 70
     0
  0
BLOCK_RECORD
  5
A
100
AcDbSymbolTableRecord
100
AcDbBlockTableRecord
  2
*MODEL_SPACE
340
20
  0
BLOCK_RECORD
  5
B
100
AcDbSymbolTableRecord
100
AcDbBlockTableRecord
  2
*PAPER_SPACE
340
21
  0
ENDTAB
  0
ENDSEC
  0
SECTION
  2
BLOCKS
  0
BLOCK
  5
D
100
AcDbEntity
  8
0
100
AcDbBlockBegin
  2
*MODEL_SPACE
 70
     0
 10
0.0
 20
0.0
 30
0.0
  3
*MODEL_SPACE
  1

  0
ENDBLK
  5
E
100
AcDbEntity
  8
0
100
AcDbBlockEnd
  0
BLOCK
  5
F
100
AcDbEntity
 67
     1
  8
0
100
AcDbBlockBegin
  2
*PAPER_SPACE
 70
     0
 10
0.0
 20
0.0
 30
0.0
  3
*PAPER_SPACE
  1

  0
ENDBLK
  5
10
100
AcDbEntity
 67
     1
  8
0
100
AcDbBlockEnd
  0
ENDSEC
  0
SECTION
  2
ENTITIES
  0
LWPOLYLINE
  5
24
100
AcDbEntity
  8
0
 62
     0
100
AcDbPolyline
 90
        2
 70
     0
 39
0.003
 10
2.092173
 20
2.278677
 40
0.003
 41
0.003
 10
2.508441
 20
2.865236
 40
0.003
 41
0.003
  0
LWPOLYLINE
  5
25
100
AcDbEntity
  8
0
 62
     0
100
AcDbPolyline
 90
        2
 70
     0
 39
0.003
 10
2.508441
 20
2.865236
 40
0.003
 41
0.003
 10
2.077457
 20
3.121724
 40
0.003
 41
0.003
  0
LWPOLYLINE
  5
26
100
AcDbEntity
  8
0
 62
     0
100
AcDbPolyline
 90
        2
 70
     0
 39
0.003
 10
2.077457
 20
3.121724
 40
0.003
 41
0.003
 10
1.912535
 20
2.960976
 40
0.003
 41
0.003
  0
SPLINE
  5
27
100
AcDbEntity
  8
0
 62
     0
100
AcDbSpline
210
0.0
220
0.0
230
1.0
 70
     0
 71
     3
 72
     0
 73
     0
 74
    32
 44
0.0000000001
 11
1.9125354330708662
 21
2.9609763779527558
 31
0.0
 11
1.8257047244094489
 21
3.0062716535433069
 31
0.0
 11
1.7413228346456693
 21
3.041759842519685
 31
0.0
 11
1.6594094488188977
 21
3.0683070866141731
 31
0.0
 11
1.579988188976378
 21
3.086783464566929
 31
0.0
 11
1.5030669291338583
 21
3.0980511811023623
 31
0.0
 11
1.4286811023622048
 21
3.1029921259842519
 31
0.0
 11
1.3568425196850393
 21
3.1024685039370077
 31
0.0
 11
1.2875826771653542
 21
3.0973582677165354
 31
0.0
 11
1.2209015748031495
 21
3.088515748031496
 31
0.0
 11
1.1568346456692913
 21
3.0768267716535433
 31
0.0
 11
1.0953937007874015
 21
3.0631535433070867
 31
0.0
 11
1.0366102362204725
 21
3.0483700787401573
 31
0.0
 11
0.9804881889763779
 21
3.0333385826771653
 31
0.0
 11
0.9270669291338582
 21
3.0189409448818898
 31
0.0
 11
0.8763503937007874
 21
3.0060354330708661
 31
0.0
 11
0.8283700787401575
 21
2.9955039370078742
 31
0.0
 11
0.7815629921259842
 21
2.9849330708661417
 31
0.0
 11
0.7339173228346457
 21
2.9719803149606299
 31
0.0
 11
0.6847125984251968
 21
2.957551181102362
 31
0.0
 11
0.6332519685039371
 21
2.9425787401574803
 31
0.0
 11
0.5788149606299212
 21
2.9279606299212597
 31
0.0
 11
0.5207047244094488
 21
2.9146299212598423
 31
0.0
 11
0.4582086614173229
 21
2.9035039370078741
 31
0.0
 11
0.3906220472440945
 21
2.8954960629921258
 31
0.0
 11
0.3172283464566929
 21
2.8915196850393703
 31
0.0
 11
0.2373346456692913
 21
2.8925078740157479
 31
0.0
 11
0.1502204724409449
 21
2.8993700787401573
 31
0.0
 11
0.0551889763779528
 21
2.9130275590551182
 31
0.0
 11
-0.0484724409448819
 21
2.9343897637795275
 31
0.0
 11
-0.1614724409448819
 21
2.9643897637795273
 31
0.0
 11
-0.2845196850393701
 21
3.0039330708661418
 31
0.0
  0
LWPOLYLINE
  5
28
100
AcDbEntity
  8
0
 62
     0
100
AcDbPolyline
 90
        2
 70
     0
 39
0.003
 10
-0.28452
 20
3.003933
 40
0.003
 41
0.003
 10
-0.418327
 20
3.053949
 40
0.003
 41
0.003
  0
LWPOLYLINE
  5
29
100
AcDbEntity
  8
0
 62
     0
100
AcDbPolyline
 90
        2
 70
     0
 39
0.003
 10
-0.418327
 20
3.053949
 40
0.003
 41
0.003
 10
-0.490583
 20
2.954071
 40
0.003
 41
0.003
  0
LWPOLYLINE
  5
2A
100
AcDbEntity
  8
0
 62
     0
100
AcDbPolyline
 90
        2
 70
     0
 39
0.003
 10
-0.490583
 20
2.954071
 40
0.003
 41
0.003
 10
-0.808299
 20
3.098354
 40
0.003
 41
0.003
  0
LWPOLYLINE
  5
2B
100
AcDbEntity
  8
0
 62
     0
100
AcDbPolyline
 90
        2
 70
     0
 39
0.003
 10
-0.808299
 20
3.098354
 40
0.003
 41
0.003
 10
-0.913409
 20
2.964827
 40
0.003
 41
0.003
  0
SPLINE
  5
2C
100
AcDbEntity
  8
0
 62
     0
100
AcDbSpline
210
0.0
220
0.0
230
1.0
 70
     0
 71
     3
 72
     0
 73
     0
 74
    16
 44
0.0000000001
 11
-0.9134094488188976
 21
2.9648267716535432
 31
0.0
 11
-0.9549094488188976
 21
2.9855708661417322
 31
0.0
 11
-1.0002992125984251
 21
3.0072559055118111
 31
0.0
 11
-1.0490275590551181
 21
3.028996062992126
 31
0.0
 11
-1.1005511811023623
 21
3.0499251968503938
 31
0.0
 11
-1.1543188976377954
 21
3.0691535433070865
 31
0.0
 11
-1.2097952755905512
 21
3.0858188976377954
 31
0.0
 11
-1.2664212598425197
 21
3.09903937007874
 31
0.0
 11
-1.3236692913385826
 21
3.1079488188976376
 31
0.0
 11
-1.3809724409448818
 21
3.1116574803149608
 31
0.0
 11
-1.4378031496062993
 21
3.1093031496062991
 31
0.0
 11
-1.4936023622047243
 21
3.100007874015748
 31
0.0
 11
-1.5478385826771655
 21
3.0829015748031496
 31
0.0
 11
-1.5999527559055118
 21
3.0571023622047244
 31
0.0
 11
-1.6494094488188977
 21
3.0217362204724409
 31
0.0
 11
-1.6956574803149607
 21
2.9759291338582678
 31
0.0
  0
LWPOLYLINE
  5
2D
100
AcDbEntity
  8
0
 62
     0
100
AcDbPolyline
 90
        2
 70
     0
 39
0.003
 10
-1.695657
 20
2.975929
 40
0.003
 41
0.003
 10
-1.738157
 20
2.918811
 40
0.003
 41
0.003
  0
LWPOLYLINE
  5
2E
100
AcDbEntity
  8
0
 62
     0
100
AcDbPolyline
 90
        2
 70
     0
 39
0.003
 10
-1.738157
 20
2.918811
 40
0.003
 41
0.003
 10
-2.071945
 20
3.050748
 40
0.003
 41
0.003
  0
LWPOLYLINE
  5
2F
100
AcDbEntity
  8
0
 62
     0
100
AcDbPolyline
 90
        2
 70
     0
 39
0.003
 10
-2.071945
 20
3.050748
 40
0.003
 41
0.003
 10
-2.272205
 20
2.719283
 40
0.003
 41
0.003
  0
LWPOLYLINE
  5
30
100
AcDbEntity
  8
0
 62
     0
100
AcDbPolyline
 90
        2
 70
     0
 39
0.003
 10
-2.272205
 20
2.719283
 40
0.003
 41
0.003
 10
-1.421406
 20
2.281382
 40
0.003
 41
0.003
  0
LWPOLYLINE
  5
31
100
AcDbEntity
  8
0
 62
     0
100
AcDbPolyline
 90
        2
 70
     0
 39
0.003
 10
-1.421406
 20
2.281382
 40
0.003
 41
0.003
 10
2.092173
 20
2.278677
 40
0.003
 41
0.003
  0
MTEXT
  5
32
100
AcDbEntity
  8
0
 62
     0
100
AcDbMText
 10
-0.762067
 20
2.827327
 30
0.0
 40
0.166665
 41
0.0
 71
     1
 72
     1
  1
{\fBookman Old Style|b0|i0|c0|p32;BA  1443}
 73
     1
 44
1.0
  0
MTEXT
  5
33
100
AcDbEntity
  8
0
 62
     0
100
AcDbMText
 10
-0.762067
 20
2.639827
 30
0.0
 40
0.166665
 41
0.0
 71
     1
 72
     1
  1
{\fBookman Old Style|b0|i0|c0|p32;7/8" x 4-3/4"}
 73
     1
 44
1.0
  0
LWPOLYLINE
  5
34
100
AcDbEntity
  8
0
 62
   254
100
AcDbPolyline
 90
        2
 70
     0
 39
0.003
 10
-2.138067
 20
-0.863449
 40
0.003
 41
0.003
 10
-1.493394
 20
-1.245323
 40
0.003
 41
0.003
  0
LWPOLYLINE
  5
35
100
AcDbEntity
  8
0
 62
   254
100
AcDbPolyline
 90
        2
 70
     0
 39
0.003
 10
-1.493394
 20
-1.245323
 40
0.003
 41
0.003
 10
-0.991866
 20
-1.24315
 40
0.003
 41
0.003
  0
LWPOLYLINE
  5
36
100
AcDbEntity
  8
0
 62
   254
100
AcDbPolyline
 90
        2
 70
     0
 39
0.003
 10
-0.991866
 20
-1.24315
 40
0.003
 41
0.003
 10
-1.636539
 20
-0.861276
 40
0.003
 41
0.003
  0
LWPOLYLINE
  5
37
100
AcDbEntity
  8
0
 62
   254
100
AcDbPolyline
 90
        2
 70
     0
 39
0.003
 10
-1.636539
 20
-0.861276
 40
0.003
 41
0.003
 10
-2.138067
 20
-0.863449
 40
0.003
 41
0.003
  0
LWPOLYLINE
  5
38
100
AcDbEntity
  8
0
 62
     0
100
AcDbPolyline
 90
        2
 70
     0
 39
0.003
 10
-2.138067
 20
-0.863449
 40
0.003
 41
0.003
 10
-1.493394
 20
-1.245323
 40
0.003
 41
0.003
  0
LWPOLYLINE
  5
39
100
AcDbEntity
  8
0
 62
     0
100
AcDbPolyline
 90
        2
 70
     0
 39
0.003
 10
-1.493394
 20
-1.245323
 40
0.003
 41
0.003
 10
-0.991866
 20
-1.24315
 40
0.003
 41
0.003
  0
LWPOLYLINE
  5
3A
100
AcDbEntity
  8
0
 62
     0
100
AcDbPolyline
 90
        2
 70
     0
 39
0.003
 10
-0.991866
 20
-1.24315
 40
0.003
 41
0.003
 10
-1.636539
 20
-0.861276
 40
0.003
 41
0.003
  0
LWPOLYLINE
  5
3B
100
AcDbEntity
  8
0
 62
     0
100
AcDbPolyline
 90
        2
 70
     0
 39
0.003
 10
-1.636539
 20
-0.861276
 40
0.003
 41
0.003
 10
-2.138067
 20
-0.863449
 40
0.003
 41
0.003
  0
LWPOLYLINE
  5
3C
100
AcDbEntity
  8
0
 62
   254
100
AcDbPolyline
 90
        2
 70
     0
 39
0.003
 10
-1.636539
 20
-0.861276
 40
0.003
 41
0.003
 10
-0.991866
 20
-1.24315
 40
0.003
 41
0.003
  0
LWPOLYLINE
  5
3D
100
AcDbEntity
  8
0
 62
   254
100
AcDbPolyline
 90
        2
 70
     0
 39
0.003
 10
-0.991866
 20
-1.24315
 40
0.003
 41
0.003
 10
-0.933315
 20
-1.020417
 40
0.003
 41
0.003
  0
LWPOLYLINE
  5
3E
100
AcDbEntity
  8
0
 62
   254
100
AcDbPolyline
 90
        2
 70
     0
 39
0.003
 10
-0.933315
 20
-1.020417
 40
0.003
 41
0.003
 10
-1.577988
 20
-0.638543
 40
0.003
 41
0.003
  0
LWPOLYLINE
  5
3F
100
AcDbEntity
  8
0
 62
   254
100
AcDbPolyline
 90
        2
 70
     0
 39
0.003
 10
-1.577988
 20
-0.638543
 40
0.003
 41
0.003
 10
-1.636539
 20
-0.861276
 40
0.003
 41
0.003
  0
LWPOLYLINE
  5
40
100
AcDbEntity
  8
0
 62
     0
100
AcDbPolyline
 90
        2
 70
     0
 39
0.003
 10
-1.636539
 20
-0.861276
 40
0.003
 41
0.003
 10
-0.991866
 20
-1.24315
 40
0.003
 41
0.003
  0
LWPOLYLINE
  5
41
100
AcDbEntity
  8
0
 62
     0
100
AcDbPolyline
 90
        2
 70
     0
 39
0.003
 10
-0.991866
 20
-1.24315
 40
0.003
 41
0.003
 10
-0.933315
 20
-1.020417
 40
0.003
 41
0.003
  0
LWPOLYLINE
  5
42
100
AcDbEntity
  8
0
 62
     0
100
AcDbPolyline
 90
        2
 70
     0
 39
0.003
 10
-0.933315
 20
-1.020417
 40
0.003
 41
0.003
 10
-1.577988
 20
-0.638543
 40
0.003
 41
0.003
  0
LWPOLYLINE
  5
43
100
AcDbEntity
  8
0
 62
     0
100
AcDbPolyline
 90
        2
 70
     0
 39
0.003
 10
-1.577988
 20
-0.638543
 40
0.003
 41
0.003
 10
-1.636539
 20
-0.861276
 40
0.003
 41
0.003
  0
LWPOLYLINE
  5
44
100
AcDbEntity
  8
0
 62
   254
100
AcDbPolyline
 90
        2
 70
     0
 39
0.003
 10
-1.577988
 20
-0.638543
 40
0.003
 41
0.003
 10
-0.933315
 20
-1.020417
 40
0.003
 41
0.003
  0
LWPOLYLINE
  5
45
100
AcDbEntity
  8
0
 62
   254
100
AcDbPolyline
 90
        2
 70
     0
 39
0.003
 10
-0.933315
 20
-1.020417
 40
0.003
 41
0.003
 10
-0.883512
 20
-1.018406
 40
0.003
 41
0.003
  0
LWPOLYLINE
  5
46
100
AcDbEntity
  8
0
 62
   254
100
AcDbPolyline
 90
        2
 70
     0
 39
0.003
 10
-0.883512
 20
-1.018406
 40
0.003
 41
0.003
 10
-1.528185
 20
-0.636531
 40
0.003
 41
0.003
  0
LWPOLYLINE
  5
47
100
AcDbEntity
  8
0
 62
   254
100
AcDbPolyline
 90
        2
 70
     0
 39
0.003
 10
-1.528185
 20
-0.636531
 40
0.003
 41
0.003
 10
-1.577988
 20
-0.638543
 40
0.003
 41
0.003
  0
LWPOLYLINE
  5
48
100
AcDbEntity
  8
0
 62
   254
100
AcDbPolyline
 90
        2
 70
     0
 39
0.003
 10
-1.528185
 20
-0.636531
 40
0.003
 41
0.003
 10
-0.883512
 20
-1.018406
 40
0.003
 41
0.003
  0
LWPOLYLINE
  5
49
100
AcDbEntity
  8
0
 62
   254
100
AcDbPolyline
 90
        2
 70
     0
 39
0.003
 10
-0.883512
 20
-1.018406
 40
0.003
 41
0.003
 10
-0.835551
 20
-1.014516
 40
0.003
 41
0.003
  0
LWPOLYLINE
  5
4A
100
AcDbEntity
  8
0
 62
   254
100
AcDbPolyline
 90
        2
 70
     0
 39
0.003
 10
-0.835551
 20
-1.014516
 40
0.003
 41
0.003
 10
-1.480224
 20
-0.632642
 40
0.003
 41
0.003
  0
LWPOLYLINE
  5
4B
100
AcDbEntity
  8
0
 62
   254
100
AcDbPolyline
 90
        2
 70
     0
 39
0.003
 10
-1.480224
 20
-0.632642
 40
0.003
 41
0.003
 10
-1.528185
 20
-0.636531
 40
0.003
 41
0.003
  0
LWPOLYLINE
  5
4C
100
AcDbEntity
  8
0
 62
   254
100
AcDbPolyline
 90
        2
 70
     0
 39
0.003
 10
-1.480224
 20
-0.632642
 40
0.003
 41
0.003
 10
-0.835551
 20
-1.014516
 40
0.003
 41
0.003
  0
LWPOLYLINE
  5
4D
100
AcDbEntity
  8
0
 62
   254
100
AcDbPolyline
 90
        2
 70
     0
 39
0.003
 10
-0.835551
 20
-1.014516
 40
0.003
 41
0.003
 10
-0.789378
 20
-1.008835
 40
0.003
 41
0.003
  0
LWPOLYLINE
  5
4E
100
AcDbEntity
  8
0
 62
   254
100
AcDbPolyline
 90
        2
 70
     0
 39
0.003
 10
-0.789378
 20
-1.008835
 40
0.003
 41
0.003
 10
-1.434051
 20
-0.626961
 40
0.003
 41
0.003
  0
LWPOLYLINE
  5
4F
100
AcDbEntity
  8
0
 62
   254
100
AcDbPolyline
 90
        2
 70
     0
 39
0.003
 10
-1.434051
 20
-0.626961
 40
0.003
 41
0.003
 10
-1.480224
 20
-0.632642
 40
0.003
 41
0.003
  0
LWPOLYLINE
  5
50
100
AcDbEntity
  8
0
 62
   254
100
AcDbPolyline
 90
        2
 70
     0
 39
0.003
 10
-1.434051
 20
-0.626961
 40
0.003
 41
0.003
 10
-0.789378
 20
-1.008835
 40
0.003
 41
0.003
  0
LWPOLYLINE
  5
51
100
AcDbEntity
  8
0
 62
   254
100
AcDbPolyline
 90
        2
 70
     0
 39
0.003
 10
-0.789378
 20
-1.008835
 40
0.003
 41
0.003
 10
-0.744949
 20
-1.001465
 40
0.003
 41
0.003
  0
LWPOLYLINE
  5
52
100
AcDbEntity
  8
0
 62
   254
100
AcDbPolyline
 90
        2
 70
     0
 39
0.003
 10
-0.744949
 20
-1.001465
 40
0.003
 41
0.003
 10
-1.389622
 20
-0.619591
 40
0.003
 41
0.003
  0
LWPOLYLINE
  5
53
100
AcDbEntity
  8
0
 62
   254
100
AcDbPolyline
 90
        2
 70
     0
 39
0.003
 10
-1.389622
 20
-0.619591
 40
0.003
 41
0.003
 10
-1.434051
 20
-0.626961
 40
0.003
 41
0.003
  0
LWPOLYLINE
  5
54
100
AcDbEntity
  8
0
 62
   254
100
AcDbPolyline
 90
        2
 70
     0
 39
0.003
 10
-1.389622
 20
-0.619591
 40
0.003
 41
0.003
 10
-0.744949
 20
-1.001465
 40
0.003
 41
0.003
  0
LWPOLYLINE
  5
55
100
AcDbEntity
  8
0
 62
   254
100
AcDbPolyline
 90
        2
 70
     0
 39
0.003
 10
-0.744949
 20
-1.001465
 40
0.003
 41
0.003
 10
-0.702189
 20
-0.992492
 40
0.003
 41
0.003
  0
LWPOLYLINE
  5
56
100
AcDbEntity
  8
0
 62
   254
100
AcDbPolyline
 90
        2
 70
     0
 39
0.003
 10
-0.702189
 20
-0.992492
 40
0.003
 41
0.003
 10
-1.346862
 20
-0.610618
 40
0.003
 41
0.003
  0
LWPOLYLINE
  5
57
100
AcDbEntity
  8
0
 62
   254
100
AcDbPolyline
 90
        2
 70
     0
 39
0.003
 10
-1.346862
 20
-0.610618
 40
0.003
 41
0.003
 10
-1.389622
 20
-0.619591
 40
0.003
 41
0.003
  0
LWPOLYLINE
  5
58
100
AcDbEntity
  8
0
 62
   254
100
AcDbPolyline
 90
        2
 70
     0
 39
0.003
 10
-1.346862
 20
-0.610618
 40
0.003
 41
0.003
 10
-0.702189
 20
-0.992492
 40
0.003
 41
0.003
  0
LWPOLYLINE
  5
59
100
AcDbEntity
  8
0
 62
   254
100
AcDbPolyline
 90
        2
 70
     0
 39
0.003
 10
-0.702189
 20
-0.992492
 40
0.003
 41
0.003
 10
-0.661063
 20
-0.98202
 40
0.003
 41
0.003
  0
LWPOLYLINE
  5
5A
100
AcDbEntity
  8
0
 62
   254
100
AcDbPolyline
 90
        2
 70
     0
 39
0.003
 10
-0.661063
 20
-0.98202
 40
0.003
 41
0.003
 10
-1.305736
 20
-0.600146
 40
0.003
 41
0.003
  0
LWPOLYLINE
  5
5B
100
AcDbEntity
  8
0
 62
   254
100
AcDbPolyline
 90
        2
 70
     0
 39
0.003
 10
-1.305736
 20
-0.600146
 40
0.003
 41
0.003
 10
-1.346862
 20
-0.610618
 40
0.003
 41
0.003
  0
LWPOLYLINE
  5
5C
100
AcDbEntity
  8
0
 62
   254
100
AcDbPolyline
 90
        2
 70
     0
 39
0.003
 10
-1.305736
 20
-0.600146
 40
0.003
 41
0.003
 10
-0.661063
 20
-0.98202
 40
0.003
 41
0.003
  0
LWPOLYLINE
  5
5D
100
AcDbEntity
  8
0
 62
   254
100
AcDbPolyline
 90
        2
 70
     0
 39
0.003
 10
-0.661063
 20
-0.98202
 40
0.003
 41
0.003
 10
-0.621508
 20
-0.970138
 40
0.003
 41
0.003
  0
LWPOLYLINE
  5
5E
100
AcDbEntity
  8
0
 62
   254
100
AcDbPolyline
 90
        2
 70
     0
 39
0.003
 10
-0.621508
 20
-0.970138
 40
0.003
 41
0.003
 10
-1.266181
 20
-0.588264
 40
0.003
 41
0.003
  0
LWPOLYLINE
  5
5F
100
AcDbEntity
  8
0
 62
   254
100
AcDbPolyline
 90
        2
 70
     0
 39
0.003
 10
-1.266181
 20
-0.588264
 40
0.003
 41
0.003
 10
-1.305736
 20
-0.600146
 40
0.003
 41
0.003
  0
LWPOLYLINE
  5
60
100
AcDbEntity
  8
0
 62
   254
100
AcDbPolyline
 90
        2
 70
     0
 39
0.003
 10
-1.266181
 20
-0.588264
 40
0.003
 41
0.003
 10
-0.621508
 20
-0.970138
 40
0.003
 41
0.003
  0
LWPOLYLINE
  5
61
100
AcDbEntity
  8
0
 62
   254
100
AcDbPolyline
 90
        2
 70
     0
 39
0.003
 10
-0.621508
 20
-0.970138
 40
0.003
 41
0.003
 10
-0.583476
 20
-0.956945
 40
0.003
 41
0.003
  0
LWPOLYLINE
  5
62
100
AcDbEntity
  8
0
 62
   254
100
AcDbPolyline
 90
        2
 70
     0
 39
0.003
 10
-0.583476
 20
-0.956945
 40
0.003
 41
0.003
 10
-1.22815
 20
-0.575071
 40
0.003
 41
0.003
  0
LWPOLYLINE
  5
63
100
AcDbEntity
  8
0
 62
   254
100
AcDbPolyline
 90
        2
 70
     0
 39
0.003
 10
-1.22815
 20
-0.575071
 40
0.003
 41
0.003
 10
-1.266181
 20
-0.588264
 40
0.003
 41
0.003
  0
LWPOLYLINE
  5
64
100
AcDbEntity
  8
0
 62
   254
100
AcDbPolyline
 90
        2
 70
     0
 39
0.003
 10
-1.22815
 20
-0.575071
 40
0.003
 41
0.003
 10
-0.583476
 20
-0.956945
 40
0.003
 41
0.003
  0
LWPOLYLINE
  5
65
100
AcDbEntity
  8
0
 62
   254
100
AcDbPolyline
 90
        2
 70
     0
 39
0.003
 10
-0.583476
 20
-0.956945
 40
0.003
 41
0.003
 10
-0.546902
 20
-0.942524
 40
0.003
 41
0.003
  0
LWPOLYLINE
  5
66
100
AcDbEntity
  8
0
 62
   254
100
AcDbPolyline
 90
        2
 70
     0
 39
0.003
 10
-0.546902
 20
-0.942524
 40
0.003
 41
0.003
 10
-1.191575
 20
-0.56065
 40
0.003
 41
0.003
  0
LWPOLYLINE
  5
67
100
AcDbEntity
  8
0
 62
   254
100
AcDbPolyline
 90
        2
 70
     0
 39
0.003
 10
-1.191575
 20
-0.56065
 40
0.003
 41
0.003
 10
-1.22815
 20
-0.575071
 40
0.003
 41
0.003
  0
LWPOLYLINE
  5
68
100
AcDbEntity
  8
0
 62
   254
100
AcDbPolyline
 90
        2
 70
     0
 39
0.003
 10
-1.191575
 20
-0.56065
 40
0.003
 41
0.003
 10
-0.546902
 20
-0.942524
 40
0.003
 41
0.003
  0
LWPOLYLINE
  5
69
100
AcDbEntity
  8
0
 62
   254
100
AcDbPolyline
 90
        2
 70
     0
 39
0.003
 10
-0.546902
 20
-0.942524
 40
0.003
 41
0.003
 10
-0.51174
 20
-0.926984
 40
0.003
 41
0.003
  0
LWPOLYLINE
  5
6A
100
AcDbEntity
  8
0
 62
   254
100
AcDbPolyline
 90
        2
 70
     0
 39
0.003
 10
-0.51174
 20
-0.926984
 40
0.003
 41
0.003
 10
-1.156413
 20
-0.54511
 40
0.003
 41
0.003
  0
LWPOLYLINE
  5
6B
100
AcDbEntity
  8
0
 62
   254
100
AcDbPolyline
 90
        2
 70
     0
 39
0.003
 10
-1.156413
 20
-0.54511
 40
0.003
 41
0.003
 10
-1.191575
 20
-0.56065
 40
0.003
 41
0.003
  0
LWPOLYLINE
  5
6C
100
AcDbEntity
  8
0
 62
   254
100
AcDbPolyline
 90
        2
 70
     0
 39
0.003
 10
-1.156413
 20
-0.54511
 40
0.003
 41
0.003
 10
-0.51174
 20
-0.926984
 40
0.003
 41
0.003
  0
LWPOLYLINE
  5
6D
100
AcDbEntity
  8
0
 62
   254
100
AcDbPolyline
 90
        2
 70
     0
 39
0.003
 10
-0.51174
 20
-0.926984
 40
0.003
 41
0.003
 10
-0.477937
 20
-0.910406
 40
0.003
 41
0.003
  0
LWPOLYLINE
  5
6E
100
AcDbEntity
  8
0
 62
   254
100
AcDbPolyline
 90
        2
 70
     0
 39
0.003
 10
-0.477937
 20
-0.910406
 40
0.003
 41
0.003
 10
-1.12261
 20
-0.528531
 40
0.003
 41
0.003
  0
LWPOLYLINE
  5
6F
100
AcDbEntity
  8
0
 62
   254
100
AcDbPolyline
 90
        2
 70
     0
 39
0.003
 10
-1.12261
 20
-0.528531
 40
0.003
 41
0.003
 10
-1.156413
 20
-0.54511
 40
0.003
 41
0.003
  0
LWPOLYLINE
  5
70
100
AcDbEntity
  8
0
 62
   254
100
AcDbPolyline
 90
        2
 70
     0
 39
0.003
 10
-1.12261
 20
-0.528531
 40
0.003
 41
0.003
 10
-0.477937
 20
-0.910406
 40
0.003
 41
0.003
  0
LWPOLYLINE
  5
71
100
AcDbEntity
  8
0
 62
   254
100
AcDbPolyline
 90
        2
 70
     0
 39
0.003
 10
-0.477937
 20
-0.910406
 40
0.003
 41
0.003
 10
-0.445441
 20
-0.892898
 40
0.003
 41
0.003
  0
LWPOLYLINE
  5
72
100
AcDbEntity
  8
0
 62
   254
100
AcDbPolyline
 90
        2
 70
     0
 39
0.003
 10
-0.445441
 20
-0.892898
 40
0.003
 41
0.003
 10
-1.090114
 20
-0.511024
 40
0.003
 41
0.003
  0
LWPOLYLINE
  5
73
100
AcDbEntity
  8
0
 62
   254
100
AcDbPolyline
 90
        2
 70
     0
 39
0.003
 10
-1.090114
 20
-0.511024
 40
0.003
 41
0.003
 10
-1.12261
 20
-0.528531
 40
0.003
 41
0.003
  0
LWPOLYLINE
  5
74
100
AcDbEntity
  8
0
 62
   254
100
AcDbPolyline
 90
        2
 70
     0
 39
0.003
 10
-1.090114
 20
-0.511024
 40
0.003
 41
0.003
 10
-0.445441
 20
-0.892898
 40
0.003
 41
0.003
  0
LWPOLYLINE
  5
75
100
AcDbEntity
  8
0
 62
   254
100
AcDbPolyline
 90
        2
 70
     0
 39
0.003
 10
-0.445441
 20
-0.892898
 40
0.003
 41
0.003
 10
-0.414185
 20
-0.874543
 40
0.003
 41
0.003
  0
LWPOLYLINE
  5
76
100
AcDbEntity
  8
0
 62
   254
100
AcDbPolyline
 90
        2
 70
     0
 39
0.003
 10
-0.414185
 20
-0.874543
 40
0.003
 41
0.003
 10
-1.058858
 20
-0.492669
 40
0.003
 41
0.003
  0
LWPOLYLINE
  5
77
100
AcDbEntity
  8
0
 62
   254
100
AcDbPolyline
 90
        2
 70
     0
 39
0.003
 10
-1.058858
 20
-0.492669
 40
0.003
 41
0.003
 10
-1.090114
 20
-0.511024
 40
0.003
 41
0.003
  0
LWPOLYLINE
  5
78
100
AcDbEntity
  8
0
 62
   254
100
AcDbPolyline
 90
        2
 70
     0
 39
0.003
 10
-1.058858
 20
-0.492669
 40
0.003
 41
0.003
 10
-0.414185
 20
-0.874543
 40
0.003
 41
0.003
  0
LWPOLYLINE
  5
79
100
AcDbEntity
  8
0
 62
   254
100
AcDbPolyline
 90
        2
 70
     0
 39
0.003
 10
-0.414185
 20
-0.874543
 40
0.003
 41
0.003
 10
-0.384134
 20
-0.855445
 40
0.003
 41
0.003
  0
LWPOLYLINE
  5
7A
100
AcDbEntity
  8
0
 62
   254
100
AcDbPolyline
 90
        2
 70
     0
 39
0.003
 10
-0.384134
 20
-0.855445
 40
0.003
 41
0.003
 10
-1.028807
 20
-0.473571
 40
0.003
 41
0.003
  0
LWPOLYLINE
  5
7B
100
AcDbEntity
  8
0
 62
   254
100
AcDbPolyline
 90
        2
 70
     0
 39
0.003
 10
-1.028807
 20
-0.473571
 40
0.003
 41
0.003
 10
-1.058858
 20
-0.492669
 40
0.003
 41
0.003
  0
LWPOLYLINE
  5
7C
100
AcDbEntity
  8
0
 62
   254
100
AcDbPolyline
 90
        2
 70
     0
 39
0.003
 10
-1.028807
 20
-0.473571
 40
0.003
 41
0.003
 10
-0.384134
 20
-0.855445
 40
0.003
 41
0.003
  0
LWPOLYLINE
  5
7D
100
AcDbEntity
  8
0
 62
   254
100
AcDbPolyline
 90
        2
 70
     0
 39
0.003
 10
-0.384134
 20
-0.855445
 40
0.003
 41
0.003
 10
-0.355224
 20
-0.835689
 40
0.003
 41
0.003
  0
LWPOLYLINE
  5
7E
100
AcDbEntity
  8
0
 62
   254
100
AcDbPolyline
 90
        2
 70
     0
 39
0.003
 10
-0.355224
 20
-0.835689
 40
0.003
 41
0.003
 10
-0.999898
 20
-0.453815
 40
0.003
 41
0.003
  0
LWPOLYLINE
  5
7F
100
AcDbEntity
  8
0
 62
   254
100
AcDbPolyline
 90
        2
 70
     0
 39
0.003
 10
-0.999898
 20
-0.453815
 40
0.003
 41
0.003
 10
-1.028807
 20
-0.473571
 40
0.003
 41
0.003
  0
LWPOLYLINE
  5
80
100
AcDbEntity
  8
0
 62
   254
100
AcDbPolyline
 90
        2
 70
     0
 39
0.003
 10
-0.999898
 20
-0.453815
 40
0.003
 41
0.003
 10
-0.355224
 20
-0.835689
 40
0.003
 41
0.003
  0
LWPOLYLINE
  5
81
100
AcDbEntity
  8
0
 62
   254
100
AcDbPolyline
 90
        2
 70
     0
 39
0.003
 10
-0.355224
 20
-0.835689
 40
0.003
 41
0.003
 10
-0.327406
 20
-0.815382
 40
0.003
 41
0.003
  0
LWPOLYLINE
  5
82
100
AcDbEntity
  8
0
 62
   254
100
AcDbPolyline
 90
        2
 70
     0
 39
0.003
 10
-0.327406
 20
-0.815382
 40
0.003
 41
0.003
 10
-0.972079
 20
-0.433508
 40
0.003
 41
0.003
  0
LWPOLYLINE
  5
83
100
AcDbEntity
  8
0
 62
   254
100
AcDbPolyline
 90
        2
 70
     0
 39
0.003
 10
-0.972079
 20
-0.433508
 40
0.003
 41
0.003
 10
-0.999898
 20
-0.453815
 40
0.003
 41
0.003
  0
LWPOLYLINE
  5
84
100
AcDbEntity
  8
0
 62
   254
100
AcDbPolyline
 90
        2
 70
     0
 39
0.003
 10
-0.972079
 20
-0.433508
 40
0.003
 41
0.003
 10
-0.327406
 20
-0.815382
 40
0.003
 41
0.003
  0
LWPOLYLINE
  5
85
100
AcDbEntity
  8
0
 62
   254
100
AcDbPolyline
 90
        2
 70
     0
 39
0.003
 10
-0.327406
 20
-0.815382
 40
0.003
 41
0.003
 10
-0.30061
 20
-0.794602
 40
0.003
 41
0.003
  0
LWPOLYLINE
  5
86
100
AcDbEntity
  8
0
 62
   254
100
AcDbPolyline
 90
        2
 70
     0
 39
0.003
 10
-0.30061
 20
-0.794602
 40
0.003
 41
0.003
 10
-0.945283
 20
-0.412728
 40
0.003
 41
0.003
  0
LWPOLYLINE
  5
87
100
AcDbEntity
  8
0
 62
   254
100
AcDbPolyline
 90
        2
 70
     0
 39
0.003
 10
-0.945283
 20
-0.412728
 40
0.003
 41
0.003
 10
-0.972079
 20
-0.433508
 40
0.003
 41
0.003
  0
LWPOLYLINE
  5
88
100
AcDbEntity
  8
0
 62
   254
100
AcDbPolyline
 90
        2
 70
     0
 39
0.003
 10
-0.945283
 20
-0.412728
 40
0.003
 41
0.003
 10
-0.30061
 20
-0.794602
 40
0.003
 41
0.003
  0
LWPOLYLINE
  5
89
100
AcDbEntity
  8
0
 62
   254
100
AcDbPolyline
 90
        2
 70
     0
 39
0.003
 10
-0.30061
 20
-0.794602
 40
0.003
 41
0.003
 10
-0.274799
 20
-0.773457
 40
0.003
 41
0.003
  0
LWPOLYLINE
  5
8A
100
AcDbEntity
  8
0
 62
   254
100
AcDbPolyline
 90
        2
 70
     0
 39
0.003
 10
-0.274799
 20
-0.773457
 40
0.003
 41
0.003
 10
-0.919472
 20
-0.391583
 40
0.003
 41
0.003
  0
LWPOLYLINE
  5
8B
100
AcDbEntity
  8
0
 62
   254
100
AcDbPolyline
 90
        2
 70
     0
 39
0.003
 10
-0.919472
 20
-0.391583
 40
0.003
 41
0.003
 10
-0.945283
 20
-0.412728
 40
0.003
 41
0.003
  0
LWPOLYLINE
  5
8C
100
AcDbEntity
  8
0
 62
   254
100
AcDbPolyline
 90
        2
 70
     0
 39
0.003
 10
-0.919472
 20
-0.391583
 40
0.003
 41
0.003
 10
-0.274799
 20
-0.773457
 40
0.003
 41
0.003
  0
LWPOLYLINE
  5
8D
100
AcDbEntity
  8
0
 62
   254
100
AcDbPolyline
 90
        2
 70
     0
 39
0.003
 10
-0.274799
 20
-0.773457
 40
0.003
 41
0.003
 10
-0.249917
 20
-0.752031
 40
0.003
 41
0.003
  0
LWPOLYLINE
  5
8E
100
AcDbEntity
  8
0
 62
   254
100
AcDbPolyline
 90
        2
 70
     0
 39
0.003
 10
-0.249917
 20
-0.752031
 40
0.003
 41
0.003
 10
-0.894591
 20
-0.370157
 40
0.003
 41
0.003
  0
LWPOLYLINE
  5
8F
100
AcDbEntity
  8
0
 62
   254
100
AcDbPolyline
 90
        2
 70
     0
 39
0.003
 10
-0.894591
 20
-0.370157
 40
0.003
 41
0.003
 10
-0.919472
 20
-0.391583
 40
0.003
 41
0.003
  0
LWPOLYLINE
  5
90
100
AcDbEntity
  8
0
 62
   254
100
AcDbPolyline
 90
        2
 70
     0
 39
0.003
 10
-0.894591
 20
-0.370157
 40
0.003
 41
0.003
 10
-0.249917
 20
-0.752031
 40
0.003
 41
0.003
  0
LWPOLYLINE
  5
91
100
AcDbEntity
  8
0
 62
   254
100
AcDbPolyline
 90
        2
 70
     0
 39
0.003
 10
-0.249917
 20
-0.752031
 40
0.003
 41
0.003
 10
-0.225909
 20
-0.730433
 40
0.003
 41
0.003
  0
LWPOLYLINE
  5
92
100
AcDbEntity
  8
0
 62
   254
100
AcDbPolyline
 90
        2
 70
     0
 39
0.003
 10
-0.225909
 20
-0.730433
 40
0.003
 41
0.003
 10
-0.870583
 20
-0.348559
 40
0.003
 41
0.003
  0
LWPOLYLINE
  5
93
100
AcDbEntity
  8
0
 62
   254
100
AcDbPolyline
 90
        2
 70
     0
 39
0.003
 10
-0.870583
 20
-0.348559
 40
0.003
 41
0.003
 10
-0.894591
 20
-0.370157
 40
0.003
 41
0.003
  0
LWPOLYLINE
  5
94
100
AcDbEntity
  8
0
 62
   254
100
AcDbPolyline
 90
        2
 70
     0
 39
0.003
 10
-0.870583
 20
-0.348559
 40
0.003
 41
0.003
 10
-0.225909
 20
-0.730433
 40
0.003
 41
0.003
  0
LWPOLYLINE
  5
95
100
AcDbEntity
  8
0
 62
   254
100
AcDbPolyline
 90
        2
 70
     0
 39
0.003
 10
-0.225909
 20
-0.730433
 40
0.003
 41
0.003
 10
-0.202717
 20
-0.70874
 40
0.003
 41
0.003
  0
LWPOLYLINE
  5
96
100
AcDbEntity
  8
0
 62
   254
100
AcDbPolyline
 90
        2
 70
     0
 39
0.003
 10
-0.202717
 20
-0.70874
 40
0.003
 41
0.003
 10
-0.84739
 20
-0.326866
 40
0.003
 41
0.003
  0
LWPOLYLINE
  5
97
100
AcDbEntity
  8
0
 62
   254
100
AcDbPolyline
 90
        2
 70
     0
 39
0.003
 10
-0.84739
 20
-0.326866
 40
0.003
 41
0.003
 10
-0.870583
 20
-0.348559
 40
0.003
 41
0.003
  0
LWPOLYLINE
  5
98
100
AcDbEntity
  8
0
 62
   254
100
AcDbPolyline
 90
        2
 70
     0
 39
0.003
 10
-0.84739
 20
-0.326866
 40
0.003
 41
0.003
 10
-0.202717
 20
-0.70874
 40
0.003
 41
0.003
  0
LWPOLYLINE
  5
99
100
AcDbEntity
  8
0
 62
   254
100
AcDbPolyline
 90
        2
 70
     0
 39
0.003
 10
-0.202717
 20
-0.70874
 40
0.003
 41
0.003
 10
-0.180295
 20
-0.687063
 40
0.003
 41
0.003
  0
LWPOLYLINE
  5
9A
100
AcDbEntity
  8
0
 62
   254
100
AcDbPolyline
 90
        2
 70
     0
 39
0.003
 10
-0.180295
 20
-0.687063
 40
0.003
 41
0.003
 10
-0.824969
 20
-0.305189
 40
0.003
 41
0.003
  0
LWPOLYLINE
  5
9B
100
AcDbEntity
  8
0
 62
   254
100
AcDbPolyline
 90
        2
 70
     0
 39
0.003
 10
-0.824969
 20
-0.305189
 40
0.003
 41
0.003
 10
-0.84739
 20
-0.326866
 40
0.003
 41
0.003
  0
LWPOLYLINE
  5
9C
100
AcDbEntity
  8
0
 62
   254
100
AcDbPolyline
 90
        2
 70
     0
 39
0.003
 10
-0.824969
 20
-0.305189
 40
0.003
 41
0.003
 10
-0.180295
 20
-0.687063
 40
0.003
 41
0.003
  0
LWPOLYLINE
  5
9D
100
AcDbEntity
  8
0
 62
   254
100
AcDbPolyline
 90
        2
 70
     0
 39
0.003
 10
-0.180295
 20
-0.687063
 40
0.003
 41
0.003
 10
-0.158579
 20
-0.665484
 40
0.003
 41
0.003
  0
LWPOLYLINE
  5
9E
100
AcDbEntity
  8
0
 62
   254
100
AcDbPolyline
 90
        2
 70
     0
 39
0.003
 10
-0.158579
 20
-0.665484
 40
0.003
 41
0.003
 10
-0.803252
 20
-0.28361
 40
0.003
 41
0.003
  0
LWPOLYLINE
  5
9F
100
AcDbEntity
  8
0
 62
   254
100
AcDbPolyline
 90
        2
 70
     0
 39
0.003
 10
-0.803252
 20
-0.28361
 40
0.003
 41
0.003
 10
-0.824969
 20
-0.305189
 40
0.003
 41
0.003
  0
LWPOLYLINE
  5
A0
100
AcDbEntity
  8
0
 62
   254
100
AcDbPolyline
 90
        2
 70
     0
 39
0.003
 10
-0.803252
 20
-0.28361
 40
0.003
 41
0.003
 10
-0.158579
 20
-0.665484
 40
0.003
 41
0.003
  0
LWPOLYLINE
  5
A1
100
AcDbEntity
  8
0
 62
   254
100
AcDbPolyline
 90
        2
 70
     0
 39
0.003
 10
-0.158579
 20
-0.665484
 40
0.003
 41
0.003
 10
-0.137528
 20
-0.64411
 40
0.003
 41
0.003
  0
LWPOLYLINE
  5
A2
100
AcDbEntity
  8
0
 62
   254
100
AcDbPolyline
 90
        2
 70
     0
 39
0.003
 10
-0.137528
 20
-0.64411
 40
0.003
 41
0.003
 10
-0.782201
 20
-0.262236
 40
0.003
 41
0.003
  0
LWPOLYLINE
  5
A3
100
AcDbEntity
  8
0
 62
   254
100
AcDbPolyline
 90
        2
 70
     0
 39
0.003
 10
-0.782201
 20
-0.262236
 40
0.003
 41
0.003
 10
-0.803252
 20
-0.28361
 40
0.003
 41
0.003
  0
LWPOLYLINE
  5
A4
100
AcDbEntity
  8
0
 62
   254
100
AcDbPolyline
 90
        2
 70
     0
 39
0.003
 10
-0.782201
 20
-0.262236
 40
0.003
 41
0.003
 10
-0.137528
 20
-0.64411
 40
0.003
 41
0.003
  0
LWPOLYLINE
  5
A5
100
AcDbEntity
  8
0
 62
   254
100
AcDbPolyline
 90
        2
 70
     0
 39
0.003
 10
-0.137528
 20
-0.64411
 40
0.003
 41
0.003
 10
-0.117071
 20
-0.62302
 40
0.003
 41
0.003
  0
LWPOLYLINE
  5
A6
100
AcDbEntity
  8
0
 62
   254
100
AcDbPolyline
 90
        2
 70
     0
 39
0.003
 10
-0.117071
 20
-0.62302
 40
0.003
 41
0.003
 10
-0.761744
 20
-0.241146
 40
0.003
 41
0.003
  0
LWPOLYLINE
  5
A7
100
AcDbEntity
  8
0
 62
   254
100
AcDbPolyline
 90
        2
 70
     0
 39
0.003
 10
-0.761744
 20
-0.241146
 40
0.003
 41
0.003
 10
-0.782201
 20
-0.262236
 40
0.003
 41
0.003
  0
LWPOLYLINE
  5
A8
100
AcDbEntity
  8
0
 62
   254
100
AcDbPolyline
 90
        2
 70
     0
 39
0.003
 10
-0.761744
 20
-0.241146
 40
0.003
 41
0.003
 10
-0.117071
 20
-0.62302
 40
0.003
 41
0.003
  0
LWPOLYLINE
  5
A9
100
AcDbEntity
  8
0
 62
   254
100
AcDbPolyline
 90
        2
 70
     0
 39
0.003
 10
-0.117071
 20
-0.62302
 40
0.003
 41
0.003
 10
-0.097165
 20
-0.602319
 40
0.003
 41
0.003
  0
LWPOLYLINE
  5
AA
100
AcDbEntity
  8
0
 62
   254
100
AcDbPolyline
 90
        2
 70
     0
 39
0.003
 10
-0.097165
 20
-0.602319
 40
0.003
 41
0.003
 10
-0.741839
 20
-0.220445
 40
0.003
 41
0.003
  0
LWPOLYLINE
  5
AB
100
AcDbEntity
  8
0
 62
   254
100
AcDbPolyline
 90
        2
 70
     0
 39
0.003
 10
-0.741839
 20
-0.220445
 40
0.003
 41
0.003
 10
-0.761744
 20
-0.241146
 40
0.003
 41
0.003
  0
LWPOLYLINE
  5
AC
100
AcDbEntity
  8
0
 62
   254
100
AcDbPolyline
 90
        2
 70
     0
 39
0.003
 10
-0.741839
 20
-0.220445
 40
0.003
 41
0.003
 10
-0.097165
 20
-0.602319
 40
0.003
 41
0.003
  0
LWPOLYLINE
  5
AD
100
AcDbEntity
  8
0
 62
   254
100
AcDbPolyline
 90
        2
 70
     0
 39
0.003
 10
-0.097165
 20
-0.602319
 40
0.003
 41
0.003
 10
-0.077752
 20
-0.582098
 40
0.003
 41
0.003
  0
LWPOLYLINE
  5
AE
100
AcDbEntity
  8
0
 62
   254
100
AcDbPolyline
 90
        2
 70
     0
 39
0.003
 10
-0.077752
 20
-0.582098
 40
0.003
 41
0.003
 10
-0.722425
 20
-0.200224
 40
0.003
 41
0.003
  0
LWPOLYLINE
  5
AF
100
AcDbEntity
  8
0
 62
   254
100
AcDbPolyline
 90
        2
 70
     0
 39
0.003
 10
-0.722425
 20
-0.200224
 40
0.003
 41
0.003
 10
-0.741839
 20
-0.220445
 40
0.003
 41
0.003
  0
LWPOLYLINE
  5
B0
100
AcDbEntity
  8
0
 62
   254
100
AcDbPolyline
 90
        2
 70
     0
 39
0.003
 10
-0.722425
 20
-0.200224
 40
0.003
 41
0.003
 10
-0.077752
 20
-0.582098
 40
0.003
 41
0.003
  0
LWPOLYLINE
  5
B1
100
AcDbEntity
  8
0
 62
   254
100
AcDbPolyline
 90
        2
 70
     0
 39
0.003
 10
-0.077752
 20
-0.582098
 40
0.003
 41
0.003
 10
-0.058791
 20
-0.562457
 40
0.003
 41
0.003
  0
LWPOLYLINE
  5
B2
100
AcDbEntity
  8
0
 62
   254
100
AcDbPolyline
 90
        2
 70
     0
 39
0.003
 10
-0.058791
 20
-0.562457
 40
0.003
 41
0.003
 10
-0.703465
 20
-0.180583
 40
0.003
 41
0.003
  0
LWPOLYLINE
  5
B3
100
AcDbEntity
  8
0
 62
   254
100
AcDbPolyline
 90
        2
 70
     0
 39
0.003
 10
-0.703465
 20
-0.180583
 40
0.003
 41
0.003
 10
-0.722425
 20
-0.200224
 40
0.003
 41
0.003
  0
LWPOLYLINE
  5
B4
100
AcDbEntity
  8
0
 62
   254
100
AcDbPolyline
 90
        2
 70
     0
 39
0.003
 10
-0.703465
 20
-0.180583
 40
0.003
 41
0.003
 10
-0.058791
 20
-0.562457
 40
0.003
 41
0.003
  0
LWPOLYLINE
  5
B5
100
AcDbEntity
  8
0
 62
   254
100
AcDbPolyline
 90
        2
 70
     0
 39
0.003
 10
-0.058791
 20
-0.562457
 40
0.003
 41
0.003
 10
-0.040213
 20
-0.54348
 40
0.003
 41
0.003
  0
LWPOLYLINE
  5
B6
100
AcDbEntity
  8
0
 62
   254
100
AcDbPolyline
 90
        2
 70
     0
 39
0.003
 10
-0.040213
 20
-0.54348
 40
0.003
 41
0.003
 10
-0.684886
 20
-0.161606
 40
0.003
 41
0.003
  0
LWPOLYLINE
  5
B7
100
AcDbEntity
  8
0
 62
   254
100
AcDbPolyline
 90
        2
 70
     0
 39
0.003
 10
-0.684886
 20
-0.161606
 40
0.003
 41
0.003
 10
-0.703465
 20
-0.180583
 40
0.003
 41
0.003
  0
LWPOLYLINE
  5
B8
100
AcDbEntity
  8
0
 62
   254
100
AcDbPolyline
 90
        2
 70
     0
 39
0.003
 10
-0.684886
 20
-0.161606
 40
0.003
 41
0.003
 10
-0.040213
 20
-0.54348
 40
0.003
 41
0.003
  0
LWPOLYLINE
  5
B9
100
AcDbEntity
  8
0
 62
   254
100
AcDbPolyline
 90
        2
 70
     0
 39
0.003
 10
-0.040213
 20
-0.54348
 40
0.003
 41
0.003
 10
-0.021969
 20
-0.525272
 40
0.003
 41
0.003
  0
LWPOLYLINE
  5
BA
100
AcDbEntity
  8
0
 62
   254
100
AcDbPolyline
 90
        2
 70
     0
 39
0.003
 10
-0.021969
 20
-0.525272
 40
0.003
 41
0.003
 10
-0.666642
 20
-0.143398
 40
0.003
 41
0.003
  0
LWPOLYLINE
  5
BB
100
AcDbEntity
  8
0
 62
   254
100
AcDbPolyline
 90
        2
 70
     0
 39
0.003
 10
-0.666642
 20
-0.143398
 40
0.003
 41
0.003
 10
-0.684886
 20
-0.161606
 40
0.003
 41
0.003
  0
LWPOLYLINE
  5
BC
100
AcDbEntity
  8
0
 62
   254
100
AcDbPolyline
 90
        2
 70
     0
 39
0.003
 10
-0.666642
 20
-0.143398
 40
0.003
 41
0.003
 10
-0.021969
 20
-0.525272
 40
0.003
 41
0.003
  0
LWPOLYLINE
  5
BD
100
AcDbEntity
  8
0
 62
   254
100
AcDbPolyline
 90
        2
 70
     0
 39
0.003
 10
-0.021969
 20
-0.525272
 40
0.003
 41
0.003
 10
-0.004008
 20
-0.507921
 40
0.003
 41
0.003
  0
LWPOLYLINE
  5
BE
100
AcDbEntity
  8
0
 62
   254
100
AcDbPolyline
 90
        2
 70
     0
 39
0.003
 10
-0.004008
 20
-0.507921
 40
0.003
 41
0.003
 10
-0.648681
 20
-0.126047
 40
0.003
 41
0.003
  0
LWPOLYLINE
  5
BF
100
AcDbEntity
  8
0
 62
   254
100
AcDbPolyline
 90
        2
 70
     0
 39
0.003
 10
-0.648681
 20
-0.126047
 40
0.003
 41
0.003
 10
-0.666642
 20
-0.143398
 40
0.003
 41
0.003
  0
LWPOLYLINE
  5
C0
100
AcDbEntity
  8
0
 62
   254
100
AcDbPolyline
 90
        2
 70
     0
 39
0.003
 10
-0.648681
 20
-0.126047
 40
0.003
 41
0.003
 10
-0.004008
 20
-0.507921
 40
0.003
 41
0.003
  0
LWPOLYLINE
  5
C1
100
AcDbEntity
  8
0
 62
   254
100
AcDbPolyline
 90
        2
 70
     0
 39
0.003
 10
-0.004008
 20
-0.507921
 40
0.003
 41
0.003
 10
0.013724
 20
-0.491528
 40
0.003
 41
0.003
  0
LWPOLYLINE
  5
C2
100
AcDbEntity
  8
0
 62
   254
100
AcDbPolyline
 90
        2
 70
     0
 39
0.003
 10
0.013724
 20
-0.491528
 40
0.003
 41
0.003
 10
-0.630949
 20
-0.109654
 40
0.003
 41
0.003
  0
LWPOLYLINE
  5
C3
100
AcDbEntity
  8
0
 62
   254
100
AcDbPolyline
 90
        2
 70
     0
 39
0.003
 10
-0.630949
 20
-0.109654
 40
0.003
 41
0.003
 10
-0.648681
 20
-0.126047
 40
0.003
 41
0.003
  0
LWPOLYLINE
  5
C4
100
AcDbEntity
  8
0
 62
   254
100
AcDbPolyline
 90
        2
 70
     0
 39
0.003
 10
-0.630949
 20
-0.109654
 40
0.003
 41
0.003
 10
0.013724
 20
-0.491528
 40
0.003
 41
0.003
  0
LWPOLYLINE
  5
C5
100
AcDbEntity
  8
0
 62
   254
100
AcDbPolyline
 90
        2
 70
     0
 39
0.003
 10
0.013724
 20
-0.491528
 40
0.003
 41
0.003
 10
0.031197
 20
-0.47528
 40
0.003
 41
0.003
  0
LWPOLYLINE
  5
C6
100
AcDbEntity
  8
0
 62
   254
100
AcDbPolyline
 90
        2
 70
     0
 39
0.003
 10
0.031197
 20
-0.47528
 40
0.003
 41
0.003
 10
-0.613476
 20
-0.093406
 40
0.003
 41
0.003
  0
LWPOLYLINE
  5
C7
100
AcDbEntity
  8
0
 62
   254
100
AcDbPolyline
 90
        2
 70
     0
 39
0.003
 10
-0.613476
 20
-0.093406
 40
0.003
 41
0.003
 10
-0.630949
 20
-0.109654
 40
0.003
 41
0.003
  0
LWPOLYLINE
  5
C8
100
AcDbEntity
  8
0
 62
   254
100
AcDbPolyline
 90
        2
 70
     0
 39
0.003
 10
-0.613476
 20
-0.093406
 40
0.003
 41
0.003
 10
0.031197
 20
-0.47528
 40
0.003
 41
0.003
  0
LWPOLYLINE
  5
C9
100
AcDbEntity
  8
0
 62
   254
100
AcDbPolyline
 90
        2
 70
     0
 39
0.003
 10
0.031197
 20
-0.47528
 40
0.003
 41
0.003
 10
0.048402
 20
-0.458358
 40
0.003
 41
0.003
  0
LWPOLYLINE
  5
CA
100
AcDbEntity
  8
0
 62
   254
100
AcDbPolyline
 90
        2
 70
     0
 39
0.003
 10
0.048402
 20
-0.458358
 40
0.003
 41
0.003
 10
-0.596272
 20
-0.076484
 40
0.003
 41
0.003
  0
LWPOLYLINE
  5
CB
100
AcDbEntity
  8
0
 62
   254
100
AcDbPolyline
 90
        2
 70
     0
 39
0.003
 10
-0.596272
 20
-0.076484
 40
0.003
 41
0.003
 10
-0.613476
 20
-0.093406
 40
0.003
 41
0.003
  0
LWPOLYLINE
  5
CC
100
AcDbEntity
  8
0
 62
   254
100
AcDbPolyline
 90
        2
 70
     0
 39
0.003
 10
-0.596272
 20
-0.076484
 40
0.003
 41
0.003
 10
0.048402
 20
-0.458358
 40
0.003
 41
0.003
  0
LWPOLYLINE
  5
CD
100
AcDbEntity
  8
0
 62
   254
100
AcDbPolyline
 90
        2
 70
     0
 39
0.003
 10
0.048402
 20
-0.458358
 40
0.003
 41
0.003
 10
0.065484
 20
-0.440815
 40
0.003
 41
0.003
  0
LWPOLYLINE
  5
CE
100
AcDbEntity
  8
0
 62
   254
100
AcDbPolyline
 90
        2
 70
     0
 39
0.003
 10
0.065484
 20
-0.440815
 40
0.003
 41
0.003
 10
-0.579189
 20
-0.058941
 40
0.003
 41
0.003
  0
LWPOLYLINE
  5
CF
100
AcDbEntity
  8
0
 62
   254
100
AcDbPolyline
 90
        2
 70
     0
 39
0.003
 10
-0.579189
 20
-0.058941
 40
0.003
 41
0.003
 10
-0.596272
 20
-0.076484
 40
0.003
 41
0.003
  0
LWPOLYLINE
  5
D0
100
AcDbEntity
  8
0
 62
   254
100
AcDbPolyline
 90
        2
 70
     0
 39
0.003
 10
-0.579189
 20
-0.058941
 40
0.003
 41
0.003
 10
0.065484
 20
-0.440815
 40
0.003
 41
0.003
  0
LWPOLYLINE
  5
D1
100
AcDbEntity
  8
0
 62
   254
100
AcDbPolyline
 90
        2
 70
     0
 39
0.003
 10
0.065484
 20
-0.440815
 40
0.003
 41
0.003
 10
0.082567
 20
-0.422713
 40
0.003
 41
0.003
  0
LWPOLYLINE
  5
D2
100
AcDbEntity
  8
0
 62
   254
100
AcDbPolyline
 90
        2
 70
     0
 39
0.003
 10
0.082567
 20
-0.422713
 40
0.003
 41
0.003
 10
-0.562106
 20
-0.040839
 40
0.003
 41
0.003
  0
LWPOLYLINE
  5
D3
100
AcDbEntity
  8
0
 62
   254
100
AcDbPolyline
 90
        2
 70
     0
 39
0.003
 10
-0.562106
 20
-0.040839
 40
0.003
 41
0.003
 10
-0.579189
 20
-0.058941
 40
0.003
 41
0.003
  0
LWPOLYLINE
  5
D4
100
AcDbEntity
  8
0
 62
   254
100
AcDbPolyline
 90
        2
 70
     0
 39
0.003
 10
-0.562106
 20
-0.040839
 40
0.003
 41
0.003
 10
0.082567
 20
-0.422713
 40
0.003
 41
0.003
  0
LWPOLYLINE
  5
D5
100
AcDbEntity
  8
0
 62
   254
100
AcDbPolyline
 90
        2
 70
     0
 39
0.003
 10
0.082567
 20
-0.422713
 40
0.003
 41
0.003
 10
0.099799
 20
-0.404087
 40
0.003
 41
0.003
  0
LWPOLYLINE
  5
D6
100
AcDbEntity
  8
0
 62
   254
100
AcDbPolyline
 90
        2
 70
     0
 39
0.003
 10
0.099799
 20
-0.404087
 40
0.003
 41
0.003
 10
-0.544874
 20
-0.022213
 40
0.003
 41
0.003
  0
LWPOLYLINE
  5
D7
100
AcDbEntity
  8
0
 62
   254
100
AcDbPolyline
 90
        2
 70
     0
 39
0.003
 10
-0.544874
 20
-0.022213
 40
0.003
 41
0.003
 10
-0.562106
 20
-0.040839
 40
0.003
 41
0.003
  0
LWPOLYLINE
  5
D8
100
AcDbEntity
  8
0
 62
   254
100
AcDbPolyline
 90
        2
 70
     0
 39
0.003
 10
-0.544874
 20
-0.022213
 40
0.003
 41
0.003
 10
0.099799
 20
-0.404087
 40
0.003
 41
0.003
  0
LWPOLYLINE
  5
D9
100
AcDbEntity
  8
0
 62
   254
100
AcDbPolyline
 90
        2
 70
     0
 39
0.003
 10
0.099799
 20
-0.404087
 40
0.003
 41
0.003
 10
0.117307
 20
-0.385004
 40
0.003
 41
0.003
  0
LWPOLYLINE
  5
DA
100
AcDbEntity
  8
0
 62
   254
100
AcDbPolyline
 90
        2
 70
     0
 39
0.003
 10
0.117307
 20
-0.385004
 40
0.003
 41
0.003
 10
-0.527366
 20
-0.00313
 40
0.003
 41
0.003
  0
LWPOLYLINE
  5
DB
100
AcDbEntity
  8
0
 62
   254
100
AcDbPolyline
 90
        2
 70
     0
 39
0.003
 10
-0.527366
 20
-0.00313
 40
0.003
 41
0.003
 10
-0.544874
 20
-0.022213
 40
0.003
 41
0.003
  0
LWPOLYLINE
  5
DC
100
AcDbEntity
  8
0
 62
   254
100
AcDbPolyline
 90
        2
 70
     0
 39
0.003
 10
-0.527366
 20
-0.00313
 40
0.003
 41
0.003
 10
0.117307
 20
-0.385004
 40
0.003
 41
0.003
  0
LWPOLYLINE
  5
DD
100
AcDbEntity
  8
0
 62
   254
100
AcDbPolyline
 90
        2
 70
     0
 39
0.003
 10
0.117307
 20
-0.385004
 40
0.003
 41
0.003
 10
0.135232
 20
-0.365516
 40
0.003
 41
0.003
  0
LWPOLYLINE
  5
DE
100
AcDbEntity
  8
0
 62
   254
100
AcDbPolyline
 90
        2
 70
     0
 39
0.003
 10
0.135232
 20
-0.365516
 40
0.003
 41
0.003
 10
-0.509441
 20
0.016358
 40
0.003
 41
0.003
  0
LWPOLYLINE
  5
DF
100
AcDbEntity
  8
0
 62
   254
100
AcDbPolyline
 90
        2
 70
     0
 39
0.003
 10
-0.509441
 20
0.016358
 40
0.003
 41
0.003
 10
-0.527366
 20
-0.00313
 40
0.003
 41
0.003
  0
LWPOLYLINE
  5
E0
100
AcDbEntity
  8
0
 62
   254
100
AcDbPolyline
 90
        2
 70
     0
 39
0.003
 10
-0.509441
 20
0.016358
 40
0.003
 41
0.003
 10
0.135232
 20
-0.365516
 40
0.003
 41
0.003
  0
LWPOLYLINE
  5
E1
100
AcDbEntity
  8
0
 62
   254
100
AcDbPolyline
 90
        2
 70
     0
 39
0.003
 10
0.135232
 20
-0.365516
 40
0.003
 41
0.003
 10
0.153701
 20
-0.345661
 40
0.003
 41
0.003
  0
LWPOLYLINE
  5
E2
100
AcDbEntity
  8
0
 62
   254
100
AcDbPolyline
 90
        2
 70
     0
 39
0.003
 10
0.153701
 20
-0.345661
 40
0.003
 41
0.003
 10
-0.490972
 20
0.036213
 40
0.003
 41
0.003
  0
LWPOLYLINE
  5
E3
100
AcDbEntity
  8
0
 62
   254
100
AcDbPolyline
 90
        2
 70
     0
 39
0.003
 10
-0.490972
 20
0.036213
 40
0.003
 41
0.003
 10
-0.509441
 20
0.016358
 40
0.003
 41
0.003
  0
LWPOLYLINE
  5
E4
100
AcDbEntity
  8
0
 62
   254
100
AcDbPolyline
 90
        2
 70
     0
 39
0.003
 10
-0.490972
 20
0.036213
 40
0.003
 41
0.003
 10
0.153701
 20
-0.345661
 40
0.003
 41
0.003
  0
LWPOLYLINE
  5
E5
100
AcDbEntity
  8
0
 62
   254
100
AcDbPolyline
 90
        2
 70
     0
 39
0.003
 10
0.153701
 20
-0.345661
 40
0.003
 41
0.003
 10
0.172858
 20
-0.325508
 40
0.003
 41
0.003
  0
LWPOLYLINE
  5
E6
100
AcDbEntity
  8
0
 62
   254
100
AcDbPolyline
 90
        2
 70
     0
 39
0.003
 10
0.172858
 20
-0.325508
 40
0.003
 41
0.003
 10
-0.471815
 20
0.056366
 40
0.003
 41
0.003
  0
LWPOLYLINE
  5
E7
100
AcDbEntity
  8
0
 62
   254
100
AcDbPolyline
 90
        2
 70
     0
 39
0.003
 10
-0.471815
 20
0.056366
 40
0.003
 41
0.003
 10
-0.490972
 20
0.036213
 40
0.003
 41
0.003
  0
LWPOLYLINE
  5
E8
100
AcDbEntity
  8
0
 62
   254
100
AcDbPolyline
 90
        2
 70
     0
 39
0.003
 10
-0.471815
 20
0.056366
 40
0.003
 41
0.003
 10
0.172858
 20
-0.325508
 40
0.003
 41
0.003
  0
LWPOLYLINE
  5
E9
100
AcDbEntity
  8
0
 62
   254
100
AcDbPolyline
 90
        2
 70
     0
 39
0.003
 10
0.172858
 20
-0.325508
 40
0.003
 41
0.003
 10
0.192835
 20
-0.305098
 40
0.003
 41
0.003
  0
LWPOLYLINE
  5
EA
100
AcDbEntity
  8
0
 62
   254
100
AcDbPolyline
 90
        2
 70
     0
 39
0.003
 10
0.192835
 20
-0.305098
 40
0.003
 41
0.003
 10
-0.451839
 20
0.076776
 40
0.003
 41
0.003
  0
LWPOLYLINE
  5
EB
100
AcDbEntity
  8
0
 62
   254
100
AcDbPolyline
 90
        2
 70
     0
 39
0.003
 10
-0.451839
 20
0.076776
 40
0.003
 41
0.003
 10
-0.471815
 20
0.056366
 40
0.003
 41
0.003
  0
LWPOLYLINE
  5
EC
100
AcDbEntity
  8
0
 62
   254
100
AcDbPolyline
 90
        2
 70
     0
 39
0.003
 10
-0.451839
 20
0.076776
 40
0.003
 41
0.003
 10
0.192835
 20
-0.305098
 40
0.003
 41
0.003
  0
LWPOLYLINE
  5
ED
100
AcDbEntity
  8
0
 62
   254
100
AcDbPolyline
 90
        2
 70
     0
 39
0.003
 10
0.192835
 20
-0.305098
 40
0.003
 41
0.003
 10
0.213764
 20
-0.284492
 40
0.003
 41
0.003
  0
LWPOLYLINE
  5
EE
100
AcDbEntity
  8
0
 62
   254
100
AcDbPolyline
 90
        2
 70
     0
 39
0.003
 10
0.213764
 20
-0.284492
 40
0.003
 41
0.003
 10
-0.430909
 20
0.097382
 40
0.003
 41
0.003
  0
LWPOLYLINE
  5
EF
100
AcDbEntity
  8
0
 62
   254
100
AcDbPolyline
 90
        2
 70
     0
 39
0.003
 10
-0.430909
 20
0.097382
 40
0.003
 41
0.003
 10
-0.451839
 20
0.076776
 40
0.003
 41
0.003
  0
LWPOLYLINE
  5
F0
100
AcDbEntity
  8
0
 62
   254
100
AcDbPolyline
 90
        2
 70
     0
 39
0.003
 10
-0.430909
 20
0.097382
 40
0.003
 41
0.003
 10
0.213764
 20
-0.284492
 40
0.003
 41
0.003
  0
LWPOLYLINE
  5
F1
100
AcDbEntity
  8
0
 62
   254
100
AcDbPolyline
 90
        2
 70
     0
 39
0.003
 10
0.213764
 20
-0.284492
 40
0.003
 41
0.003
 10
0.235776
 20
-0.263736
 40
0.003
 41
0.003
  0
LWPOLYLINE
  5
F2
100
AcDbEntity
  8
0
 62
   254
100
AcDbPolyline
 90
        2
 70
     0
 39
0.003
 10
0.235776
 20
-0.263736
 40
0.003
 41
0.003
 10
-0.408898
 20
0.118138
 40
0.003
 41
0.003
  0
LWPOLYLINE
  5
F3
100
AcDbEntity
  8
0
 62
   254
100
AcDbPolyline
 90
        2
 70
     0
 39
0.003
 10
-0.408898
 20
0.118138
 40
0.003
 41
0.003
 10
-0.430909
 20
0.097382
 40
0.003
 41
0.003
  0
LWPOLYLINE
  5
F4
100
AcDbEntity
  8
0
 62
   254
100
AcDbPolyline
 90
        2
 70
     0
 39
0.003
 10
-0.408898
 20
0.118138
 40
0.003
 41
0.003
 10
0.235776
 20
-0.263736
 40
0.003
 41
0.003
  0
LWPOLYLINE
  5
F5
100
AcDbEntity
  8
0
 62
   254
100
AcDbPolyline
 90
        2
 70
     0
 39
0.003
 10
0.235776
 20
-0.263736
 40
0.003
 41
0.003
 10
0.25902
 20
-0.242898
 40
0.003
 41
0.003
  0
LWPOLYLINE
  5
F6
100
AcDbEntity
  8
0
 62
   254
100
AcDbPolyline
 90
        2
 70
     0
 39
0.003
 10
0.25902
 20
-0.242898
 40
0.003
 41
0.003
 10
-0.385654
 20
0.138976
 40
0.003
 41
0.003
  0
LWPOLYLINE
  5
F7
100
AcDbEntity
  8
0
 62
   254
100
AcDbPolyline
 90
        2
 70
     0
 39
0.003
 10
-0.385654
 20
0.138976
 40
0.003
 41
0.003
 10
-0.408898
 20
0.118138
 40
0.003
 41
0.003
  0
LWPOLYLINE
  5
F8
100
AcDbEntity
  8
0
 62
   254
100
AcDbPolyline
 90
        2
 70
     0
 39
0.003
 10
-0.385654
 20
0.138976
 40
0.003
 41
0.003
 10
0.25902
 20
-0.242898
 40
0.003
 41
0.003
  0
LWPOLYLINE
  5
F9
100
AcDbEntity
  8
0
 62
   254
100
AcDbPolyline
 90
        2
 70
     0
 39
0.003
 10
0.25902
 20
-0.242898
 40
0.003
 41
0.003
 10
0.28361
 20
-0.222008
 40
0.003
 41
0.003
  0
LWPOLYLINE
  5
FA
100
AcDbEntity
  8
0
 62
   254
100
AcDbPolyline
 90
        2
 70
     0
 39
0.003
 10
0.28361
 20
-0.222008
 40
0.003
 41
0.003
 10
-0.361063
 20
0.159866
 40
0.003
 41
0.003
  0
LWPOLYLINE
  5
FB
100
AcDbEntity
  8
0
 62
   254
100
AcDbPolyline
 90
        2
 70
     0
 39
0.003
 10
-0.361063
 20
0.159866
 40
0.003
 41
0.003
 10
-0.385654
 20
0.138976
 40
0.003
 41
0.003
  0
LWPOLYLINE
  5
FC
100
AcDbEntity
  8
0
 62
   254
100
AcDbPolyline
 90
        2
 70
     0
 39
0.003
 10
-0.361063
 20
0.159866
 40
0.003
 41
0.003
 10
0.28361
 20
-0.222008
 40
0.003
 41
0.003
  0
LWPOLYLINE
  5
FD
100
AcDbEntity
  8
0
 62
   254
100
AcDbPolyline
 90
        2
 70
     0
 39
0.003
 10
0.28361
 20
-0.222008
 40
0.003
 41
0.003
 10
0.309701
 20
-0.201134
 40
0.003
 41
0.003
  0
LWPOLYLINE
  5
FE
100
AcDbEntity
  8
0
 62
   254
100
AcDbPolyline
 90
        2
 70
     0
 39
0.003
 10
0.309701
 20
-0.201134
 40
0.003
 41
0.003
 10
-0.334972
 20
0.18074
 40
0.003
 41
0.003
  0
LWPOLYLINE
  5
FF
100
AcDbEntity
  8
0
 62
   254
100
AcDbPolyline
 90
        2
 70
     0
 39
0.003
 10
-0.334972
 20
0.18074
 40
0.003
 41
0.003
 10
-0.361063
 20
0.159866
 40
0.003
 41
0.003
  0
LWPOLYLINE
  5
100
100
AcDbEntity
  8
0
 62
   254
100
AcDbPolyline
 90
        2
 70
     0
 39
0.003
 10
-0.334972
 20
0.18074
 40
0.003
 41
0.003
 10
0.309701
 20
-0.201134
 40
0.003
 41
0.003
  0
LWPOLYLINE
  5
101
100
AcDbEntity
  8
0
 62
   254
100
AcDbPolyline
 90
        2
 70
     0
 39
0.003
 10
0.309701
 20
-0.201134
 40
0.003
 41
0.003
 10
0.337409
 20
-0.180323
 40
0.003
 41
0.003
  0
LWPOLYLINE
  5
102
100
AcDbEntity
  8
0
 62
   254
100
AcDbPolyline
 90
        2
 70
     0
 39
0.003
 10
0.337409
 20
-0.180323
 40
0.003
 41
0.003
 10
-0.307264
 20
0.201551
 40
0.003
 41
0.003
  0
LWPOLYLINE
  5
103
100
AcDbEntity
  8
0
 62
   254
100
AcDbPolyline
 90
        2
 70
     0
 39
0.003
 10
-0.307264
 20
0.201551
 40
0.003
 41
0.003
 10
-0.334972
 20
0.18074
 40
0.003
 41
0.003
  0
LWPOLYLINE
  5
104
100
AcDbEntity
  8
0
 62
   254
100
AcDbPolyline
 90
        2
 70
     0
 39
0.003
 10
-0.307264
 20
0.201551
 40
0.003
 41
0.003
 10
0.337409
 20
-0.180323
 40
0.003
 41
0.003
  0
LWPOLYLINE
  5
105
100
AcDbEntity
  8
0
 62
   254
100
AcDbPolyline
 90
        2
 70
     0
 39
0.003
 10
0.337409
 20
-0.180323
 40
0.003
 41
0.003
 10
0.366894
 20
-0.159642
 40
0.003
 41
0.003
  0
LWPOLYLINE
  5
106
100
AcDbEntity
  8
0
 62
   254
100
AcDbPolyline
 90
        2
 70
     0
 39
0.003
 10
0.366894
 20
-0.159642
 40
0.003
 41
0.003
 10
-0.27778
 20
0.222232
 40
0.003
 41
0.003
  0
LWPOLYLINE
  5
107
100
AcDbEntity
  8
0
 62
   254
100
AcDbPolyline
 90
        2
 70
     0
 39
0.003
 10
-0.27778
 20
0.222232
 40
0.003
 41
0.003
 10
-0.307264
 20
0.201551
 40
0.003
 41
0.003
  0
LWPOLYLINE
  5
108
100
AcDbEntity
  8
0
 62
   254
100
AcDbPolyline
 90
        2
 70
     0
 39
0.003
 10
-0.27778
 20
0.222232
 40
0.003
 41
0.003
 10
0.366894
 20
-0.159642
 40
0.003
 41
0.003
  0
LWPOLYLINE
  5
109
100
AcDbEntity
  8
0
 62
   254
100
AcDbPolyline
 90
        2
 70
     0
 39
0.003
 10
0.366894
 20
-0.159642
 40
0.003
 41
0.003
 10
0.398272
 20
-0.139122
 40
0.003
 41
0.003
  0
LWPOLYLINE
  5
10A
100
AcDbEntity
  8
0
 62
   254
100
AcDbPolyline
 90
        2
 70
     0
 39
0.003
 10
0.398272
 20
-0.139122
 40
0.003
 41
0.003
 10
-0.246402
 20
0.242752
 40
0.003
 41
0.003
  0
LWPOLYLINE
  5
10B
100
AcDbEntity
  8
0
 62
   254
100
AcDbPolyline
 90
        2
 70
     0
 39
0.003
 10
-0.246402
 20
0.242752
 40
0.003
 41
0.003
 10
-0.27778
 20
0.222232
 40
0.003
 41
0.003
  0
LWPOLYLINE
  5
10C
100
AcDbEntity
  8
0
 62
   254
100
AcDbPolyline
 90
        2
 70
     0
 39
0.003
 10
-0.246402
 20
0.242752
 40
0.003
 41
0.003
 10
0.398272
 20
-0.139122
 40
0.003
 41
0.003
  0
LWPOLYLINE
  5
10D
100
AcDbEntity
  8
0
 62
   254
100
AcDbPolyline
 90
        2
 70
     0
 39
0.003
 10
0.398272
 20
-0.139122
 40
0.003
 41
0.003
 10
0.431685
 20
-0.118831
 40
0.003
 41
0.003
  0
LWPOLYLINE
  5
10E
100
AcDbEntity
  8
0
 62
   254
100
AcDbPolyline
 90
        2
 70
     0
 39
0.003
 10
0.431685
 20
-0.118831
 40
0.003
 41
0.003
 10
-0.212988
 20
0.263043
 40
0.003
 41
0.003
  0
LWPOLYLINE
  5
10F
100
AcDbEntity
  8
0
 62
   254
100
AcDbPolyline
 90
        2
 70
     0
 39
0.003
 10
-0.212988
 20
0.263043
 40
0.003
 41
0.003
 10
-0.246402
 20
0.242752
 40
0.003
 41
0.003
  0
LWPOLYLINE
  5
110
100
AcDbEntity
  8
0
 62
   254
100
AcDbPolyline
 90
        2
 70
     0
 39
0.003
 10
-0.212988
 20
0.263043
 40
0.003
 41
0.003
 10
0.431685
 20
-0.118831
 40
0.003
 41
0.003
  0
LWPOLYLINE
  5
111
100
AcDbEntity
  8
0
 62
   254
100
AcDbPolyline
 90
        2
 70
     0
 39
0.003
 10
0.431685
 20
-0.118831
 40
0.003
 41
0.003
 10
0.46726
 20
-0.098811
 40
0.003
 41
0.003
  0
LWPOLYLINE
  5
112
100
AcDbEntity
  8
0
 62
   254
100
AcDbPolyline
 90
        2
 70
     0
 39
0.003
 10
0.46726
 20
-0.098811
 40
0.003
 41
0.003
 10
-0.177413
 20
0.283063
 40
0.003
 41
0.003
  0
LWPOLYLINE
  5
113
100
AcDbEntity
  8
0
 62
   254
100
AcDbPolyline
 90
        2
 70
     0
 39
0.003
 10
-0.177413
 20
0.283063
 40
0.003
 41
0.003
 10
-0.212988
 20
0.263043
 40
0.003
 41
0.003
  0
LWPOLYLINE
  5
114
100
AcDbEntity
  8
0
 62
   254
100
AcDbPolyline
 90
        2
 70
     0
 39
0.003
 10
-0.177413
 20
0.283063
 40
0.003
 41
0.003
 10
0.46726
 20
-0.098811
 40
0.003
 41
0.003
  0
LWPOLYLINE
  5
115
100
AcDbEntity
  8
0
 62
   254
100
AcDbPolyline
 90
        2
 70
     0
 39
0.003
 10
0.46726
 20
-0.098811
 40
0.003
 41
0.003
 10
0.505146
 20
-0.07913
 40
0.003
 41
0.003
  0
LWPOLYLINE
  5
116
100
AcDbEntity
  8
0
 62
   254
100
AcDbPolyline
 90
        2
 70
     0
 39
0.003
 10
0.505146
 20
-0.07913
 40
0.003
 41
0.003
 10
-0.139528
 20
0.302744
 40
0.003
 41
0.003
  0
LWPOLYLINE
  5
117
100
AcDbEntity
  8
0
 62
   254
100
AcDbPolyline
 90
        2
 70
     0
 39
0.003
 10
-0.139528
 20
0.302744
 40
0.003
 41
0.003
 10
-0.177413
 20
0.283063
 40
0.003
 41
0.003
  0
LWPOLYLINE
  5
118
100
AcDbEntity
  8
0
 62
   254
100
AcDbPolyline
 90
        2
 70
     0
 39
0.003
 10
-0.139528
 20
0.302744
 40
0.003
 41
0.003
 10
0.505146
 20
-0.07913
 40
0.003
 41
0.003
  0
LWPOLYLINE
  5
119
100
AcDbEntity
  8
0
 62
   254
100
AcDbPolyline
 90
        2
 70
     0
 39
0.003
 10
0.505146
 20
-0.07913
 40
0.003
 41
0.003
 10
0.545461
 20
-0.059819
 40
0.003
 41
0.003
  0
LWPOLYLINE
  5
11A
100
AcDbEntity
  8
0
 62
   254
100
AcDbPolyline
 90
        2
 70
     0
 39
0.003
 10
0.545461
 20
-0.059819
 40
0.003
 41
0.003
 10
-0.099213
 20
0.322055
 40
0.003
 41
0.003
  0
LWPOLYLINE
  5
11B
100
AcDbEntity
  8
0
 62
   254
100
AcDbPolyline
 90
        2
 70
     0
 39
0.003
 10
-0.099213
 20
0.322055
 40
0.003
 41
0.003
 10
-0.139528
 20
0.302744
 40
0.003
 41
0.003
  0
LWPOLYLINE
  5
11C
100
AcDbEntity
  8
0
 62
   254
100
AcDbPolyline
 90
        2
 70
     0
 39
0.003
 10
-0.099213
 20
0.322055
 40
0.003
 41
0.003
 10
0.545461
 20
-0.059819
 40
0.003
 41
0.003
  0
LWPOLYLINE
  5
11D
100
AcDbEntity
  8
0
 62
   254
100
AcDbPolyline
 90
        2
 70
     0
 39
0.003
 10
0.545461
 20
-0.059819
 40
0.003
 41
0.003
 10
0.58835
 20
-0.040949
 40
0.003
 41
0.003
  0
LWPOLYLINE
  5
11E
100
AcDbEntity
  8
0
 62
   254
100
AcDbPolyline
 90
        2
 70
     0
 39
0.003
 10
0.58835
 20
-0.040949
 40
0.003
 41
0.003
 10
-0.056323
 20
0.340925
 40
0.003
 41
0.003
  0
LWPOLYLINE
  5
11F
100
AcDbEntity
  8
0
 62
   254
100
AcDbPolyline
 90
        2
 70
     0
 39
0.003
 10
-0.056323
 20
0.340925
 40
0.003
 41
0.003
 10
-0.099213
 20
0.322055
 40
0.003
 41
0.003
  0
LWPOLYLINE
  5
120
100
AcDbEntity
  8
0
 62
   254
100
AcDbPolyline
 90
        2
 70
     0
 39
0.003
 10
-0.056323
 20
0.340925
 40
0.003
 41
0.003
 10
0.58835
 20
-0.040949
 40
0.003
 41
0.003
  0
LWPOLYLINE
  5
121
100
AcDbEntity
  8
0
 62
   254
100
AcDbPolyline
 90
        2
 70
     0
 39
0.003
 10
0.58835
 20
-0.040949
 40
0.003
 41
0.003
 10
0.633945
 20
-0.022563
 40
0.003
 41
0.003
  0
LWPOLYLINE
  5
122
100
AcDbEntity
  8
0
 62
   254
100
AcDbPolyline
 90
        2
 70
     0
 39
0.003
 10
0.633945
 20
-0.022563
 40
0.003
 41
0.003
 10
-0.010728
 20
0.359311
 40
0.003
 41
0.003
  0
LWPOLYLINE
  5
123
100
AcDbEntity
  8
0
 62
   254
100
AcDbPolyline
 90
        2
 70
     0
 39
0.003
 10
-0.010728
 20
0.359311
 40
0.003
 41
0.003
 10
-0.056323
 20
0.340925
 40
0.003
 41
0.003
  0
LWPOLYLINE
  5
124
100
AcDbEntity
  8
0
 62
   254
100
AcDbPolyline
 90
        2
 70
     0
 39
0.003
 10
-0.010728
 20
0.359311
 40
0.003
 41
0.003
 10
0.633945
 20
-0.022563
 40
0.003
 41
0.003
  0
LWPOLYLINE
  5
125
100
AcDbEntity
  8
0
 62
   254
100
AcDbPolyline
 90
        2
 70
     0
 39
0.003
 10
0.633945
 20
-0.022563
 40
0.003
 41
0.003
 10
0.682382
 20
-0.004724
 40
0.003
 41
0.003
  0
LWPOLYLINE
  5
126
100
AcDbEntity
  8
0
 62
   254
100
AcDbPolyline
 90
        2
 70
     0
 39
0.003
 10
0.682382
 20
-0.004724
 40
0.003
 41
0.003
 10
0.037709
 20
0.37715
 40
0.003
 41
0.003
  0
LWPOLYLINE
  5
127
100
AcDbEntity
  8
0
 62
   254
100
AcDbPolyline
 90
        2
 70
     0
 39
0.003
 10
0.037709
 20
0.37715
 40
0.003
 41
0.003
 10
-0.010728
 20
0.359311
 40
0.003
 41
0.003
  0
LWPOLYLINE
  5
128
100
AcDbEntity
  8
0
 62
   254
100
AcDbPolyline
 90
        2
 70
     0
 39
0.003
 10
0.037709
 20
0.37715
 40
0.003
 41
0.003
 10
0.682382
 20
-0.004724
 40
0.003
 41
0.003
  0
LWPOLYLINE
  5
129
100
AcDbEntity
  8
0
 62
   254
100
AcDbPolyline
 90
        2
 70
     0
 39
0.003
 10
0.682382
 20
-0.004724
 40
0.003
 41
0.003
 10
0.733799
 20
0.012524
 40
0.003
 41
0.003
  0
LWPOLYLINE
  5
12A
100
AcDbEntity
  8
0
 62
   254
100
AcDbPolyline
 90
        2
 70
     0
 39
0.003
 10
0.733799
 20
0.012524
 40
0.003
 41
0.003
 10
0.089126
 20
0.394398
 40
0.003
 41
0.003
  0
LWPOLYLINE
  5
12B
100
AcDbEntity
  8
0
 62
   254
100
AcDbPolyline
 90
        2
 70
     0
 39
0.003
 10
0.089126
 20
0.394398
 40
0.003
 41
0.003
 10
0.037709
 20
0.37715
 40
0.003
 41
0.003
  0
LWPOLYLINE
  5
12C
100
AcDbEntity
  8
0
 62
   254
100
AcDbPolyline
 90
        2
 70
     0
 39
0.003
 10
0.089126
 20
0.394398
 40
0.003
 41
0.003
 10
0.733799
 20
0.012524
 40
0.003
 41
0.003
  0
LWPOLYLINE
  5
12D
100
AcDbEntity
  8
0
 62
   254
100
AcDbPolyline
 90
        2
 70
     0
 39
0.003
 10
0.733799
 20
0.012524
 40
0.003
 41
0.003
 10
0.788327
 20
0.029122
 40
0.003
 41
0.003
  0
LWPOLYLINE
  5
12E
100
AcDbEntity
  8
0
 62
   254
100
AcDbPolyline
 90
        2
 70
     0
 39
0.003
 10
0.788327
 20
0.029122
 40
0.003
 41
0.003
 10
0.143654
 20
0.410996
 40
0.003
 41
0.003
  0
LWPOLYLINE
  5
12F
100
AcDbEntity
  8
0
 62
   254
100
AcDbPolyline
 90
        2
 70
     0
 39
0.003
 10
0.143654
 20
0.410996
 40
0.003
 41
0.003
 10
0.089126
 20
0.394398
 40
0.003
 41
0.003
  0
LWPOLYLINE
  5
130
100
AcDbEntity
  8
0
 62
   254
100
AcDbPolyline
 90
        2
 70
     0
 39
0.003
 10
0.143654
 20
0.410996
 40
0.003
 41
0.003
 10
0.788327
 20
0.029122
 40
0.003
 41
0.003
  0
LWPOLYLINE
  5
131
100
AcDbEntity
  8
0
 62
   254
100
AcDbPolyline
 90
        2
 70
     0
 39
0.003
 10
0.788327
 20
0.029122
 40
0.003
 41
0.003
 10
0.846106
 20
0.045028
 40
0.003
 41
0.003
  0
LWPOLYLINE
  5
132
100
AcDbEntity
  8
0
 62
   254
100
AcDbPolyline
 90
        2
 70
     0
 39
0.003
 10
0.846106
 20
0.045028
 40
0.003
 41
0.003
 10
0.201433
 20
0.426902
 40
0.003
 41
0.003
  0
LWPOLYLINE
  5
133
100
AcDbEntity
  8
0
 62
   254
100
AcDbPolyline
 90
        2
 70
     0
 39
0.003
 10
0.201433
 20
0.426902
 40
0.003
 41
0.003
 10
0.143654
 20
0.410996
 40
0.003
 41
0.003
  0
LWPOLYLINE
  5
134
100
AcDbEntity
  8
0
 62
   254
100
AcDbPolyline
 90
        2
 70
     0
 39
0.003
 10
0.201433
 20
0.426902
 40
0.003
 41
0.003
 10
0.846106
 20
0.045028
 40
0.003
 41
0.003
  0
LWPOLYLINE
  5
135
100
AcDbEntity
  8
0
 62
   254
100
AcDbPolyline
 90
        2
 70
     0
 39
0.003
 10
0.846106
 20
0.045028
 40
0.003
 41
0.003
 10
0.907264
 20
0.060173
 40
0.003
 41
0.003
  0
LWPOLYLINE
  5
136
100
AcDbEntity
  8
0
 62
   254
100
AcDbPolyline
 90
        2
 70
     0
 39
0.003
 10
0.907264
 20
0.060173
 40
0.003
 41
0.003
 10
0.262591
 20
0.442047
 40
0.003
 41
0.003
  0
LWPOLYLINE
  5
137
100
AcDbEntity
  8
0
 62
   254
100
AcDbPolyline
 90
        2
 70
     0
 39
0.003
 10
0.262591
 20
0.442047
 40
0.003
 41
0.003
 10
0.201433
 20
0.426902
 40
0.003
 41
0.003
  0
LWPOLYLINE
  5
138
100
AcDbEntity
  8
0
 62
   254
100
AcDbPolyline
 90
        2
 70
     0
 39
0.003
 10
0.262591
 20
0.442047
 40
0.003
 41
0.003
 10
0.907264
 20
0.060173
 40
0.003
 41
0.003
  0
LWPOLYLINE
  5
139
100
AcDbEntity
  8
0
 62
   254
100
AcDbPolyline
 90
        2
 70
     0
 39
0.003
 10
0.907264
 20
0.060173
 40
0.003
 41
0.003
 10
0.971945
 20
0.074516
 40
0.003
 41
0.003
  0
LWPOLYLINE
  5
13A
100
AcDbEntity
  8
0
 62
   254
100
AcDbPolyline
 90
        2
 70
     0
 39
0.003
 10
0.971945
 20
0.074516
 40
0.003
 41
0.003
 10
0.327272
 20
0.45639
 40
0.003
 41
0.003
  0
LWPOLYLINE
  5
13B
100
AcDbEntity
  8
0
 62
   254
100
AcDbPolyline
 90
        2
 70
     0
 39
0.003
 10
0.327272
 20
0.45639
 40
0.003
 41
0.003
 10
0.262591
 20
0.442047
 40
0.003
 41
0.003
  0
LWPOLYLINE
  5
13C
100
AcDbEntity
  8
0
 62
   254
100
AcDbPolyline
 90
        2
 70
     0
 39
0.003
 10
0.327272
 20
0.45639
 40
0.003
 41
0.003
 10
0.971945
 20
0.074516
 40
0.003
 41
0.003
  0
LWPOLYLINE
  5
13D
100
AcDbEntity
  8
0
 62
   254
100
AcDbPolyline
 90
        2
 70
     0
 39
0.003
 10
0.971945
 20
0.074516
 40
0.003
 41
0.003
 10
1.040276
 20
0.088
 40
0.003
 41
0.003
  0
LWPOLYLINE
  5
13E
100
AcDbEntity
  8
0
 62
   254
100
AcDbPolyline
 90
        2
 70
     0
 39
0.003
 10
1.040276
 20
0.088
 40
0.003
 41
0.003
 10
0.395602
 20
0.469874
 40
0.003
 41
0.003
  0
LWPOLYLINE
  5
13F
100
AcDbEntity
  8
0
 62
   254
100
AcDbPolyline
 90
        2
 70
     0
 39
0.003
 10
0.395602
 20
0.469874
 40
0.003
 41
0.003
 10
0.327272
 20
0.45639
 40
0.003
 41
0.003
  0
LWPOLYLINE
  5
140
100
AcDbEntity
  8
0
 62
   254
100
AcDbPolyline
 90
        2
 70
     0
 39
0.003
 10
0.395602
 20
0.469874
 40
0.003
 41
0.003
 10
1.040276
 20
0.088
 40
0.003
 41
0.003
  0
LWPOLYLINE
  5
141
100
AcDbEntity
  8
0
 62
   254
100
AcDbPolyline
 90
        2
 70
     0
 39
0.003
 10
1.040276
 20
0.088
 40
0.003
 41
0.003
 10
1.112394
 20
0.100583
 40
0.003
 41
0.003
  0
LWPOLYLINE
  5
142
100
AcDbEntity
  8
0
 62
   254
100
AcDbPolyline
 90
        2
 70
     0
 39
0.003
 10
1.112394
 20
0.100583
 40
0.003
 41
0.003
 10
0.46772
 20
0.482457
 40
0.003
 41
0.003
  0
LWPOLYLINE
  5
143
100
AcDbEntity
  8
0
 62
   254
100
AcDbPolyline
 90
        2
 70
     0
 39
0.003
 10
0.46772
 20
0.482457
 40
0.003
 41
0.003
 10
0.395602
 20
0.469874
 40
0.003
 41
0.003
  0
LWPOLYLINE
  5
144
100
AcDbEntity
  8
0
 62
     0
100
AcDbPolyline
 90
        2
 70
     0
 39
0.003
 10
-1.577988
 20
-0.638543
 40
0.003
 41
0.003
 10
-0.933315
 20
-1.020417
 40
0.003
 41
0.003
  0
LWPOLYLINE
  5
145
100
AcDbEntity
  8
0
 62
     0
100
AcDbPolyline
 90
        2
 70
     0
 39
0.003
 10
-0.933315
 20
-1.020417
 40
0.003
 41
0.003
 10
-0.883512
 20
-1.018406
 40
0.003
 41
0.003
  0
LWPOLYLINE
  5
146
100
AcDbEntity
  8
0
 62
     0
100
AcDbPolyline
 90
        2
 70
     0
 39
0.003
 10
-0.883512
 20
-1.018406
 40
0.003
 41
0.003
 10
-0.835551
 20
-1.014516
 40
0.003
 41
0.003
  0
LWPOLYLINE
  5
147
100
AcDbEntity
  8
0
 62
     0
100
AcDbPolyline
 90
        2
 70
     0
 39
0.003
 10
-0.835551
 20
-1.014516
 40
0.003
 41
0.003
 10
-0.789378
 20
-1.008835
 40
0.003
 41
0.003
  0
LWPOLYLINE
  5
148
100
AcDbEntity
  8
0
 62
     0
100
AcDbPolyline
 90
        2
 70
     0
 39
0.003
 10
-0.789378
 20
-1.008835
 40
0.003
 41
0.003
 10
-0.744949
 20
-1.001465
 40
0.003
 41
0.003
  0
LWPOLYLINE
  5
149
100
AcDbEntity
  8
0
 62
     0
100
AcDbPolyline
 90
        2
 70
     0
 39
0.003
 10
-0.744949
 20
-1.001465
 40
0.003
 41
0.003
 10
-0.702189
 20
-0.992492
 40
0.003
 41
0.003
  0
LWPOLYLINE
  5
14A
100
AcDbEntity
  8
0
 62
     0
100
AcDbPolyline
 90
        2
 70
     0
 39
0.003
 10
-0.702189
 20
-0.992492
 40
0.003
 41
0.003
 10
-0.661063
 20
-0.98202
 40
0.003
 41
0.003
  0
LWPOLYLINE
  5
14B
100
AcDbEntity
  8
0
 62
     0
100
AcDbPolyline
 90
        2
 70
     0
 39
0.003
 10
-0.661063
 20
-0.98202
 40
0.003
 41
0.003
 10
-0.621508
 20
-0.970138
 40
0.003
 41
0.003
  0
LWPOLYLINE
  5
14C
100
AcDbEntity
  8
0
 62
     0
100
AcDbPolyline
 90
        2
 70
     0
 39
0.003
 10
-0.621508
 20
-0.970138
 40
0.003
 41
0.003
 10
-0.583476
 20
-0.956945
 40
0.003
 41
0.003
  0
LWPOLYLINE
  5
14D
100
AcDbEntity
  8
0
 62
     0
100
AcDbPolyline
 90
        2
 70
     0
 39
0.003
 10
-0.583476
 20
-0.956945
 40
0.003
 41
0.003
 10
-0.546902
 20
-0.942524
 40
0.003
 41
0.003
  0
LWPOLYLINE
  5
14E
100
AcDbEntity
  8
0
 62
     0
100
AcDbPolyline
 90
        2
 70
     0
 39
0.003
 10
-0.546902
 20
-0.942524
 40
0.003
 41
0.003
 10
-0.51174
 20
-0.926984
 40
0.003
 41
0.003
  0
LWPOLYLINE
  5
14F
100
AcDbEntity
  8
0
 62
     0
100
AcDbPolyline
 90
        2
 70
     0
 39
0.003
 10
-0.51174
 20
-0.926984
 40
0.003
 41
0.003
 10
-0.477937
 20
-0.910406
 40
0.003
 41
0.003
  0
LWPOLYLINE
  5
150
100
AcDbEntity
  8
0
 62
     0
100
AcDbPolyline
 90
        2
 70
     0
 39
0.003
 10
-0.477937
 20
-0.910406
 40
0.003
 41
0.003
 10
-0.445441
 20
-0.892898
 40
0.003
 41
0.003
  0
LWPOLYLINE
  5
151
100
AcDbEntity
  8
0
 62
     0
100
AcDbPolyline
 90
        2
 70
     0
 39
0.003
 10
-0.445441
 20
-0.892898
 40
0.003
 41
0.003
 10
-0.414185
 20
-0.874543
 40
0.003
 41
0.003
  0
LWPOLYLINE
  5
152
100
AcDbEntity
  8
0
 62
     0
100
AcDbPolyline
 90
        2
 70
     0
 39
0.003
 10
-0.414185
 20
-0.874543
 40
0.003
 41
0.003
 10
-0.384134
 20
-0.855445
 40
0.003
 41
0.003
  0
LWPOLYLINE
  5
153
100
AcDbEntity
  8
0
 62
     0
100
AcDbPolyline
 90
        2
 70
     0
 39
0.003
 10
-0.384134
 20
-0.855445
 40
0.003
 41
0.003
 10
-0.355224
 20
-0.835689
 40
0.003
 41
0.003
  0
LWPOLYLINE
  5
154
100
AcDbEntity
  8
0
 62
     0
100
AcDbPolyline
 90
        2
 70
     0
 39
0.003
 10
-0.355224
 20
-0.835689
 40
0.003
 41
0.003
 10
-0.327406
 20
-0.815382
 40
0.003
 41
0.003
  0
LWPOLYLINE
  5
155
100
AcDbEntity
  8
0
 62
     0
100
AcDbPolyline
 90
        2
 70
     0
 39
0.003
 10
-0.327406
 20
-0.815382
 40
0.003
 41
0.003
 10
-0.30061
 20
-0.794602
 40
0.003
 41
0.003
  0
LWPOLYLINE
  5
156
100
AcDbEntity
  8
0
 62
     0
100
AcDbPolyline
 90
        2
 70
     0
 39
0.003
 10
-0.30061
 20
-0.794602
 40
0.003
 41
0.003
 10
-0.274799
 20
-0.773457
 40
0.003
 41
0.003
  0
LWPOLYLINE
  5
157
100
AcDbEntity
  8
0
 62
     0
100
AcDbPolyline
 90
        2
 70
     0
 39
0.003
 10
-0.274799
 20
-0.773457
 40
0.003
 41
0.003
 10
-0.249917
 20
-0.752031
 40
0.003
 41
0.003
  0
LWPOLYLINE
  5
158
100
AcDbEntity
  8
0
 62
     0
100
AcDbPolyline
 90
        2
 70
     0
 39
0.003
 10
-0.249917
 20
-0.752031
 40
0.003
 41
0.003
 10
-0.225909
 20
-0.730433
 40
0.003
 41
0.003
  0
LWPOLYLINE
  5
159
100
AcDbEntity
  8
0
 62
     0
100
AcDbPolyline
 90
        2
 70
     0
 39
0.003
 10
-0.225909
 20
-0.730433
 40
0.003
 41
0.003
 10
-0.202717
 20
-0.70874
 40
0.003
 41
0.003
  0
LWPOLYLINE
  5
15A
100
AcDbEntity
  8
0
 62
     0
100
AcDbPolyline
 90
        2
 70
     0
 39
0.003
 10
-0.202717
 20
-0.70874
 40
0.003
 41
0.003
 10
-0.180295
 20
-0.687063
 40
0.003
 41
0.003
  0
LWPOLYLINE
  5
15B
100
AcDbEntity
  8
0
 62
     0
100
AcDbPolyline
 90
        2
 70
     0
 39
0.003
 10
-0.180295
 20
-0.687063
 40
0.003
 41
0.003
 10
-0.158579
 20
-0.665484
 40
0.003
 41
0.003
  0
LWPOLYLINE
  5
15C
100
AcDbEntity
  8
0
 62
     0
100
AcDbPolyline
 90
        2
 70
     0
 39
0.003
 10
-0.158579
 20
-0.665484
 40
0.003
 41
0.003
 10
-0.137528
 20
-0.64411
 40
0.003
 41
0.003
  0
LWPOLYLINE
  5
15D
100
AcDbEntity
  8
0
 62
     0
100
AcDbPolyline
 90
        2
 70
     0
 39
0.003
 10
-0.137528
 20
-0.64411
 40
0.003
 41
0.003
 10
-0.117071
 20
-0.62302
 40
0.003
 41
0.003
  0
LWPOLYLINE
  5
15E
100
AcDbEntity
  8
0
 62
     0
100
AcDbPolyline
 90
        2
 70
     0
 39
0.003
 10
-0.117071
 20
-0.62302
 40
0.003
 41
0.003
 10
-0.097165
 20
-0.602319
 40
0.003
 41
0.003
  0
LWPOLYLINE
  5
15F
100
AcDbEntity
  8
0
 62
     0
100
AcDbPolyline
 90
        2
 70
     0
 39
0.003
 10
-0.097165
 20
-0.602319
 40
0.003
 41
0.003
 10
-0.077752
 20
-0.582098
 40
0.003
 41
0.003
  0
LWPOLYLINE
  5
160
100
AcDbEntity
  8
0
 62
     0
100
AcDbPolyline
 90
        2
 70
     0
 39
0.003
 10
-0.077752
 20
-0.582098
 40
0.003
 41
0.003
 10
-0.058791
 20
-0.562457
 40
0.003
 41
0.003
  0
LWPOLYLINE
  5
161
100
AcDbEntity
  8
0
 62
     0
100
AcDbPolyline
 90
        2
 70
     0
 39
0.003
 10
-0.058791
 20
-0.562457
 40
0.003
 41
0.003
 10
-0.040213
 20
-0.54348
 40
0.003
 41
0.003
  0
LWPOLYLINE
  5
162
100
AcDbEntity
  8
0
 62
     0
100
AcDbPolyline
 90
        2
 70
     0
 39
0.003
 10
-0.040213
 20
-0.54348
 40
0.003
 41
0.003
 10
-0.021969
 20
-0.525272
 40
0.003
 41
0.003
  0
LWPOLYLINE
  5
163
100
AcDbEntity
  8
0
 62
     0
100
AcDbPolyline
 90
        2
 70
     0
 39
0.003
 10
-0.021969
 20
-0.525272
 40
0.003
 41
0.003
 10
-0.004008
 20
-0.507921
 40
0.003
 41
0.003
  0
LWPOLYLINE
  5
164
100
AcDbEntity
  8
0
 62
     0
100
AcDbPolyline
 90
        2
 70
     0
 39
0.003
 10
-0.004008
 20
-0.507921
 40
0.003
 41
0.003
 10
0.013724
 20
-0.491528
 40
0.003
 41
0.003
  0
LWPOLYLINE
  5
165
100
AcDbEntity
  8
0
 62
     0
100
AcDbPolyline
 90
        2
 70
     0
 39
0.003
 10
0.013724
 20
-0.491528
 40
0.003
 41
0.003
 10
0.031197
 20
-0.47528
 40
0.003
 41
0.003
  0
LWPOLYLINE
  5
166
100
AcDbEntity
  8
0
 62
     0
100
AcDbPolyline
 90
        2
 70
     0
 39
0.003
 10
0.031197
 20
-0.47528
 40
0.003
 41
0.003
 10
0.048402
 20
-0.458358
 40
0.003
 41
0.003
  0
LWPOLYLINE
  5
167
100
AcDbEntity
  8
0
 62
     0
100
AcDbPolyline
 90
        2
 70
     0
 39
0.003
 10
0.048402
 20
-0.458358
 40
0.003
 41
0.003
 10
0.065484
 20
-0.440815
 40
0.003
 41
0.003
  0
LWPOLYLINE
  5
168
100
AcDbEntity
  8
0
 62
     0
100
AcDbPolyline
 90
        2
 70
     0
 39
0.003
 10
0.065484
 20
-0.440815
 40
0.003
 41
0.003
 10
0.082567
 20
-0.422713
 40
0.003
 41
0.003
  0
LWPOLYLINE
  5
169
100
AcDbEntity
  8
0
 62
     0
100
AcDbPolyline
 90
        2
 70
     0
 39
0.003
 10
0.082567
 20
-0.422713
 40
0.003
 41
0.003
 10
0.099799
 20
-0.404087
 40
0.003
 41
0.003
  0
LWPOLYLINE
  5
16A
100
AcDbEntity
  8
0
 62
     0
100
AcDbPolyline
 90
        2
 70
     0
 39
0.003
 10
0.099799
 20
-0.404087
 40
0.003
 41
0.003
 10
0.117307
 20
-0.385004
 40
0.003
 41
0.003
  0
LWPOLYLINE
  5
16B
100
AcDbEntity
  8
0
 62
     0
100
AcDbPolyline
 90
        2
 70
     0
 39
0.003
 10
0.117307
 20
-0.385004
 40
0.003
 41
0.003
 10
0.135232
 20
-0.365516
 40
0.003
 41
0.003
  0
LWPOLYLINE
  5
16C
100
AcDbEntity
  8
0
 62
     0
100
AcDbPolyline
 90
        2
 70
     0
 39
0.003
 10
0.135232
 20
-0.365516
 40
0.003
 41
0.003
 10
0.153701
 20
-0.345661
 40
0.003
 41
0.003
  0
LWPOLYLINE
  5
16D
100
AcDbEntity
  8
0
 62
     0
100
AcDbPolyline
 90
        2
 70
     0
 39
0.003
 10
0.153701
 20
-0.345661
 40
0.003
 41
0.003
 10
0.172858
 20
-0.325508
 40
0.003
 41
0.003
  0
LWPOLYLINE
  5
16E
100
AcDbEntity
  8
0
 62
     0
100
AcDbPolyline
 90
        2
 70
     0
 39
0.003
 10
0.172858
 20
-0.325508
 40
0.003
 41
0.003
 10
0.192835
 20
-0.305098
 40
0.003
 41
0.003
  0
LWPOLYLINE
  5
16F
100
AcDbEntity
  8
0
 62
     0
100
AcDbPolyline
 90
        2
 70
     0
 39
0.003
 10
0.192835
 20
-0.305098
 40
0.003
 41
0.003
 10
0.213764
 20
-0.284492
 40
0.003
 41
0.003
  0
LWPOLYLINE
  5
170
100
AcDbEntity
  8
0
 62
     0
100
AcDbPolyline
 90
        2
 70
     0
 39
0.003
 10
0.213764
 20
-0.284492
 40
0.003
 41
0.003
 10
0.235776
 20
-0.263736
 40
0.003
 41
0.003
  0
LWPOLYLINE
  5
171
100
AcDbEntity
  8
0
 62
     0
100
AcDbPolyline
 90
        2
 70
     0
 39
0.003
 10
0.235776
 20
-0.263736
 40
0.003
 41
0.003
 10
0.25902
 20
-0.242898
 40
0.003
 41
0.003
  0
LWPOLYLINE
  5
172
100
AcDbEntity
  8
0
 62
     0
100
AcDbPolyline
 90
        2
 70
     0
 39
0.003
 10
0.25902
 20
-0.242898
 40
0.003
 41
0.003
 10
0.28361
 20
-0.222008
 40
0.003
 41
0.003
  0
LWPOLYLINE
  5
173
100
AcDbEntity
  8
0
 62
     0
100
AcDbPolyline
 90
        2
 70
     0
 39
0.003
 10
0.28361
 20
-0.222008
 40
0.003
 41
0.003
 10
0.309701
 20
-0.201134
 40
0.003
 41
0.003
  0
LWPOLYLINE
  5
174
100
AcDbEntity
  8
0
 62
     0
100
AcDbPolyline
 90
        2
 70
     0
 39
0.003
 10
0.309701
 20
-0.201134
 40
0.003
 41
0.003
 10
0.337409
 20
-0.180323
 40
0.003
 41
0.003
  0
LWPOLYLINE
  5
175
100
AcDbEntity
  8
0
 62
     0
100
AcDbPolyline
 90
        2
 70
     0
 39
0.003
 10
0.337409
 20
-0.180323
 40
0.003
 41
0.003
 10
0.366894
 20
-0.159642
 40
0.003
 41
0.003
  0
LWPOLYLINE
  5
176
100
AcDbEntity
  8
0
 62
     0
100
AcDbPolyline
 90
        2
 70
     0
 39
0.003
 10
0.366894
 20
-0.159642
 40
0.003
 41
0.003
 10
0.398272
 20
-0.139122
 40
0.003
 41
0.003
  0
LWPOLYLINE
  5
177
100
AcDbEntity
  8
0
 62
     0
100
AcDbPolyline
 90
        2
 70
     0
 39
0.003
 10
0.398272
 20
-0.139122
 40
0.003
 41
0.003
 10
0.431685
 20
-0.118831
 40
0.003
 41
0.003
  0
LWPOLYLINE
  5
178
100
AcDbEntity
  8
0
 62
     0
100
AcDbPolyline
 90
        2
 70
     0
 39
0.003
 10
0.431685
 20
-0.118831
 40
0.003
 41
0.003
 10
0.46726
 20
-0.098811
 40
0.003
 41
0.003
  0
LWPOLYLINE
  5
179
100
AcDbEntity
  8
0
 62
     0
100
AcDbPolyline
 90
        2
 70
     0
 39
0.003
 10
0.46726
 20
-0.098811
 40
0.003
 41
0.003
 10
0.505146
 20
-0.07913
 40
0.003
 41
0.003
  0
LWPOLYLINE
  5
17A
100
AcDbEntity
  8
0
 62
     0
100
AcDbPolyline
 90
        2
 70
     0
 39
0.003
 10
0.505146
 20
-0.07913
 40
0.003
 41
0.003
 10
0.545461
 20
-0.059819
 40
0.003
 41
0.003
  0
LWPOLYLINE
  5
17B
100
AcDbEntity
  8
0
 62
     0
100
AcDbPolyline
 90
        2
 70
     0
 39
0.003
 10
0.545461
 20
-0.059819
 40
0.003
 41
0.003
 10
0.58835
 20
-0.040949
 40
0.003
 41
0.003
  0
LWPOLYLINE
  5
17C
100
AcDbEntity
  8
0
 62
     0
100
AcDbPolyline
 90
        2
 70
     0
 39
0.003
 10
0.58835
 20
-0.040949
 40
0.003
 41
0.003
 10
0.633945
 20
-0.022563
 40
0.003
 41
0.003
  0
LWPOLYLINE
  5
17D
100
AcDbEntity
  8
0
 62
     0
100
AcDbPolyline
 90
        2
 70
     0
 39
0.003
 10
0.633945
 20
-0.022563
 40
0.003
 41
0.003
 10
0.682382
 20
-0.004724
 40
0.003
 41
0.003
  0
LWPOLYLINE
  5
17E
100
AcDbEntity
  8
0
 62
     0
100
AcDbPolyline
 90
        2
 70
     0
 39
0.003
 10
0.682382
 20
-0.004724
 40
0.003
 41
0.003
 10
0.733799
 20
0.012524
 40
0.003
 41
0.003
  0
LWPOLYLINE
  5
17F
100
AcDbEntity
  8
0
 62
     0
100
AcDbPolyline
 90
        2
 70
     0
 39
0.003
 10
0.733799
 20
0.012524
 40
0.003
 41
0.003
 10
0.788327
 20
0.029122
 40
0.003
 41
0.003
  0
LWPOLYLINE
  5
180
100
AcDbEntity
  8
0
 62
     0
100
AcDbPolyline
 90
        2
 70
     0
 39
0.003
 10
0.788327
 20
0.029122
 40
0.003
 41
0.003
 10
0.846106
 20
0.045028
 40
0.003
 41
0.003
  0
LWPOLYLINE
  5
181
100
AcDbEntity
  8
0
 62
     0
100
AcDbPolyline
 90
        2
 70
     0
 39
0.003
 10
0.846106
 20
0.045028
 40
0.003
 41
0.003
 10
0.907264
 20
0.060173
 40
0.003
 41
0.003
  0
LWPOLYLINE
  5
182
100
AcDbEntity
  8
0
 62
     0
100
AcDbPolyline
 90
        2
 70
     0
 39
0.003
 10
0.907264
 20
0.060173
 40
0.003
 41
0.003
 10
0.971945
 20
0.074516
 40
0.003
 41
0.003
  0
LWPOLYLINE
  5
183
100
AcDbEntity
  8
0
 62
     0
100
AcDbPolyline
 90
        2
 70
     0
 39
0.003
 10
0.971945
 20
0.074516
 40
0.003
 41
0.003
 10
1.040276
 20
0.088
 40
0.003
 41
0.003
  0
LWPOLYLINE
  5
184
100
AcDbEntity
  8
0
 62
     0
100
AcDbPolyline
 90
        2
 70
     0
 39
0.003
 10
1.040276
 20
0.088
 40
0.003
 41
0.003
 10
1.112394
 20
0.100583
 40
0.003
 41
0.003
  0
LWPOLYLINE
  5
185
100
AcDbEntity
  8
0
 62
     0
100
AcDbPolyline
 90
        2
 70
     0
 39
0.003
 10
1.112394
 20
0.100583
 40
0.003
 41
0.003
 10
0.46772
 20
0.482457
 40
0.003
 41
0.003
  0
LWPOLYLINE
  5
186
100
AcDbEntity
  8
0
 62
     0
100
AcDbPolyline
 90
        2
 70
     0
 39
0.003
 10
0.46772
 20
0.482457
 40
0.003
 41
0.003
 10
0.395602
 20
0.469874
 40
0.003
 41
0.003
  0
LWPOLYLINE
  5
187
100
AcDbEntity
  8
0
 62
     0
100
AcDbPolyline
 90
        2
 70
     0
 39
0.003
 10
0.395602
 20
0.469874
 40
0.003
 41
0.003
 10
0.327272
 20
0.45639
 40
0.003
 41
0.003
  0
LWPOLYLINE
  5
188
100
AcDbEntity
  8
0
 62
     0
100
AcDbPolyline
 90
        2
 70
     0
 39
0.003
 10
0.327272
 20
0.45639
 40
0.003
 41
0.003
 10
0.262591
 20
0.442047
 40
0.003
 41
0.003
  0
LWPOLYLINE
  5
189
100
AcDbEntity
  8
0
 62
     0
100
AcDbPolyline
 90
        2
 70
     0
 39
0.003
 10
0.262591
 20
0.442047
 40
0.003
 41
0.003
 10
0.201433
 20
0.426902
 40
0.003
 41
0.003
  0
LWPOLYLINE
  5
18A
100
AcDbEntity
  8
0
 62
     0
100
AcDbPolyline
 90
        2
 70
     0
 39
0.003
 10
0.201433
 20
0.426902
 40
0.003
 41
0.003
 10
0.143654
 20
0.410996
 40
0.003
 41
0.003
  0
LWPOLYLINE
  5
18B
100
AcDbEntity
  8
0
 62
     0
100
AcDbPolyline
 90
        2
 70
     0
 39
0.003
 10
0.143654
 20
0.410996
 40
0.003
 41
0.003
 10
0.089126
 20
0.394398
 40
0.003
 41
0.003
  0
LWPOLYLINE
  5
18C
100
AcDbEntity
  8
0
 62
     0
100
AcDbPolyline
 90
        2
 70
     0
 39
0.003
 10
0.089126
 20
0.394398
 40
0.003
 41
0.003
 10
0.037709
 20
0.37715
 40
0.003
 41
0.003
  0
LWPOLYLINE
  5
18D
100
AcDbEntity
  8
0
 62
     0
100
AcDbPolyline
 90
        2
 70
     0
 39
0.003
 10
0.037709
 20
0.37715
 40
0.003
 41
0.003
 10
-0.010728
 20
0.359311
 40
0.003
 41
0.003
  0
LWPOLYLINE
  5
18E
100
AcDbEntity
  8
0
 62
     0
100
AcDbPolyline
 90
        2
 70
     0
 39
0.003
 10
-0.010728
 20
0.359311
 40
0.003
 41
0.003
 10
-0.056323
 20
0.340925
 40
0.003
 41
0.003
  0
LWPOLYLINE
  5
18F
100
AcDbEntity
  8
0
 62
     0
100
AcDbPolyline
 90
        2
 70
     0
 39
0.003
 10
-0.056323
 20
0.340925
 40
0.003
 41
0.003
 10
-0.099213
 20
0.322055
 40
0.003
 41
0.003
  0
LWPOLYLINE
  5
190
100
AcDbEntity
  8
0
 62
     0
100
AcDbPolyline
 90
        2
 70
     0
 39
0.003
 10
-0.099213
 20
0.322055
 40
0.003
 41
0.003
 10
-0.139528
 20
0.302744
 40
0.003
 41
0.003
  0
LWPOLYLINE
  5
191
100
AcDbEntity
  8
0
 62
     0
100
AcDbPolyline
 90
        2
 70
     0
 39
0.003
 10
-0.139528
 20
0.302744
 40
0.003
 41
0.003
 10
-0.177413
 20
0.283063
 40
0.003
 41
0.003
  0
LWPOLYLINE
  5
192
100
AcDbEntity
  8
0
 62
     0
100
AcDbPolyline
 90
        2
 70
     0
 39
0.003
 10
-0.177413
 20
0.283063
 40
0.003
 41
0.003
 10
-0.212988
 20
0.263043
 40
0.003
 41
0.003
  0
LWPOLYLINE
  5
193
100
AcDbEntity
  8
0
 62
     0
100
AcDbPolyline
 90
        2
 70
     0
 39
0.003
 10
-0.212988
 20
0.263043
 40
0.003
 41
0.003
 10
-0.246402
 20
0.242752
 40
0.003
 41
0.003
  0
LWPOLYLINE
  5
194
100
AcDbEntity
  8
0
 62
     0
100
AcDbPolyline
 90
        2
 70
     0
 39
0.003
 10
-0.246402
 20
0.242752
 40
0.003
 41
0.003
 10
-0.27778
 20
0.222232
 40
0.003
 41
0.003
  0
LWPOLYLINE
  5
195
100
AcDbEntity
  8
0
 62
     0
100
AcDbPolyline
 90
        2
 70
     0
 39
0.003
 10
-0.27778
 20
0.222232
 40
0.003
 41
0.003
 10
-0.307264
 20
0.201551
 40
0.003
 41
0.003
  0
LWPOLYLINE
  5
196
100
AcDbEntity
  8
0
 62
     0
100
AcDbPolyline
 90
        2
 70
     0
 39
0.003
 10
-0.307264
 20
0.201551
 40
0.003
 41
0.003
 10
-0.334972
 20
0.18074
 40
0.003
 41
0.003
  0
LWPOLYLINE
  5
197
100
AcDbEntity
  8
0
 62
     0
100
AcDbPolyline
 90
        2
 70
     0
 39
0.003
 10
-0.334972
 20
0.18074
 40
0.003
 41
0.003
 10
-0.361063
 20
0.159866
 40
0.003
 41
0.003
  0
LWPOLYLINE
  5
198
100
AcDbEntity
  8
0
 62
     0
100
AcDbPolyline
 90
        2
 70
     0
 39
0.003
 10
-0.361063
 20
0.159866
 40
0.003
 41
0.003
 10
-0.385654
 20
0.138976
 40
0.003
 41
0.003
  0
LWPOLYLINE
  5
199
100
AcDbEntity
  8
0
 62
     0
100
AcDbPolyline
 90
        2
 70
     0
 39
0.003
 10
-0.385654
 20
0.138976
 40
0.003
 41
0.003
 10
-0.408898
 20
0.118138
 40
0.003
 41
0.003
  0
LWPOLYLINE
  5
19A
100
AcDbEntity
  8
0
 62
     0
100
AcDbPolyline
 90
        2
 70
     0
 39
0.003
 10
-0.408898
 20
0.118138
 40
0.003
 41
0.003
 10
-0.430909
 20
0.097382
 40
0.003
 41
0.003
  0
LWPOLYLINE
  5
19B
100
AcDbEntity
  8
0
 62
     0
100
AcDbPolyline
 90
        2
 70
     0
 39
0.003
 10
-0.430909
 20
0.097382
 40
0.003
 41
0.003
 10
-0.451839
 20
0.076776
 40
0.003
 41
0.003
  0
LWPOLYLINE
  5
19C
100
AcDbEntity
  8
0
 62
     0
100
AcDbPolyline
 90
        2
 70
     0
 39
0.003
 10
-0.451839
 20
0.076776
 40
0.003
 41
0.003
 10
-0.471815
 20
0.056366
 40
0.003
 41
0.003
  0
LWPOLYLINE
  5
19D
100
AcDbEntity
  8
0
 62
     0
100
AcDbPolyline
 90
        2
 70
     0
 39
0.003
 10
-0.471815
 20
0.056366
 40
0.003
 41
0.003
 10
-0.490972
 20
0.036213
 40
0.003
 41
0.003
  0
LWPOLYLINE
  5
19E
100
AcDbEntity
  8
0
 62
     0
100
AcDbPolyline
 90
        2
 70
     0
 39
0.003
 10
-0.490972
 20
0.036213
 40
0.003
 41
0.003
 10
-0.509441
 20
0.016358
 40
0.003
 41
0.003
  0
LWPOLYLINE
  5
19F
100
AcDbEntity
  8
0
 62
     0
100
AcDbPolyline
 90
        2
 70
     0
 39
0.003
 10
-0.509441
 20
0.016358
 40
0.003
 41
0.003
 10
-0.527366
 20
-0.00313
 40
0.003
 41
0.003
  0
LWPOLYLINE
  5
1A0
100
AcDbEntity
  8
0
 62
     0
100
AcDbPolyline
 90
        2
 70
     0
 39
0.003
 10
-0.527366
 20
-0.00313
 40
0.003
 41
0.003
 10
-0.544874
 20
-0.022213
 40
0.003
 41
0.003
  0
LWPOLYLINE
  5
1A1
100
AcDbEntity
  8
0
 62
     0
100
AcDbPolyline
 90
        2
 70
     0
 39
0.003
 10
-0.544874
 20
-0.022213
 40
0.003
 41
0.003
 10
-0.562106
 20
-0.040839
 40
0.003
 41
0.003
  0
LWPOLYLINE
  5
1A2
100
AcDbEntity
  8
0
 62
     0
100
AcDbPolyline
 90
        2
 70
     0
 39
0.003
 10
-0.562106
 20
-0.040839
 40
0.003
 41
0.003
 10
-0.579189
 20
-0.058941
 40
0.003
 41
0.003
  0
LWPOLYLINE
  5
1A3
100
AcDbEntity
  8
0
 62
     0
100
AcDbPolyline
 90
        2
 70
     0
 39
0.003
 10
-0.579189
 20
-0.058941
 40
0.003
 41
0.003
 10
-0.596272
 20
-0.076484
 40
0.003
 41
0.003
  0
LWPOLYLINE
  5
1A4
100
AcDbEntity
  8
0
 62
     0
100
AcDbPolyline
 90
        2
 70
     0
 39
0.003
 10
-0.596272
 20
-0.076484
 40
0.003
 41
0.003
 10
-0.613476
 20
-0.093406
 40
0.003
 41
0.003
  0
LWPOLYLINE
  5
1A5
100
AcDbEntity
  8
0
 62
     0
100
AcDbPolyline
 90
        2
 70
     0
 39
0.003
 10
-0.613476
 20
-0.093406
 40
0.003
 41
0.003
 10
-0.630949
 20
-0.109654
 40
0.003
 41
0.003
  0
LWPOLYLINE
  5
1A6
100
AcDbEntity
  8
0
 62
     0
100
AcDbPolyline
 90
        2
 70
     0
 39
0.003
 10
-0.630949
 20
-0.109654
 40
0.003
 41
0.003
 10
-0.648681
 20
-0.126047
 40
0.003
 41
0.003
  0
LWPOLYLINE
  5
1A7
100
AcDbEntity
  8
0
 62
     0
100
AcDbPolyline
 90
        2
 70
     0
 39
0.003
 10
-0.648681
 20
-0.126047
 40
0.003
 41
0.003
 10
-0.666642
 20
-0.143398
 40
0.003
 41
0.003
  0
LWPOLYLINE
  5
1A8
100
AcDbEntity
  8
0
 62
     0
100
AcDbPolyline
 90
        2
 70
     0
 39
0.003
 10
-0.666642
 20
-0.143398
 40
0.003
 41
0.003
 10
-0.684886
 20
-0.161606
 40
0.003
 41
0.003
  0
LWPOLYLINE
  5
1A9
100
AcDbEntity
  8
0
 62
     0
100
AcDbPolyline
 90
        2
 70
     0
 39
0.003
 10
-0.684886
 20
-0.161606
 40
0.003
 41
0.003
 10
-0.703465
 20
-0.180583
 40
0.003
 41
0.003
  0
LWPOLYLINE
  5
1AA
100
AcDbEntity
  8
0
 62
     0
100
AcDbPolyline
 90
        2
 70
     0
 39
0.003
 10
-0.703465
 20
-0.180583
 40
0.003
 41
0.003
 10
-0.722425
 20
-0.200224
 40
0.003
 41
0.003
  0
LWPOLYLINE
  5
1AB
100
AcDbEntity
  8
0
 62
     0
100
AcDbPolyline
 90
        2
 70
     0
 39
0.003
 10
-0.722425
 20
-0.200224
 40
0.003
 41
0.003
 10
-0.741839
 20
-0.220445
 40
0.003
 41
0.003
  0
LWPOLYLINE
  5
1AC
100
AcDbEntity
  8
0
 62
     0
100
AcDbPolyline
 90
        2
 70
     0
 39
0.003
 10
-0.741839
 20
-0.220445
 40
0.003
 41
0.003
 10
-0.761744
 20
-0.241146
 40
0.003
 41
0.003
  0
LWPOLYLINE
  5
1AD
100
AcDbEntity
  8
0
 62
     0
100
AcDbPolyline
 90
        2
 70
     0
 39
0.003
 10
-0.761744
 20
-0.241146
 40
0.003
 41
0.003
 10
-0.782201
 20
-0.262236
 40
0.003
 41
0.003
  0
LWPOLYLINE
  5
1AE
100
AcDbEntity
  8
0
 62
     0
100
AcDbPolyline
 90
        2
 70
     0
 39
0.003
 10
-0.782201
 20
-0.262236
 40
0.003
 41
0.003
 10
-0.803252
 20
-0.28361
 40
0.003
 41
0.003
  0
LWPOLYLINE
  5
1AF
100
AcDbEntity
  8
0
 62
     0
100
AcDbPolyline
 90
        2
 70
     0
 39
0.003
 10
-0.803252
 20
-0.28361
 40
0.003
 41
0.003
 10
-0.824969
 20
-0.305189
 40
0.003
 41
0.003
  0
LWPOLYLINE
  5
1B0
100
AcDbEntity
  8
0
 62
     0
100
AcDbPolyline
 90
        2
 70
     0
 39
0.003
 10
-0.824969
 20
-0.305189
 40
0.003
 41
0.003
 10
-0.84739
 20
-0.326866
 40
0.003
 41
0.003
  0
LWPOLYLINE
  5
1B1
100
AcDbEntity
  8
0
 62
     0
100
AcDbPolyline
 90
        2
 70
     0
 39
0.003
 10
-0.84739
 20
-0.326866
 40
0.003
 41
0.003
 10
-0.870583
 20
-0.348559
 40
0.003
 41
0.003
  0
LWPOLYLINE
  5
1B2
100
AcDbEntity
  8
0
 62
     0
100
AcDbPolyline
 90
        2
 70
     0
 39
0.003
 10
-0.870583
 20
-0.348559
 40
0.003
 41
0.003
 10
-0.894591
 20
-0.370157
 40
0.003
 41
0.003
  0
LWPOLYLINE
  5
1B3
100
AcDbEntity
  8
0
 62
     0
100
AcDbPolyline
 90
        2
 70
     0
 39
0.003
 10
-0.894591
 20
-0.370157
 40
0.003
 41
0.003
 10
-0.919472
 20
-0.391583
 40
0.003
 41
0.003
  0
LWPOLYLINE
  5
1B4
100
AcDbEntity
  8
0
 62
     0
100
AcDbPolyline
 90
        2
 70
     0
 39
0.003
 10
-0.919472
 20
-0.391583
 40
0.003
 41
0.003
 10
-0.945283
 20
-0.412728
 40
0.003
 41
0.003
  0
LWPOLYLINE
  5
1B5
100
AcDbEntity
  8
0
 62
     0
100
AcDbPolyline
 90
        2
 70
     0
 39
0.003
 10
-0.945283
 20
-0.412728
 40
0.003
 41
0.003
 10
-0.972079
 20
-0.433508
 40
0.003
 41
0.003
  0
LWPOLYLINE
  5
1B6
100
AcDbEntity
  8
0
 62
     0
100
AcDbPolyline
 90
        2
 70
     0
 39
0.003
 10
-0.972079
 20
-0.433508
 40
0.003
 41
0.003
 10
-0.999898
 20
-0.453815
 40
0.003
 41
0.003
  0
LWPOLYLINE
  5
1B7
100
AcDbEntity
  8
0
 62
     0
100
AcDbPolyline
 90
        2
 70
     0
 39
0.003
 10
-0.999898
 20
-0.453815
 40
0.003
 41
0.003
 10
-1.028807
 20
-0.473571
 40
0.003
 41
0.003
  0
LWPOLYLINE
  5
1B8
100
AcDbEntity
  8
0
 62
     0
100
AcDbPolyline
 90
        2
 70
     0
 39
0.003
 10
-1.028807
 20
-0.473571
 40
0.003
 41
0.003
 10
-1.058858
 20
-0.492669
 40
0.003
 41
0.003
  0
LWPOLYLINE
  5
1B9
100
AcDbEntity
  8
0
 62
     0
100
AcDbPolyline
 90
        2
 70
     0
 39
0.003
 10
-1.058858
 20
-0.492669
 40
0.003
 41
0.003
 10
-1.090114
 20
-0.511024
 40
0.003
 41
0.003
  0
LWPOLYLINE
  5
1BA
100
AcDbEntity
  8
0
 62
     0
100
AcDbPolyline
 90
        2
 70
     0
 39
0.003
 10
-1.090114
 20
-0.511024
 40
0.003
 41
0.003
 10
-1.12261
 20
-0.528531
 40
0.003
 41
0.003
  0
LWPOLYLINE
  5
1BB
100
AcDbEntity
  8
0
 62
     0
100
AcDbPolyline
 90
        2
 70
     0
 39
0.003
 10
-1.12261
 20
-0.528531
 40
0.003
 41
0.003
 10
-1.156413
 20
-0.54511
 40
0.003
 41
0.003
  0
LWPOLYLINE
  5
1BC
100
AcDbEntity
  8
0
 62
     0
100
AcDbPolyline
 90
        2
 70
     0
 39
0.003
 10
-1.156413
 20
-0.54511
 40
0.003
 41
0.003
 10
-1.191575
 20
-0.56065
 40
0.003
 41
0.003
  0
LWPOLYLINE
  5
1BD
100
AcDbEntity
  8
0
 62
     0
100
AcDbPolyline
 90
        2
 70
     0
 39
0.003
 10
-1.191575
 20
-0.56065
 40
0.003
 41
0.003
 10
-1.22815
 20
-0.575071
 40
0.003
 41
0.003
  0
LWPOLYLINE
  5
1BE
100
AcDbEntity
  8
0
 62
     0
100
AcDbPolyline
 90
        2
 70
     0
 39
0.003
 10
-1.22815
 20
-0.575071
 40
0.003
 41
0.003
 10
-1.266181
 20
-0.588264
 40
0.003
 41
0.003
  0
LWPOLYLINE
  5
1BF
100
AcDbEntity
  8
0
 62
     0
100
AcDbPolyline
 90
        2
 70
     0
 39
0.003
 10
-1.266181
 20
-0.588264
 40
0.003
 41
0.003
 10
-1.305736
 20
-0.600146
 40
0.003
 41
0.003
  0
LWPOLYLINE
  5
1C0
100
AcDbEntity
  8
0
 62
     0
100
AcDbPolyline
 90
        2
 70
     0
 39
0.003
 10
-1.305736
 20
-0.600146
 40
0.003
 41
0.003
 10
-1.346862
 20
-0.610618
 40
0.003
 41
0.003
  0
LWPOLYLINE
  5
1C1
100
AcDbEntity
  8
0
 62
     0
100
AcDbPolyline
 90
        2
 70
     0
 39
0.003
 10
-1.346862
 20
-0.610618
 40
0.003
 41
0.003
 10
-1.389622
 20
-0.619591
 40
0.003
 41
0.003
  0
LWPOLYLINE
  5
1C2
100
AcDbEntity
  8
0
 62
     0
100
AcDbPolyline
 90
        2
 70
     0
 39
0.003
 10
-1.389622
 20
-0.619591
 40
0.003
 41
0.003
 10
-1.434051
 20
-0.626961
 40
0.003
 41
0.003
  0
LWPOLYLINE
  5
1C3
100
AcDbEntity
  8
0
 62
     0
100
AcDbPolyline
 90
        2
 70
     0
 39
0.003
 10
-1.434051
 20
-0.626961
 40
0.003
 41
0.003
 10
-1.480224
 20
-0.632642
 40
0.003
 41
0.003
  0
LWPOLYLINE
  5
1C4
100
AcDbEntity
  8
0
 62
     0
100
AcDbPolyline
 90
        2
 70
     0
 39
0.003
 10
-1.480224
 20
-0.632642
 40
0.003
 41
0.003
 10
-1.528185
 20
-0.636531
 40
0.003
 41
0.003
  0
LWPOLYLINE
  5
1C5
100
AcDbEntity
  8
0
 62
     0
100
AcDbPolyline
 90
        2
 70
     0
 39
0.003
 10
-1.528185
 20
-0.636531
 40
0.003
 41
0.003
 10
-1.577988
 20
-0.638543
 40
0.003
 41
0.003
  0
LWPOLYLINE
  5
1C6
100
AcDbEntity
  8
0
 62
   254
100
AcDbPolyline
 90
        2
 70
     0
 39
0.003
 10
0.46772
 20
0.482457
 40
0.003
 41
0.003
 10
1.112394
 20
0.100583
 40
0.003
 41
0.003
  0
LWPOLYLINE
  5
1C7
100
AcDbEntity
  8
0
 62
   254
100
AcDbPolyline
 90
        2
 70
     0
 39
0.003
 10
1.112394
 20
0.100583
 40
0.003
 41
0.003
 10
1.122874
 20
0.223409
 40
0.003
 41
0.003
  0
LWPOLYLINE
  5
1C8
100
AcDbEntity
  8
0
 62
   254
100
AcDbPolyline
 90
        2
 70
     0
 39
0.003
 10
1.122874
 20
0.223409
 40
0.003
 41
0.003
 10
0.478201
 20
0.605283
 40
0.003
 41
0.003
  0
LWPOLYLINE
  5
1C9
100
AcDbEntity
  8
0
 62
   254
100
AcDbPolyline
 90
        2
 70
     0
 39
0.003
 10
0.478201
 20
0.605283
 40
0.003
 41
0.003
 10
0.46772
 20
0.482457
 40
0.003
 41
0.003
  0
LWPOLYLINE
  5
1CA
100
AcDbEntity
  8
0
 62
     0
100
AcDbPolyline
 90
        2
 70
     0
 39
0.003
 10
0.46772
 20
0.482457
 40
0.003
 41
0.003
 10
1.112394
 20
0.100583
 40
0.003
 41
0.003
  0
LWPOLYLINE
  5
1CB
100
AcDbEntity
  8
0
 62
     0
100
AcDbPolyline
 90
        2
 70
     0
 39
0.003
 10
1.112394
 20
0.100583
 40
0.003
 41
0.003
 10
1.122874
 20
0.223409
 40
0.003
 41
0.003
  0
LWPOLYLINE
  5
1CC
100
AcDbEntity
  8
0
 62
     0
100
AcDbPolyline
 90
        2
 70
     0
 39
0.003
 10
1.122874
 20
0.223409
 40
0.003
 41
0.003
 10
0.478201
 20
0.605283
 40
0.003
 41
0.003
  0
LWPOLYLINE
  5
1CD
100
AcDbEntity
  8
0
 62
     0
100
AcDbPolyline
 90
        2
 70
     0
 39
0.003
 10
0.478201
 20
0.605283
 40
0.003
 41
0.003
 10
0.46772
 20
0.482457
 40
0.003
 41
0.003
  0
LWPOLYLINE
  5
1CE
100
AcDbEntity
  8
0
 62
   254
100
AcDbPolyline
 90
        2
 70
     0
 39
0.003
 10
0.478201
 20
0.605283
 40
0.003
 41
0.003
 10
1.122874
 20
0.223409
 40
0.003
 41
0.003
  0
LWPOLYLINE
  5
1CF
100
AcDbEntity
  8
0
 62
   254
100
AcDbPolyline
 90
        2
 70
     0
 39
0.003
 10
1.122874
 20
0.223409
 40
0.003
 41
0.003
 10
1.46952
 20
0.263406
 40
0.003
 41
0.003
  0
LWPOLYLINE
  5
1D0
100
AcDbEntity
  8
0
 62
   254
100
AcDbPolyline
 90
        2
 70
     0
 39
0.003
 10
1.46952
 20
0.263406
 40
0.003
 41
0.003
 10
0.824846
 20
0.64528
 40
0.003
 41
0.003
  0
LWPOLYLINE
  5
1D1
100
AcDbEntity
  8
0
 62
   254
100
AcDbPolyline
 90
        2
 70
     0
 39
0.003
 10
0.824846
 20
0.64528
 40
0.003
 41
0.003
 10
0.478201
 20
0.605283
 40
0.003
 41
0.003
  0
LWPOLYLINE
  5
1D2
100
AcDbEntity
  8
0
 62
     0
100
AcDbPolyline
 90
        2
 70
     0
 39
0.003
 10
0.478201
 20
0.605283
 40
0.003
 41
0.003
 10
1.122874
 20
0.223409
 40
0.003
 41
0.003
  0
LWPOLYLINE
  5
1D3
100
AcDbEntity
  8
0
 62
     0
100
AcDbPolyline
 90
        2
 70
     0
 39
0.003
 10
1.122874
 20
0.223409
 40
0.003
 41
0.003
 10
1.46952
 20
0.263406
 40
0.003
 41
0.003
  0
LWPOLYLINE
  5
1D4
100
AcDbEntity
  8
0
 62
     0
100
AcDbPolyline
 90
        2
 70
     0
 39
0.003
 10
1.46952
 20
0.263406
 40
0.003
 41
0.003
 10
0.824846
 20
0.64528
 40
0.003
 41
0.003
  0
LWPOLYLINE
  5
1D5
100
AcDbEntity
  8
0
 62
     0
100
AcDbPolyline
 90
        2
 70
     0
 39
0.003
 10
0.824846
 20
0.64528
 40
0.003
 41
0.003
 10
0.478201
 20
0.605283
 40
0.003
 41
0.003
  0
LWPOLYLINE
  5
1D6
100
AcDbEntity
  8
0
 62
   254
100
AcDbPolyline
 90
        2
 70
     0
 39
0.003
 10
0.824846
 20
0.64528
 40
0.003
 41
0.003
 10
1.46952
 20
0.263406
 40
0.003
 41
0.003
  0
LWPOLYLINE
  5
1D7
100
AcDbEntity
  8
0
 62
   254
100
AcDbPolyline
 90
        2
 70
     0
 39
0.003
 10
1.46952
 20
0.263406
 40
0.003
 41
0.003
 10
1.490827
 20
0.432
 40
0.003
 41
0.003
  0
LWPOLYLINE
  5
1D8
100
AcDbEntity
  8
0
 62
   254
100
AcDbPolyline
 90
        2
 70
     0
 39
0.003
 10
1.490827
 20
0.432
 40
0.003
 41
0.003
 10
0.846154
 20
0.813874
 40
0.003
 41
0.003
  0
LWPOLYLINE
  5
1D9
100
AcDbEntity
  8
0
 62
   254
100
AcDbPolyline
 90
        2
 70
     0
 39
0.003
 10
0.846154
 20
0.813874
 40
0.003
 41
0.003
 10
0.824846
 20
0.64528
 40
0.003
 41
0.003
  0
LWPOLYLINE
  5
1DA
100
AcDbEntity
  8
0
 62
     0
100
AcDbPolyline
 90
        2
 70
     0
 39
0.003
 10
0.824846
 20
0.64528
 40
0.003
 41
0.003
 10
1.46952
 20
0.263406
 40
0.003
 41
0.003
  0
LWPOLYLINE
  5
1DB
100
AcDbEntity
  8
0
 62
     0
100
AcDbPolyline
 90
        2
 70
     0
 39
0.003
 10
1.46952
 20
0.263406
 40
0.003
 41
0.003
 10
1.490827
 20
0.432
 40
0.003
 41
0.003
  0
LWPOLYLINE
  5
1DC
100
AcDbEntity
  8
0
 62
     0
100
AcDbPolyline
 90
        2
 70
     0
 39
0.003
 10
1.490827
 20
0.432
 40
0.003
 41
0.003
 10
0.846154
 20
0.813874
 40
0.003
 41
0.003
  0
LWPOLYLINE
  5
1DD
100
AcDbEntity
  8
0
 62
     0
100
AcDbPolyline
 90
        2
 70
     0
 39
0.003
 10
0.846154
 20
0.813874
 40
0.003
 41
0.003
 10
0.824846
 20
0.64528
 40
0.003
 41
0.003
  0
LWPOLYLINE
  5
1DE
100
AcDbEntity
  8
0
 62
   254
100
AcDbPolyline
 90
        2
 70
     0
 39
0.003
 10
0.846154
 20
0.813874
 40
0.003
 41
0.003
 10
1.490827
 20
0.432
 40
0.003
 41
0.003
  0
LWPOLYLINE
  5
1DF
100
AcDbEntity
  8
0
 62
   254
100
AcDbPolyline
 90
        2
 70
     0
 39
0.003
 10
1.490827
 20
0.432
 40
0.003
 41
0.003
 10
1.513421
 20
0.433669
 40
0.003
 41
0.003
  0
LWPOLYLINE
  5
1E0
100
AcDbEntity
  8
0
 62
   254
100
AcDbPolyline
 90
        2
 70
     0
 39
0.003
 10
1.513421
 20
0.433669
 40
0.003
 41
0.003
 10
0.868748
 20
0.815543
 40
0.003
 41
0.003
  0
LWPOLYLINE
  5
1E1
100
AcDbEntity
  8
0
 62
   254
100
AcDbPolyline
 90
        2
 70
     0
 39
0.003
 10
0.868748
 20
0.815543
 40
0.003
 41
0.003
 10
0.846154
 20
0.813874
 40
0.003
 41
0.003
  0
LWPOLYLINE
  5
1E2
100
AcDbEntity
  8
0
 62
   254
100
AcDbPolyline
 90
        2
 70
     0
 39
0.003
 10
0.868748
 20
0.815543
 40
0.003
 41
0.003
 10
1.513421
 20
0.433669
 40
0.003
 41
0.003
  0
LWPOLYLINE
  5
1E3
100
AcDbEntity
  8
0
 62
   254
100
AcDbPolyline
 90
        2
 70
     0
 39
0.003
 10
1.513421
 20
0.433669
 40
0.003
 41
0.003
 10
1.537087
 20
0.435587
 40
0.003
 41
0.003
  0
LWPOLYLINE
  5
1E4
100
AcDbEntity
  8
0
 62
   254
100
AcDbPolyline
 90
        2
 70
     0
 39
0.003
 10
1.537087
 20
0.435587
 40
0.003
 41
0.003
 10
0.892413
 20
0.817461
 40
0.003
 41
0.003
  0
LWPOLYLINE
  5
1E5
100
AcDbEntity
  8
0
 62
   254
100
AcDbPolyline
 90
        2
 70
     0
 39
0.003
 10
0.892413
 20
0.817461
 40
0.003
 41
0.003
 10
0.868748
 20
0.815543
 40
0.003
 41
0.003
  0
LWPOLYLINE
  5
1E6
100
AcDbEntity
  8
0
 62
   254
100
AcDbPolyline
 90
        2
 70
     0
 39
0.003
 10
0.892413
 20
0.817461
 40
0.003
 41
0.003
 10
1.537087
 20
0.435587
 40
0.003
 41
0.003
  0
LWPOLYLINE
  5
1E7
100
AcDbEntity
  8
0
 62
   254
100
AcDbPolyline
 90
        2
 70
     0
 39
0.003
 10
1.537087
 20
0.435587
 40
0.003
 41
0.003
 10
1.561701
 20
0.437803
 40
0.003
 41
0.003
  0
LWPOLYLINE
  5
1E8
100
AcDbEntity
  8
0
 62
   254
100
AcDbPolyline
 90
        2
 70
     0
 39
0.003
 10
1.561701
 20
0.437803
 40
0.003
 41
0.003
 10
0.917028
 20
0.819677
 40
0.003
 41
0.003
  0
LWPOLYLINE
  5
1E9
100
AcDbEntity
  8
0
 62
   254
100
AcDbPolyline
 90
        2
 70
     0
 39
0.003
 10
0.917028
 20
0.819677
 40
0.003
 41
0.003
 10
0.892413
 20
0.817461
 40
0.003
 41
0.003
  0
LWPOLYLINE
  5
1EA
100
AcDbEntity
  8
0
 62
   254
100
AcDbPolyline
 90
        2
 70
     0
 39
0.003
 10
0.917028
 20
0.819677
 40
0.003
 41
0.003
 10
1.561701
 20
0.437803
 40
0.003
 41
0.003
  0
LWPOLYLINE
  5
1EB
100
AcDbEntity
  8
0
 62
   254
100
AcDbPolyline
 90
        2
 70
     0
 39
0.003
 10
1.561701
 20
0.437803
 40
0.003
 41
0.003
 10
1.587161
 20
0.440386
 40
0.003
 41
0.003
  0
LWPOLYLINE
  5
1EC
100
AcDbEntity
  8
0
 62
   254
100
AcDbPolyline
 90
        2
 70
     0
 39
0.003
 10
1.587161
 20
0.440386
 40
0.003
 41
0.003
 10
0.942488
 20
0.82226
 40
0.003
 41
0.003
  0
LWPOLYLINE
  5
1ED
100
AcDbEntity
  8
0
 62
   254
100
AcDbPolyline
 90
        2
 70
     0
 39
0.003
 10
0.942488
 20
0.82226
 40
0.003
 41
0.003
 10
0.917028
 20
0.819677
 40
0.003
 41
0.003
  0
LWPOLYLINE
  5
1EE
100
AcDbEntity
  8
0
 62
   254
100
AcDbPolyline
 90
        2
 70
     0
 39
0.003
 10
0.942488
 20
0.82226
 40
0.003
 41
0.003
 10
1.587161
 20
0.440386
 40
0.003
 41
0.003
  0
LWPOLYLINE
  5
1EF
100
AcDbEntity
  8
0
 62
   254
100
AcDbPolyline
 90
        2
 70
     0
 39
0.003
 10
1.587161
 20
0.440386
 40
0.003
 41
0.003
 10
1.613335
 20
0.443378
 40
0.003
 41
0.003
  0
LWPOLYLINE
  5
1F0
100
AcDbEntity
  8
0
 62
   254
100
AcDbPolyline
 90
        2
 70
     0
 39
0.003
 10
1.613335
 20
0.443378
 40
0.003
 41
0.003
 10
0.968661
 20
0.825252
 40
0.003
 41
0.003
  0
LWPOLYLINE
  5
1F1
100
AcDbEntity
  8
0
 62
   254
100
AcDbPolyline
 90
        2
 70
     0
 39
0.003
 10
0.968661
 20
0.825252
 40
0.003
 41
0.003
 10
0.942488
 20
0.82226
 40
0.003
 41
0.003
  0
LWPOLYLINE
  5
1F2
100
AcDbEntity
  8
0
 62
   254
100
AcDbPolyline
 90
        2
 70
     0
 39
0.003
 10
0.968661
 20
0.825252
 40
0.003
 41
0.003
 10
1.613335
 20
0.443378
 40
0.003
 41
0.003
  0
LWPOLYLINE
  5
1F3
100
AcDbEntity
  8
0
 62
   254
100
AcDbPolyline
 90
        2
 70
     0
 39
0.003
 10
1.613335
 20
0.443378
 40
0.003
 41
0.003
 10
1.640126
 20
0.44685
 40
0.003
 41
0.003
  0
LWPOLYLINE
  5
1F4
100
AcDbEntity
  8
0
 62
   254
100
AcDbPolyline
 90
        2
 70
     0
 39
0.003
 10
1.640126
 20
0.44685
 40
0.003
 41
0.003
 10
0.995453
 20
0.828724
 40
0.003
 41
0.003
  0
LWPOLYLINE
  5
1F5
100
AcDbEntity
  8
0
 62
   254
100
AcDbPolyline
 90
        2
 70
     0
 39
0.003
 10
0.995453
 20
0.828724
 40
0.003
 41
0.003
 10
0.968661
 20
0.825252
 40
0.003
 41
0.003
  0
LWPOLYLINE
  5
1F6
100
AcDbEntity
  8
0
 62
   254
100
AcDbPolyline
 90
        2
 70
     0
 39
0.003
 10
0.995453
 20
0.828724
 40
0.003
 41
0.003
 10
1.640126
 20
0.44685
 40
0.003
 41
0.003
  0
LWPOLYLINE
  5
1F7
100
AcDbEntity
  8
0
 62
   254
100
AcDbPolyline
 90
        2
 70
     0
 39
0.003
 10
1.640126
 20
0.44685
 40
0.003
 41
0.003
 10
1.667402
 20
0.450854
 40
0.003
 41
0.003
  0
LWPOLYLINE
  5
1F8
100
AcDbEntity
  8
0
 62
   254
100
AcDbPolyline
 90
        2
 70
     0
 39
0.003
 10
1.667402
 20
0.450854
 40
0.003
 41
0.003
 10
1.022728
 20
0.832728
 40
0.003
 41
0.003
  0
LWPOLYLINE
  5
1F9
100
AcDbEntity
  8
0
 62
   254
100
AcDbPolyline
 90
        2
 70
     0
 39
0.003
 10
1.022728
 20
0.832728
 40
0.003
 41
0.003
 10
0.995453
 20
0.828724
 40
0.003
 41
0.003
  0
LWPOLYLINE
  5
1FA
100
AcDbEntity
  8
0
 62
   254
100
AcDbPolyline
 90
        2
 70
     0
 39
0.003
 10
1.022728
 20
0.832728
 40
0.003
 41
0.003
 10
1.667402
 20
0.450854
 40
0.003
 41
0.003
  0
LWPOLYLINE
  5
1FB
100
AcDbEntity
  8
0
 62
   254
100
AcDbPolyline
 90
        2
 70
     0
 39
0.003
 10
1.667402
 20
0.450854
 40
0.003
 41
0.003
 10
1.695067
 20
0.455461
 40
0.003
 41
0.003
  0
LWPOLYLINE
  5
1FC
100
AcDbEntity
  8
0
 62
   254
100
AcDbPolyline
 90
        2
 70
     0
 39
0.003
 10
1.695067
 20
0.455461
 40
0.003
 41
0.003
 10
1.050394
 20
0.837335
 40
0.003
 41
0.003
  0
LWPOLYLINE
  5
1FD
100
AcDbEntity
  8
0
 62
   254
100
AcDbPolyline
 90
        2
 70
     0
 39
0.003
 10
1.050394
 20
0.837335
 40
0.003
 41
0.003
 10
1.022728
 20
0.832728
 40
0.003
 41
0.003
  0
LWPOLYLINE
  5
1FE
100
AcDbEntity
  8
0
 62
   254
100
AcDbPolyline
 90
        2
 70
     0
 39
0.003
 10
1.050394
 20
0.837335
 40
0.003
 41
0.003
 10
1.695067
 20
0.455461
 40
0.003
 41
0.003
  0
LWPOLYLINE
  5
1FF
100
AcDbEntity
  8
0
 62
   254
100
AcDbPolyline
 90
        2
 70
     0
 39
0.003
 10
1.695067
 20
0.455461
 40
0.003
 41
0.003
 10
1.722984
 20
0.460709
 40
0.003
 41
0.003
  0
LWPOLYLINE
  5
200
100
AcDbEntity
  8
0
 62
   254
100
AcDbPolyline
 90
        2
 70
     0
 39
0.003
 10
1.722984
 20
0.460709
 40
0.003
 41
0.003
 10
1.078311
 20
0.842583
 40
0.003
 41
0.003
  0
LWPOLYLINE
  5
201
100
AcDbEntity
  8
0
 62
   254
100
AcDbPolyline
 90
        2
 70
     0
 39
0.003
 10
1.078311
 20
0.842583
 40
0.003
 41
0.003
 10
1.050394
 20
0.837335
 40
0.003
 41
0.003
  0
LWPOLYLINE
  5
202
100
AcDbEntity
  8
0
 62
   254
100
AcDbPolyline
 90
        2
 70
     0
 39
0.003
 10
1.078311
 20
0.842583
 40
0.003
 41
0.003
 10
1.722984
 20
0.460709
 40
0.003
 41
0.003
  0
LWPOLYLINE
  5
203
100
AcDbEntity
  8
0
 62
   254
100
AcDbPolyline
 90
        2
 70
     0
 39
0.003
 10
1.722984
 20
0.460709
 40
0.003
 41
0.003
 10
1.751055
 20
0.466673
 40
0.003
 41
0.003
  0
LWPOLYLINE
  5
204
100
AcDbEntity
  8
0
 62
   254
100
AcDbPolyline
 90
        2
 70
     0
 39
0.003
 10
1.751055
 20
0.466673
 40
0.003
 41
0.003
 10
1.106382
 20
0.848547
 40
0.003
 41
0.003
  0
LWPOLYLINE
  5
205
100
AcDbEntity
  8
0
 62
   254
100
AcDbPolyline
 90
        2
 70
     0
 39
0.003
 10
1.106382
 20
0.848547
 40
0.003
 41
0.003
 10
1.078311
 20
0.842583
 40
0.003
 41
0.003
  0
LWPOLYLINE
  5
206
100
AcDbEntity
  8
0
 62
   254
100
AcDbPolyline
 90
        2
 70
     0
 39
0.003
 10
1.106382
 20
0.848547
 40
0.003
 41
0.003
 10
1.751055
 20
0.466673
 40
0.003
 41
0.003
  0
LWPOLYLINE
  5
207
100
AcDbEntity
  8
0
 62
   254
100
AcDbPolyline
 90
        2
 70
     0
 39
0.003
 10
1.751055
 20
0.466673
 40
0.003
 41
0.003
 10
1.779161
 20
0.473402
 40
0.003
 41
0.003
  0
LWPOLYLINE
  5
208
100
AcDbEntity
  8
0
 62
   254
100
AcDbPolyline
 90
        2
 70
     0
 39
0.003
 10
1.779161
 20
0.473402
 40
0.003
 41
0.003
 10
1.134488
 20
0.855276
 40
0.003
 41
0.003
  0
LWPOLYLINE
  5
209
100
AcDbEntity
  8
0
 62
   254
100
AcDbPolyline
 90
        2
 70
     0
 39
0.003
 10
1.134488
 20
0.855276
 40
0.003
 41
0.003
 10
1.106382
 20
0.848547
 40
0.003
 41
0.003
  0
LWPOLYLINE
  5
20A
100
AcDbEntity
  8
0
 62
   254
100
AcDbPolyline
 90
        2
 70
     0
 39
0.003
 10
1.134488
 20
0.855276
 40
0.003
 41
0.003
 10
1.779161
 20
0.473402
 40
0.003
 41
0.003
  0
LWPOLYLINE
  5
20B
100
AcDbEntity
  8
0
 62
   254
100
AcDbPolyline
 90
        2
 70
     0
 39
0.003
 10
1.779161
 20
0.473402
 40
0.003
 41
0.003
 10
1.807189
 20
0.480965
 40
0.003
 41
0.003
  0
LWPOLYLINE
  5
20C
100
AcDbEntity
  8
0
 62
   254
100
AcDbPolyline
 90
        2
 70
     0
 39
0.003
 10
1.807189
 20
0.480965
 40
0.003
 41
0.003
 10
1.162516
 20
0.862839
 40
0.003
 41
0.003
  0
LWPOLYLINE
  5
20D
100
AcDbEntity
  8
0
 62
   254
100
AcDbPolyline
 90
        2
 70
     0
 39
0.003
 10
1.162516
 20
0.862839
 40
0.003
 41
0.003
 10
1.134488
 20
0.855276
 40
0.003
 41
0.003
  0
LWPOLYLINE
  5
20E
100
AcDbEntity
  8
0
 62
   254
100
AcDbPolyline
 90
        2
 70
     0
 39
0.003
 10
1.162516
 20
0.862839
 40
0.003
 41
0.003
 10
1.807189
 20
0.480965
 40
0.003
 41
0.003
  0
LWPOLYLINE
  5
20F
100
AcDbEntity
  8
0
 62
   254
100
AcDbPolyline
 90
        2
 70
     0
 39
0.003
 10
1.807189
 20
0.480965
 40
0.003
 41
0.003
 10
1.835012
 20
0.489409
 40
0.003
 41
0.003
  0
LWPOLYLINE
  5
210
100
AcDbEntity
  8
0
 62
   254
100
AcDbPolyline
 90
        2
 70
     0
 39
0.003
 10
1.835012
 20
0.489409
 40
0.003
 41
0.003
 10
1.190339
 20
0.871283
 40
0.003
 41
0.003
  0
LWPOLYLINE
  5
211
100
AcDbEntity
  8
0
 62
   254
100
AcDbPolyline
 90
        2
 70
     0
 39
0.003
 10
1.190339
 20
0.871283
 40
0.003
 41
0.003
 10
1.162516
 20
0.862839
 40
0.003
 41
0.003
  0
LWPOLYLINE
  5
212
100
AcDbEntity
  8
0
 62
   254
100
AcDbPolyline
 90
        2
 70
     0
 39
0.003
 10
1.190339
 20
0.871283
 40
0.003
 41
0.003
 10
1.835012
 20
0.489409
 40
0.003
 41
0.003
  0
LWPOLYLINE
  5
213
100
AcDbEntity
  8
0
 62
   254
100
AcDbPolyline
 90
        2
 70
     0
 39
0.003
 10
1.835012
 20
0.489409
 40
0.003
 41
0.003
 10
1.862535
 20
0.498803
 40
0.003
 41
0.003
  0
LWPOLYLINE
  5
214
100
AcDbEntity
  8
0
 62
   254
100
AcDbPolyline
 90
        2
 70
     0
 39
0.003
 10
1.862535
 20
0.498803
 40
0.003
 41
0.003
 10
1.217862
 20
0.880677
 40
0.003
 41
0.003
  0
LWPOLYLINE
  5
215
100
AcDbEntity
  8
0
 62
   254
100
AcDbPolyline
 90
        2
 70
     0
 39
0.003
 10
1.217862
 20
0.880677
 40
0.003
 41
0.003
 10
1.190339
 20
0.871283
 40
0.003
 41
0.003
  0
LWPOLYLINE
  5
216
100
AcDbEntity
  8
0
 62
   254
100
AcDbPolyline
 90
        2
 70
     0
 39
0.003
 10
1.217862
 20
0.880677
 40
0.003
 41
0.003
 10
1.862535
 20
0.498803
 40
0.003
 41
0.003
  0
LWPOLYLINE
  5
217
100
AcDbEntity
  8
0
 62
   254
100
AcDbPolyline
 90
        2
 70
     0
 39
0.003
 10
1.862535
 20
0.498803
 40
0.003
 41
0.003
 10
1.889634
 20
0.509197
 40
0.003
 41
0.003
  0
LWPOLYLINE
  5
218
100
AcDbEntity
  8
0
 62
   254
100
AcDbPolyline
 90
        2
 70
     0
 39
0.003
 10
1.889634
 20
0.509197
 40
0.003
 41
0.003
 10
1.244961
 20
0.891071
 40
0.003
 41
0.003
  0
LWPOLYLINE
  5
219
100
AcDbEntity
  8
0
 62
   254
100
AcDbPolyline
 90
        2
 70
     0
 39
0.003
 10
1.244961
 20
0.891071
 40
0.003
 41
0.003
 10
1.217862
 20
0.880677
 40
0.003
 41
0.003
  0
LWPOLYLINE
  5
21A
100
AcDbEntity
  8
0
 62
   254
100
AcDbPolyline
 90
        2
 70
     0
 39
0.003
 10
1.244961
 20
0.891071
 40
0.003
 41
0.003
 10
1.889634
 20
0.509197
 40
0.003
 41
0.003
  0
LWPOLYLINE
  5
21B
100
AcDbEntity
  8
0
 62
   254
100
AcDbPolyline
 90
        2
 70
     0
 39
0.003
 10
1.889634
 20
0.509197
 40
0.003
 41
0.003
 10
1.916193
 20
0.520661
 40
0.003
 41
0.003
  0
LWPOLYLINE
  5
21C
100
AcDbEntity
  8
0
 62
   254
100
AcDbPolyline
 90
        2
 70
     0
 39
0.003
 10
1.916193
 20
0.520661
 40
0.003
 41
0.003
 10
1.27152
 20
0.902535
 40
0.003
 41
0.003
  0
LWPOLYLINE
  5
21D
100
AcDbEntity
  8
0
 62
   254
100
AcDbPolyline
 90
        2
 70
     0
 39
0.003
 10
1.27152
 20
0.902535
 40
0.003
 41
0.003
 10
1.244961
 20
0.891071
 40
0.003
 41
0.003
  0
LWPOLYLINE
  5
21E
100
AcDbEntity
  8
0
 62
   254
100
AcDbPolyline
 90
        2
 70
     0
 39
0.003
 10
1.27152
 20
0.902535
 40
0.003
 41
0.003
 10
1.916193
 20
0.520661
 40
0.003
 41
0.003
  0
LWPOLYLINE
  5
21F
100
AcDbEntity
  8
0
 62
   254
100
AcDbPolyline
 90
        2
 70
     0
 39
0.003
 10
1.916193
 20
0.520661
 40
0.003
 41
0.003
 10
1.942087
 20
0.533236
 40
0.003
 41
0.003
  0
LWPOLYLINE
  5
220
100
AcDbEntity
  8
0
 62
   254
100
AcDbPolyline
 90
        2
 70
     0
 39
0.003
 10
1.942087
 20
0.533236
 40
0.003
 41
0.003
 10
1.297413
 20
0.91511
 40
0.003
 41
0.003
  0
LWPOLYLINE
  5
221
100
AcDbEntity
  8
0
 62
   254
100
AcDbPolyline
 90
        2
 70
     0
 39
0.003
 10
1.297413
 20
0.91511
 40
0.003
 41
0.003
 10
1.27152
 20
0.902535
 40
0.003
 41
0.003
  0
LWPOLYLINE
  5
222
100
AcDbEntity
  8
0
 62
   254
100
AcDbPolyline
 90
        2
 70
     0
 39
0.003
 10
1.297413
 20
0.91511
 40
0.003
 41
0.003
 10
1.942087
 20
0.533236
 40
0.003
 41
0.003
  0
LWPOLYLINE
  5
223
100
AcDbEntity
  8
0
 62
   254
100
AcDbPolyline
 90
        2
 70
     0
 39
0.003
 10
1.942087
 20
0.533236
 40
0.003
 41
0.003
 10
1.96722
 20
0.546996
 40
0.003
 41
0.003
  0
LWPOLYLINE
  5
224
100
AcDbEntity
  8
0
 62
   254
100
AcDbPolyline
 90
        2
 70
     0
 39
0.003
 10
1.96722
 20
0.546996
 40
0.003
 41
0.003
 10
1.322547
 20
0.92887
 40
0.003
 41
0.003
  0
LWPOLYLINE
  5
225
100
AcDbEntity
  8
0
 62
   254
100
AcDbPolyline
 90
        2
 70
     0
 39
0.003
 10
1.322547
 20
0.92887
 40
0.003
 41
0.003
 10
1.297413
 20
0.91511
 40
0.003
 41
0.003
  0
LWPOLYLINE
  5
226
100
AcDbEntity
  8
0
 62
   254
100
AcDbPolyline
 90
        2
 70
     0
 39
0.003
 10
1.322547
 20
0.92887
 40
0.003
 41
0.003
 10
1.96722
 20
0.546996
 40
0.003
 41
0.003
  0
LWPOLYLINE
  5
227
100
AcDbEntity
  8
0
 62
   254
100
AcDbPolyline
 90
        2
 70
     0
 39
0.003
 10
1.96722
 20
0.546996
 40
0.003
 41
0.003
 10
1.991465
 20
0.561992
 40
0.003
 41
0.003
  0
LWPOLYLINE
  5
228
100
AcDbEntity
  8
0
 62
   254
100
AcDbPolyline
 90
        2
 70
     0
 39
0.003
 10
1.991465
 20
0.561992
 40
0.003
 41
0.003
 10
1.346791
 20
0.943866
 40
0.003
 41
0.003
  0
LWPOLYLINE
  5
229
100
AcDbEntity
  8
0
 62
   254
100
AcDbPolyline
 90
        2
 70
     0
 39
0.003
 10
1.346791
 20
0.943866
 40
0.003
 41
0.003
 10
1.322547
 20
0.92887
 40
0.003
 41
0.003
  0
LWPOLYLINE
  5
22A
100
AcDbEntity
  8
0
 62
   254
100
AcDbPolyline
 90
        2
 70
     0
 39
0.003
 10
1.346791
 20
0.943866
 40
0.003
 41
0.003
 10
1.991465
 20
0.561992
 40
0.003
 41
0.003
  0
LWPOLYLINE
  5
22B
100
AcDbEntity
  8
0
 62
   254
100
AcDbPolyline
 90
        2
 70
     0
 39
0.003
 10
1.991465
 20
0.561992
 40
0.003
 41
0.003
 10
2.014717
 20
0.578287
 40
0.003
 41
0.003
  0
LWPOLYLINE
  5
22C
100
AcDbEntity
  8
0
 62
   254
100
AcDbPolyline
 90
        2
 70
     0
 39
0.003
 10
2.014717
 20
0.578287
 40
0.003
 41
0.003
 10
1.370043
 20
0.960161
 40
0.003
 41
0.003
  0
LWPOLYLINE
  5
22D
100
AcDbEntity
  8
0
 62
   254
100
AcDbPolyline
 90
        2
 70
     0
 39
0.003
 10
1.370043
 20
0.960161
 40
0.003
 41
0.003
 10
1.346791
 20
0.943866
 40
0.003
 41
0.003
  0
LWPOLYLINE
  5
22E
100
AcDbEntity
  8
0
 62
   254
100
AcDbPolyline
 90
        2
 70
     0
 39
0.003
 10
1.370043
 20
0.960161
 40
0.003
 41
0.003
 10
2.014717
 20
0.578287
 40
0.003
 41
0.003
  0
LWPOLYLINE
  5
22F
100
AcDbEntity
  8
0
 62
   254
100
AcDbPolyline
 90
        2
 70
     0
 39
0.003
 10
2.014717
 20
0.578287
 40
0.003
 41
0.003
 10
2.03685
 20
0.595933
 40
0.003
 41
0.003
  0
LWPOLYLINE
  5
230
100
AcDbEntity
  8
0
 62
   254
100
AcDbPolyline
 90
        2
 70
     0
 39
0.003
 10
2.03685
 20
0.595933
 40
0.003
 41
0.003
 10
1.392177
 20
0.977807
 40
0.003
 41
0.003
  0
LWPOLYLINE
  5
231
100
AcDbEntity
  8
0
 62
   254
100
AcDbPolyline
 90
        2
 70
     0
 39
0.003
 10
1.392177
 20
0.977807
 40
0.003
 41
0.003
 10
1.370043
 20
0.960161
 40
0.003
 41
0.003
  0
LWPOLYLINE
  5
232
100
AcDbEntity
  8
0
 62
   254
100
AcDbPolyline
 90
        2
 70
     0
 39
0.003
 10
1.392177
 20
0.977807
 40
0.003
 41
0.003
 10
2.03685
 20
0.595933
 40
0.003
 41
0.003
  0
LWPOLYLINE
  5
233
100
AcDbEntity
  8
0
 62
   254
100
AcDbPolyline
 90
        2
 70
     0
 39
0.003
 10
2.03685
 20
0.595933
 40
0.003
 41
0.003
 10
2.05776
 20
0.614996
 40
0.003
 41
0.003
  0
LWPOLYLINE
  5
234
100
AcDbEntity
  8
0
 62
   254
100
AcDbPolyline
 90
        2
 70
     0
 39
0.003
 10
2.05776
 20
0.614996
 40
0.003
 41
0.003
 10
1.413087
 20
0.99687
 40
0.003
 41
0.003
  0
LWPOLYLINE
  5
235
100
AcDbEntity
  8
0
 62
   254
100
AcDbPolyline
 90
        2
 70
     0
 39
0.003
 10
1.413087
 20
0.99687
 40
0.003
 41
0.003
 10
1.392177
 20
0.977807
 40
0.003
 41
0.003
  0
LWPOLYLINE
  5
236
100
AcDbEntity
  8
0
 62
   254
100
AcDbPolyline
 90
        2
 70
     0
 39
0.003
 10
1.413087
 20
0.99687
 40
0.003
 41
0.003
 10
2.05776
 20
0.614996
 40
0.003
 41
0.003
  0
LWPOLYLINE
  5
237
100
AcDbEntity
  8
0
 62
   254
100
AcDbPolyline
 90
        2
 70
     0
 39
0.003
 10
2.05776
 20
0.614996
 40
0.003
 41
0.003
 10
2.077323
 20
0.635531
 40
0.003
 41
0.003
  0
LWPOLYLINE
  5
238
100
AcDbEntity
  8
0
 62
   254
100
AcDbPolyline
 90
        2
 70
     0
 39
0.003
 10
2.077323
 20
0.635531
 40
0.003
 41
0.003
 10
1.43265
 20
1.017406
 40
0.003
 41
0.003
  0
LWPOLYLINE
  5
239
100
AcDbEntity
  8
0
 62
   254
100
AcDbPolyline
 90
        2
 70
     0
 39
0.003
 10
1.43265
 20
1.017406
 40
0.003
 41
0.003
 10
1.413087
 20
0.99687
 40
0.003
 41
0.003
  0
LWPOLYLINE
  5
23A
100
AcDbEntity
  8
0
 62
   254
100
AcDbPolyline
 90
        2
 70
     0
 39
0.003
 10
1.43265
 20
1.017406
 40
0.003
 41
0.003
 10
2.077323
 20
0.635531
 40
0.003
 41
0.003
  0
LWPOLYLINE
  5
23B
100
AcDbEntity
  8
0
 62
   254
100
AcDbPolyline
 90
        2
 70
     0
 39
0.003
 10
2.077323
 20
0.635531
 40
0.003
 41
0.003
 10
2.095433
 20
0.657602
 40
0.003
 41
0.003
  0
LWPOLYLINE
  5
23C
100
AcDbEntity
  8
0
 62
   254
100
AcDbPolyline
 90
        2
 70
     0
 39
0.003
 10
2.095433
 20
0.657602
 40
0.003
 41
0.003
 10
1.45076
 20
1.039476
 40
0.003
 41
0.003
  0
LWPOLYLINE
  5
23D
100
AcDbEntity
  8
0
 62
   254
100
AcDbPolyline
 90
        2
 70
     0
 39
0.003
 10
1.45076
 20
1.039476
 40
0.003
 41
0.003
 10
1.43265
 20
1.017406
 40
0.003
 41
0.003
  0
LWPOLYLINE
  5
23E
100
AcDbEntity
  8
0
 62
   254
100
AcDbPolyline
 90
        2
 70
     0
 39
0.003
 10
1.45076
 20
1.039476
 40
0.003
 41
0.003
 10
2.095433
 20
0.657602
 40
0.003
 41
0.003
  0
LWPOLYLINE
  5
23F
100
AcDbEntity
  8
0
 62
   254
100
AcDbPolyline
 90
        2
 70
     0
 39
0.003
 10
2.095433
 20
0.657602
 40
0.003
 41
0.003
 10
2.111961
 20
0.681252
 40
0.003
 41
0.003
  0
LWPOLYLINE
  5
240
100
AcDbEntity
  8
0
 62
   254
100
AcDbPolyline
 90
        2
 70
     0
 39
0.003
 10
2.111961
 20
0.681252
 40
0.003
 41
0.003
 10
1.467287
 20
1.063126
 40
0.003
 41
0.003
  0
LWPOLYLINE
  5
241
100
AcDbEntity
  8
0
 62
   254
100
AcDbPolyline
 90
        2
 70
     0
 39
0.003
 10
1.467287
 20
1.063126
 40
0.003
 41
0.003
 10
1.45076
 20
1.039476
 40
0.003
 41
0.003
  0
LWPOLYLINE
  5
242
100
AcDbEntity
  8
0
 62
   254
100
AcDbPolyline
 90
        2
 70
     0
 39
0.003
 10
1.467287
 20
1.063126
 40
0.003
 41
0.003
 10
2.111961
 20
0.681252
 40
0.003
 41
0.003
  0
LWPOLYLINE
  5
243
100
AcDbEntity
  8
0
 62
   254
100
AcDbPolyline
 90
        2
 70
     0
 39
0.003
 10
2.111961
 20
0.681252
 40
0.003
 41
0.003
 10
2.126807
 20
0.706559
 40
0.003
 41
0.003
  0
LWPOLYLINE
  5
244
100
AcDbEntity
  8
0
 62
   254
100
AcDbPolyline
 90
        2
 70
     0
 39
0.003
 10
2.126807
 20
0.706559
 40
0.003
 41
0.003
 10
1.482134
 20
1.088433
 40
0.003
 41
0.003
  0
LWPOLYLINE
  5
245
100
AcDbEntity
  8
0
 62
   254
100
AcDbPolyline
 90
        2
 70
     0
 39
0.003
 10
1.482134
 20
1.088433
 40
0.003
 41
0.003
 10
1.467287
 20
1.063126
 40
0.003
 41
0.003
  0
LWPOLYLINE
  5
246
100
AcDbEntity
  8
0
 62
   254
100
AcDbPolyline
 90
        2
 70
     0
 39
0.003
 10
1.482134
 20
1.088433
 40
0.003
 41
0.003
 10
2.126807
 20
0.706559
 40
0.003
 41
0.003
  0
LWPOLYLINE
  5
247
100
AcDbEntity
  8
0
 62
   254
100
AcDbPolyline
 90
        2
 70
     0
 39
0.003
 10
2.126807
 20
0.706559
 40
0.003
 41
0.003
 10
2.13985
 20
0.733571
 40
0.003
 41
0.003
  0
LWPOLYLINE
  5
248
100
AcDbEntity
  8
0
 62
   254
100
AcDbPolyline
 90
        2
 70
     0
 39
0.003
 10
2.13985
 20
0.733571
 40
0.003
 41
0.003
 10
1.495177
 20
1.115445
 40
0.003
 41
0.003
  0
LWPOLYLINE
  5
249
100
AcDbEntity
  8
0
 62
   254
100
AcDbPolyline
 90
        2
 70
     0
 39
0.003
 10
1.495177
 20
1.115445
 40
0.003
 41
0.003
 10
1.482134
 20
1.088433
 40
0.003
 41
0.003
  0
LWPOLYLINE
  5
24A
100
AcDbEntity
  8
0
 62
   254
100
AcDbPolyline
 90
        2
 70
     0
 39
0.003
 10
1.495177
 20
1.115445
 40
0.003
 41
0.003
 10
2.13985
 20
0.733571
 40
0.003
 41
0.003
  0
LWPOLYLINE
  5
24B
100
AcDbEntity
  8
0
 62
   254
100
AcDbPolyline
 90
        2
 70
     0
 39
0.003
 10
2.13985
 20
0.733571
 40
0.003
 41
0.003
 10
2.15098
 20
0.76235
 40
0.003
 41
0.003
  0
LWPOLYLINE
  5
24C
100
AcDbEntity
  8
0
 62
   254
100
AcDbPolyline
 90
        2
 70
     0
 39
0.003
 10
2.15098
 20
0.76235
 40
0.003
 41
0.003
 10
1.506307
 20
1.144224
 40
0.003
 41
0.003
  0
LWPOLYLINE
  5
24D
100
AcDbEntity
  8
0
 62
   254
100
AcDbPolyline
 90
        2
 70
     0
 39
0.003
 10
1.506307
 20
1.144224
 40
0.003
 41
0.003
 10
1.495177
 20
1.115445
 40
0.003
 41
0.003
  0
LWPOLYLINE
  5
24E
100
AcDbEntity
  8
0
 62
   254
100
AcDbPolyline
 90
        2
 70
     0
 39
0.003
 10
1.506307
 20
1.144224
 40
0.003
 41
0.003
 10
2.15098
 20
0.76235
 40
0.003
 41
0.003
  0
LWPOLYLINE
  5
24F
100
AcDbEntity
  8
0
 62
   254
100
AcDbPolyline
 90
        2
 70
     0
 39
0.003
 10
2.15098
 20
0.76235
 40
0.003
 41
0.003
 10
2.160071
 20
0.792949
 40
0.003
 41
0.003
  0
LWPOLYLINE
  5
250
100
AcDbEntity
  8
0
 62
   254
100
AcDbPolyline
 90
        2
 70
     0
 39
0.003
 10
2.160071
 20
0.792949
 40
0.003
 41
0.003
 10
1.515398
 20
1.174823
 40
0.003
 41
0.003
  0
LWPOLYLINE
  5
251
100
AcDbEntity
  8
0
 62
   254
100
AcDbPolyline
 90
        2
 70
     0
 39
0.003
 10
1.515398
 20
1.174823
 40
0.003
 41
0.003
 10
1.506307
 20
1.144224
 40
0.003
 41
0.003
  0
LWPOLYLINE
  5
252
100
AcDbEntity
  8
0
 62
   254
100
AcDbPolyline
 90
        2
 70
     0
 39
0.003
 10
1.515398
 20
1.174823
 40
0.003
 41
0.003
 10
2.160071
 20
0.792949
 40
0.003
 41
0.003
  0
LWPOLYLINE
  5
253
100
AcDbEntity
  8
0
 62
   254
100
AcDbPolyline
 90
        2
 70
     0
 39
0.003
 10
2.160071
 20
0.792949
 40
0.003
 41
0.003
 10
2.167024
 20
0.825433
 40
0.003
 41
0.003
  0
LWPOLYLINE
  5
254
100
AcDbEntity
  8
0
 62
   254
100
AcDbPolyline
 90
        2
 70
     0
 39
0.003
 10
2.167024
 20
0.825433
 40
0.003
 41
0.003
 10
1.52235
 20
1.207307
 40
0.003
 41
0.003
  0
LWPOLYLINE
  5
255
100
AcDbEntity
  8
0
 62
   254
100
AcDbPolyline
 90
        2
 70
     0
 39
0.003
 10
1.52235
 20
1.207307
 40
0.003
 41
0.003
 10
1.515398
 20
1.174823
 40
0.003
 41
0.003
  0
LWPOLYLINE
  5
256
100
AcDbEntity
  8
0
 62
   254
100
AcDbPolyline
 90
        2
 70
     0
 39
0.003
 10
1.52235
 20
1.207307
 40
0.003
 41
0.003
 10
2.167024
 20
0.825433
 40
0.003
 41
0.003
  0
LWPOLYLINE
  5
257
100
AcDbEntity
  8
0
 62
   254
100
AcDbPolyline
 90
        2
 70
     0
 39
0.003
 10
2.167024
 20
0.825433
 40
0.003
 41
0.003
 10
2.171713
 20
0.859858
 40
0.003
 41
0.003
  0
LWPOLYLINE
  5
258
100
AcDbEntity
  8
0
 62
   254
100
AcDbPolyline
 90
        2
 70
     0
 39
0.003
 10
2.171713
 20
0.859858
 40
0.003
 41
0.003
 10
1.527039
 20
1.241732
 40
0.003
 41
0.003
  0
LWPOLYLINE
  5
259
100
AcDbEntity
  8
0
 62
   254
100
AcDbPolyline
 90
        2
 70
     0
 39
0.003
 10
1.527039
 20
1.241732
 40
0.003
 41
0.003
 10
1.52235
 20
1.207307
 40
0.003
 41
0.003
  0
LWPOLYLINE
  5
25A
100
AcDbEntity
  8
0
 62
   254
100
AcDbPolyline
 90
        2
 70
     0
 39
0.003
 10
1.527039
 20
1.241732
 40
0.003
 41
0.003
 10
2.171713
 20
0.859858
 40
0.003
 41
0.003
  0
LWPOLYLINE
  5
25B
100
AcDbEntity
  8
0
 62
   254
100
AcDbPolyline
 90
        2
 70
     0
 39
0.003
 10
2.171713
 20
0.859858
 40
0.003
 41
0.003
 10
2.174028
 20
0.896291
 40
0.003
 41
0.003
  0
LWPOLYLINE
  5
25C
100
AcDbEntity
  8
0
 62
   254
100
AcDbPolyline
 90
        2
 70
     0
 39
0.003
 10
2.174028
 20
0.896291
 40
0.003
 41
0.003
 10
1.529354
 20
1.278165
 40
0.003
 41
0.003
  0
LWPOLYLINE
  5
25D
100
AcDbEntity
  8
0
 62
   254
100
AcDbPolyline
 90
        2
 70
     0
 39
0.003
 10
1.529354
 20
1.278165
 40
0.003
 41
0.003
 10
1.527039
 20
1.241732
 40
0.003
 41
0.003
  0
LWPOLYLINE
  5
25E
100
AcDbEntity
  8
0
 62
     0
100
AcDbPolyline
 90
        2
 70
     0
 39
0.003
 10
0.846154
 20
0.813874
 40
0.003
 41
0.003
 10
1.490827
 20
0.432
 40
0.003
 41
0.003
  0
LWPOLYLINE
  5
25F
100
AcDbEntity
  8
0
 62
     0
100
AcDbPolyline
 90
        2
 70
     0
 39
0.003
 10
1.490827
 20
0.432
 40
0.003
 41
0.003
 10
1.513421
 20
0.433669
 40
0.003
 41
0.003
  0
LWPOLYLINE
  5
260
100
AcDbEntity
  8
0
 62
     0
100
AcDbPolyline
 90
        2
 70
     0
 39
0.003
 10
1.513421
 20
0.433669
 40
0.003
 41
0.003
 10
1.537087
 20
0.435587
 40
0.003
 41
0.003
  0
LWPOLYLINE
  5
261
100
AcDbEntity
  8
0
 62
     0
100
AcDbPolyline
 90
        2
 70
     0
 39
0.003
 10
1.537087
 20
0.435587
 40
0.003
 41
0.003
 10
1.561701
 20
0.437803
 40
0.003
 41
0.003
  0
LWPOLYLINE
  5
262
100
AcDbEntity
  8
0
 62
     0
100
AcDbPolyline
 90
        2
 70
     0
 39
0.003
 10
1.561701
 20
0.437803
 40
0.003
 41
0.003
 10
1.587161
 20
0.440386
 40
0.003
 41
0.003
  0
LWPOLYLINE
  5
263
100
AcDbEntity
  8
0
 62
     0
100
AcDbPolyline
 90
        2
 70
     0
 39
0.003
 10
1.587161
 20
0.440386
 40
0.003
 41
0.003
 10
1.613335
 20
0.443378
 40
0.003
 41
0.003
  0
LWPOLYLINE
  5
264
100
AcDbEntity
  8
0
 62
     0
100
AcDbPolyline
 90
        2
 70
     0
 39
0.003
 10
1.613335
 20
0.443378
 40
0.003
 41
0.003
 10
1.640126
 20
0.44685
 40
0.003
 41
0.003
  0
LWPOLYLINE
  5
265
100
AcDbEntity
  8
0
 62
     0
100
AcDbPolyline
 90
        2
 70
     0
 39
0.003
 10
1.640126
 20
0.44685
 40
0.003
 41
0.003
 10
1.667402
 20
0.450854
 40
0.003
 41
0.003
  0
LWPOLYLINE
  5
266
100
AcDbEntity
  8
0
 62
     0
100
AcDbPolyline
 90
        2
 70
     0
 39
0.003
 10
1.667402
 20
0.450854
 40
0.003
 41
0.003
 10
1.695067
 20
0.455461
 40
0.003
 41
0.003
  0
LWPOLYLINE
  5
267
100
AcDbEntity
  8
0
 62
     0
100
AcDbPolyline
 90
        2
 70
     0
 39
0.003
 10
1.695067
 20
0.455461
 40
0.003
 41
0.003
 10
1.722984
 20
0.460709
 40
0.003
 41
0.003
  0
LWPOLYLINE
  5
268
100
AcDbEntity
  8
0
 62
     0
100
AcDbPolyline
 90
        2
 70
     0
 39
0.003
 10
1.722984
 20
0.460709
 40
0.003
 41
0.003
 10
1.751055
 20
0.466673
 40
0.003
 41
0.003
  0
LWPOLYLINE
  5
269
100
AcDbEntity
  8
0
 62
     0
100
AcDbPolyline
 90
        2
 70
     0
 39
0.003
 10
1.751055
 20
0.466673
 40
0.003
 41
0.003
 10
1.779161
 20
0.473402
 40
0.003
 41
0.003
  0
LWPOLYLINE
  5
26A
100
AcDbEntity
  8
0
 62
     0
100
AcDbPolyline
 90
        2
 70
     0
 39
0.003
 10
1.779161
 20
0.473402
 40
0.003
 41
0.003
 10
1.807189
 20
0.480965
 40
0.003
 41
0.003
  0
LWPOLYLINE
  5
26B
100
AcDbEntity
  8
0
 62
     0
100
AcDbPolyline
 90
        2
 70
     0
 39
0.003
 10
1.807189
 20
0.480965
 40
0.003
 41
0.003
 10
1.835012
 20
0.489409
 40
0.003
 41
0.003
  0
LWPOLYLINE
  5
26C
100
AcDbEntity
  8
0
 62
     0
100
AcDbPolyline
 90
        2
 70
     0
 39
0.003
 10
1.835012
 20
0.489409
 40
0.003
 41
0.003
 10
1.862535
 20
0.498803
 40
0.003
 41
0.003
  0
LWPOLYLINE
  5
26D
100
AcDbEntity
  8
0
 62
     0
100
AcDbPolyline
 90
        2
 70
     0
 39
0.003
 10
1.862535
 20
0.498803
 40
0.003
 41
0.003
 10
1.889634
 20
0.509197
 40
0.003
 41
0.003
  0
LWPOLYLINE
  5
26E
100
AcDbEntity
  8
0
 62
     0
100
AcDbPolyline
 90
        2
 70
     0
 39
0.003
 10
1.889634
 20
0.509197
 40
0.003
 41
0.003
 10
1.916193
 20
0.520661
 40
0.003
 41
0.003
  0
LWPOLYLINE
  5
26F
100
AcDbEntity
  8
0
 62
     0
100
AcDbPolyline
 90
        2
 70
     0
 39
0.003
 10
1.916193
 20
0.520661
 40
0.003
 41
0.003
 10
1.942087
 20
0.533236
 40
0.003
 41
0.003
  0
LWPOLYLINE
  5
270
100
AcDbEntity
  8
0
 62
     0
100
AcDbPolyline
 90
        2
 70
     0
 39
0.003
 10
1.942087
 20
0.533236
 40
0.003
 41
0.003
 10
1.96722
 20
0.546996
 40
0.003
 41
0.003
  0
LWPOLYLINE
  5
271
100
AcDbEntity
  8
0
 62
     0
100
AcDbPolyline
 90
        2
 70
     0
 39
0.003
 10
1.96722
 20
0.546996
 40
0.003
 41
0.003
 10
1.991465
 20
0.561992
 40
0.003
 41
0.003
  0
LWPOLYLINE
  5
272
100
AcDbEntity
  8
0
 62
     0
100
AcDbPolyline
 90
        2
 70
     0
 39
0.003
 10
1.991465
 20
0.561992
 40
0.003
 41
0.003
 10
2.014717
 20
0.578287
 40
0.003
 41
0.003
  0
LWPOLYLINE
  5
273
100
AcDbEntity
  8
0
 62
     0
100
AcDbPolyline
 90
        2
 70
     0
 39
0.003
 10
2.014717
 20
0.578287
 40
0.003
 41
0.003
 10
2.03685
 20
0.595933
 40
0.003
 41
0.003
  0
LWPOLYLINE
  5
274
100
AcDbEntity
  8
0
 62
     0
100
AcDbPolyline
 90
        2
 70
     0
 39
0.003
 10
2.03685
 20
0.595933
 40
0.003
 41
0.003
 10
2.05776
 20
0.614996
 40
0.003
 41
0.003
  0
LWPOLYLINE
  5
275
100
AcDbEntity
  8
0
 62
     0
100
AcDbPolyline
 90
        2
 70
     0
 39
0.003
 10
2.05776
 20
0.614996
 40
0.003
 41
0.003
 10
2.077323
 20
0.635531
 40
0.003
 41
0.003
  0
LWPOLYLINE
  5
276
100
AcDbEntity
  8
0
 62
     0
100
AcDbPolyline
 90
        2
 70
     0
 39
0.003
 10
2.077323
 20
0.635531
 40
0.003
 41
0.003
 10
2.095433
 20
0.657602
 40
0.003
 41
0.003
  0
LWPOLYLINE
  5
277
100
AcDbEntity
  8
0
 62
     0
100
AcDbPolyline
 90
        2
 70
     0
 39
0.003
 10
2.095433
 20
0.657602
 40
0.003
 41
0.003
 10
2.111961
 20
0.681252
 40
0.003
 41
0.003
  0
LWPOLYLINE
  5
278
100
AcDbEntity
  8
0
 62
     0
100
AcDbPolyline
 90
        2
 70
     0
 39
0.003
 10
2.111961
 20
0.681252
 40
0.003
 41
0.003
 10
2.126807
 20
0.706559
 40
0.003
 41
0.003
  0
LWPOLYLINE
  5
279
100
AcDbEntity
  8
0
 62
     0
100
AcDbPolyline
 90
        2
 70
     0
 39
0.003
 10
2.126807
 20
0.706559
 40
0.003
 41
0.003
 10
2.13985
 20
0.733571
 40
0.003
 41
0.003
  0
LWPOLYLINE
  5
27A
100
AcDbEntity
  8
0
 62
     0
100
AcDbPolyline
 90
        2
 70
     0
 39
0.003
 10
2.13985
 20
0.733571
 40
0.003
 41
0.003
 10
2.15098
 20
0.76235
 40
0.003
 41
0.003
  0
LWPOLYLINE
  5
27B
100
AcDbEntity
  8
0
 62
     0
100
AcDbPolyline
 90
        2
 70
     0
 39
0.003
 10
2.15098
 20
0.76235
 40
0.003
 41
0.003
 10
2.160071
 20
0.792949
 40
0.003
 41
0.003
  0
LWPOLYLINE
  5
27C
100
AcDbEntity
  8
0
 62
     0
100
AcDbPolyline
 90
        2
 70
     0
 39
0.003
 10
2.160071
 20
0.792949
 40
0.003
 41
0.003
 10
2.167024
 20
0.825433
 40
0.003
 41
0.003
  0
LWPOLYLINE
  5
27D
100
AcDbEntity
  8
0
 62
     0
100
AcDbPolyline
 90
        2
 70
     0
 39
0.003
 10
2.167024
 20
0.825433
 40
0.003
 41
0.003
 10
2.171713
 20
0.859858
 40
0.003
 41
0.003
  0
LWPOLYLINE
  5
27E
100
AcDbEntity
  8
0
 62
     0
100
AcDbPolyline
 90
        2
 70
     0
 39
0.003
 10
2.171713
 20
0.859858
 40
0.003
 41
0.003
 10
2.174028
 20
0.896291
 40
0.003
 41
0.003
  0
LWPOLYLINE
  5
27F
100
AcDbEntity
  8
0
 62
     0
100
AcDbPolyline
 90
        2
 70
     0
 39
0.003
 10
2.174028
 20
0.896291
 40
0.003
 41
0.003
 10
1.529354
 20
1.278165
 40
0.003
 41
0.003
  0
LWPOLYLINE
  5
280
100
AcDbEntity
  8
0
 62
     0
100
AcDbPolyline
 90
        2
 70
     0
 39
0.003
 10
1.529354
 20
1.278165
 40
0.003
 41
0.003
 10
1.527039
 20
1.241732
 40
0.003
 41
0.003
  0
LWPOLYLINE
  5
281
100
AcDbEntity
  8
0
 62
     0
100
AcDbPolyline
 90
        2
 70
     0
 39
0.003
 10
1.527039
 20
1.241732
 40
0.003
 41
0.003
 10
1.52235
 20
1.207307
 40
0.003
 41
0.003
  0
LWPOLYLINE
  5
282
100
AcDbEntity
  8
0
 62
     0
100
AcDbPolyline
 90
        2
 70
     0
 39
0.003
 10
1.52235
 20
1.207307
 40
0.003
 41
0.003
 10
1.515398
 20
1.174823
 40
0.003
 41
0.003
  0
LWPOLYLINE
  5
283
100
AcDbEntity
  8
0
 62
     0
100
AcDbPolyline
 90
        2
 70
     0
 39
0.003
 10
1.515398
 20
1.174823
 40
0.003
 41
0.003
 10
1.506307
 20
1.144224
 40
0.003
 41
0.003
  0
LWPOLYLINE
  5
284
100
AcDbEntity
  8
0
 62
     0
100
AcDbPolyline
 90
        2
 70
     0
 39
0.003
 10
1.506307
 20
1.144224
 40
0.003
 41
0.003
 10
1.495177
 20
1.115445
 40
0.003
 41
0.003
  0
LWPOLYLINE
  5
285
100
AcDbEntity
  8
0
 62
     0
100
AcDbPolyline
 90
        2
 70
     0
 39
0.003
 10
1.495177
 20
1.115445
 40
0.003
 41
0.003
 10
1.482134
 20
1.088433
 40
0.003
 41
0.003
  0
LWPOLYLINE
  5
286
100
AcDbEntity
  8
0
 62
     0
100
AcDbPolyline
 90
        2
 70
     0
 39
0.003
 10
1.482134
 20
1.088433
 40
0.003
 41
0.003
 10
1.467287
 20
1.063126
 40
0.003
 41
0.003
  0
LWPOLYLINE
  5
287
100
AcDbEntity
  8
0
 62
     0
100
AcDbPolyline
 90
        2
 70
     0
 39
0.003
 10
1.467287
 20
1.063126
 40
0.003
 41
0.003
 10
1.45076
 20
1.039476
 40
0.003
 41
0.003
  0
LWPOLYLINE
  5
288
100
AcDbEntity
  8
0
 62
     0
100
AcDbPolyline
 90
        2
 70
     0
 39
0.003
 10
1.45076
 20
1.039476
 40
0.003
 41
0.003
 10
1.43265
 20
1.017406
 40
0.003
 41
0.003
  0
LWPOLYLINE
  5
289
100
AcDbEntity
  8
0
 62
     0
100
AcDbPolyline
 90
        2
 70
     0
 39
0.003
 10
1.43265
 20
1.017406
 40
0.003
 41
0.003
 10
1.413087
 20
0.99687
 40
0.003
 41
0.003
  0
LWPOLYLINE
  5
28A
100
AcDbEntity
  8
0
 62
     0
100
AcDbPolyline
 90
        2
 70
     0
 39
0.003
 10
1.413087
 20
0.99687
 40
0.003
 41
0.003
 10
1.392177
 20
0.977807
 40
0.003
 41
0.003
  0
LWPOLYLINE
  5
28B
100
AcDbEntity
  8
0
 62
     0
100
AcDbPolyline
 90
        2
 70
     0
 39
0.003
 10
1.392177
 20
0.977807
 40
0.003
 41
0.003
 10
1.370043
 20
0.960161
 40
0.003
 41
0.003
  0
LWPOLYLINE
  5
28C
100
AcDbEntity
  8
0
 62
     0
100
AcDbPolyline
 90
        2
 70
     0
 39
0.003
 10
1.370043
 20
0.960161
 40
0.003
 41
0.003
 10
1.346791
 20
0.943866
 40
0.003
 41
0.003
  0
LWPOLYLINE
  5
28D
100
AcDbEntity
  8
0
 62
     0
100
AcDbPolyline
 90
        2
 70
     0
 39
0.003
 10
1.346791
 20
0.943866
 40
0.003
 41
0.003
 10
1.322547
 20
0.92887
 40
0.003
 41
0.003
  0
LWPOLYLINE
  5
28E
100
AcDbEntity
  8
0
 62
     0
100
AcDbPolyline
 90
        2
 70
     0
 39
0.003
 10
1.322547
 20
0.92887
 40
0.003
 41
0.003
 10
1.297413
 20
0.91511
 40
0.003
 41
0.003
  0
LWPOLYLINE
  5
28F
100
AcDbEntity
  8
0
 62
     0
100
AcDbPolyline
 90
        2
 70
     0
 39
0.003
 10
1.297413
 20
0.91511
 40
0.003
 41
0.003
 10
1.27152
 20
0.902535
 40
0.003
 41
0.003
  0
LWPOLYLINE
  5
290
100
AcDbEntity
  8
0
 62
     0
100
AcDbPolyline
 90
        2
 70
     0
 39
0.003
 10
1.27152
 20
0.902535
 40
0.003
 41
0.003
 10
1.244961
 20
0.891071
 40
0.003
 41
0.003
  0
LWPOLYLINE
  5
291
100
AcDbEntity
  8
0
 62
     0
100
AcDbPolyline
 90
        2
 70
     0
 39
0.003
 10
1.244961
 20
0.891071
 40
0.003
 41
0.003
 10
1.217862
 20
0.880677
 40
0.003
 41
0.003
  0
LWPOLYLINE
  5
292
100
AcDbEntity
  8
0
 62
     0
100
AcDbPolyline
 90
        2
 70
     0
 39
0.003
 10
1.217862
 20
0.880677
 40
0.003
 41
0.003
 10
1.190339
 20
0.871283
 40
0.003
 41
0.003
  0
LWPOLYLINE
  5
293
100
AcDbEntity
  8
0
 62
     0
100
AcDbPolyline
 90
        2
 70
     0
 39
0.003
 10
1.190339
 20
0.871283
 40
0.003
 41
0.003
 10
1.162516
 20
0.862839
 40
0.003
 41
0.003
  0
LWPOLYLINE
  5
294
100
AcDbEntity
  8
0
 62
     0
100
AcDbPolyline
 90
        2
 70
     0
 39
0.003
 10
1.162516
 20
0.862839
 40
0.003
 41
0.003
 10
1.134488
 20
0.855276
 40
0.003
 41
0.003
  0
LWPOLYLINE
  5
295
100
AcDbEntity
  8
0
 62
     0
100
AcDbPolyline
 90
        2
 70
     0
 39
0.003
 10
1.134488
 20
0.855276
 40
0.003
 41
0.003
 10
1.106382
 20
0.848547
 40
0.003
 41
0.003
  0
LWPOLYLINE
  5
296
100
AcDbEntity
  8
0
 62
     0
100
AcDbPolyline
 90
        2
 70
     0
 39
0.003
 10
1.106382
 20
0.848547
 40
0.003
 41
0.003
 10
1.078311
 20
0.842583
 40
0.003
 41
0.003
  0
LWPOLYLINE
  5
297
100
AcDbEntity
  8
0
 62
     0
100
AcDbPolyline
 90
        2
 70
     0
 39
0.003
 10
1.078311
 20
0.842583
 40
0.003
 41
0.003
 10
1.050394
 20
0.837335
 40
0.003
 41
0.003
  0
LWPOLYLINE
  5
298
100
AcDbEntity
  8
0
 62
     0
100
AcDbPolyline
 90
        2
 70
     0
 39
0.003
 10
1.050394
 20
0.837335
 40
0.003
 41
0.003
 10
1.022728
 20
0.832728
 40
0.003
 41
0.003
  0
LWPOLYLINE
  5
299
100
AcDbEntity
  8
0
 62
     0
100
AcDbPolyline
 90
        2
 70
     0
 39
0.003
 10
1.022728
 20
0.832728
 40
0.003
 41
0.003
 10
0.995453
 20
0.828724
 40
0.003
 41
0.003
  0
LWPOLYLINE
  5
29A
100
AcDbEntity
  8
0
 62
     0
100
AcDbPolyline
 90
        2
 70
     0
 39
0.003
 10
0.995453
 20
0.828724
 40
0.003
 41
0.003
 10
0.968661
 20
0.825252
 40
0.003
 41
0.003
  0
LWPOLYLINE
  5
29B
100
AcDbEntity
  8
0
 62
     0
100
AcDbPolyline
 90
        2
 70
     0
 39
0.003
 10
0.968661
 20
0.825252
 40
0.003
 41
0.003
 10
0.942488
 20
0.82226
 40
0.003
 41
0.003
  0
LWPOLYLINE
  5
29C
100
AcDbEntity
  8
0
 62
     0
100
AcDbPolyline
 90
        2
 70
     0
 39
0.003
 10
0.942488
 20
0.82226
 40
0.003
 41
0.003
 10
0.917028
 20
0.819677
 40
0.003
 41
0.003
  0
LWPOLYLINE
  5
29D
100
AcDbEntity
  8
0
 62
     0
100
AcDbPolyline
 90
        2
 70
     0
 39
0.003
 10
0.917028
 20
0.819677
 40
0.003
 41
0.003
 10
0.892413
 20
0.817461
 40
0.003
 41
0.003
  0
LWPOLYLINE
  5
29E
100
AcDbEntity
  8
0
 62
     0
100
AcDbPolyline
 90
        2
 70
     0
 39
0.003
 10
0.892413
 20
0.817461
 40
0.003
 41
0.003
 10
0.868748
 20
0.815543
 40
0.003
 41
0.003
  0
LWPOLYLINE
  5
29F
100
AcDbEntity
  8
0
 62
     0
100
AcDbPolyline
 90
        2
 70
     0
 39
0.003
 10
0.868748
 20
0.815543
 40
0.003
 41
0.003
 10
0.846154
 20
0.813874
 40
0.003
 41
0.003
  0
LWPOLYLINE
  5
2A0
100
AcDbEntity
  8
0
 62
   254
100
AcDbPolyline
 90
        2
 70
     0
 39
0.003
 10
1.529354
 20
1.278165
 40
0.003
 41
0.003
 10
2.174028
 20
0.896291
 40
0.003
 41
0.003
  0
LWPOLYLINE
  5
2A1
100
AcDbEntity
  8
0
 62
   254
100
AcDbPolyline
 90
        2
 70
     0
 39
0.003
 10
2.174028
 20
0.896291
 40
0.003
 41
0.003
 10
2.528087
 20
0.95515
 40
0.003
 41
0.003
  0
LWPOLYLINE
  5
2A2
100
AcDbEntity
  8
0
 62
   254
100
AcDbPolyline
 90
        2
 70
     0
 39
0.003
 10
2.528087
 20
0.95515
 40
0.003
 41
0.003
 10
1.883413
 20
1.337024
 40
0.003
 41
0.003
  0
LWPOLYLINE
  5
2A3
100
AcDbEntity
  8
0
 62
   254
100
AcDbPolyline
 90
        2
 70
     0
 39
0.003
 10
1.883413
 20
1.337024
 40
0.003
 41
0.003
 10
1.529354
 20
1.278165
 40
0.003
 41
0.003
  0
LWPOLYLINE
  5
2A4
100
AcDbEntity
  8
0
 62
     0
100
AcDbPolyline
 90
        2
 70
     0
 39
0.003
 10
1.529354
 20
1.278165
 40
0.003
 41
0.003
 10
2.174028
 20
0.896291
 40
0.003
 41
0.003
  0
LWPOLYLINE
  5
2A5
100
AcDbEntity
  8
0
 62
     0
100
AcDbPolyline
 90
        2
 70
     0
 39
0.003
 10
2.174028
 20
0.896291
 40
0.003
 41
0.003
 10
2.528087
 20
0.95515
 40
0.003
 41
0.003
  0
LWPOLYLINE
  5
2A6
100
AcDbEntity
  8
0
 62
     0
100
AcDbPolyline
 90
        2
 70
     0
 39
0.003
 10
2.528087
 20
0.95515
 40
0.003
 41
0.003
 10
1.883413
 20
1.337024
 40
0.003
 41
0.003
  0
LWPOLYLINE
  5
2A7
100
AcDbEntity
  8
0
 62
     0
100
AcDbPolyline
 90
        2
 70
     0
 39
0.003
 10
1.883413
 20
1.337024
 40
0.003
 41
0.003
 10
1.529354
 20
1.278165
 40
0.003
 41
0.003
  0
LWPOLYLINE
  5
2A8
100
AcDbEntity
  8
0
 62
   254
100
AcDbPolyline
 90
        2
 70
     0
 39
0.003
 10
1.883413
 20
1.337024
 40
0.003
 41
0.003
 10
2.528087
 20
0.95515
 40
0.003
 41
0.003
  0
LWPOLYLINE
  5
2A9
100
AcDbEntity
  8
0
 62
   254
100
AcDbPolyline
 90
        2
 70
     0
 39
0.003
 10
2.528087
 20
0.95515
 40
0.003
 41
0.003
 10
2.528984
 20
1.342409
 40
0.003
 41
0.003
  0
LWPOLYLINE
  5
2AA
100
AcDbEntity
  8
0
 62
   254
100
AcDbPolyline
 90
        2
 70
     0
 39
0.003
 10
2.528984
 20
1.342409
 40
0.003
 41
0.003
 10
1.884311
 20
1.724283
 40
0.003
 41
0.003
  0
LWPOLYLINE
  5
2AB
100
AcDbEntity
  8
0
 62
   254
100
AcDbPolyline
 90
        2
 70
     0
 39
0.003
 10
1.884311
 20
1.724283
 40
0.003
 41
0.003
 10
1.883413
 20
1.337024
 40
0.003
 41
0.003
  0
LWPOLYLINE
  5
2AC
100
AcDbEntity
  8
0
 62
     0
100
AcDbPolyline
 90
        2
 70
     0
 39
0.003
 10
1.883413
 20
1.337024
 40
0.003
 41
0.003
 10
2.528087
 20
0.95515
 40
0.003
 41
0.003
  0
LWPOLYLINE
  5
2AD
100
AcDbEntity
  8
0
 62
     0
100
AcDbPolyline
 90
        2
 70
     0
 39
0.003
 10
2.528087
 20
0.95515
 40
0.003
 41
0.003
 10
2.528984
 20
1.342409
 40
0.003
 41
0.003
  0
LWPOLYLINE
  5
2AE
100
AcDbEntity
  8
0
 62
     0
100
AcDbPolyline
 90
        2
 70
     0
 39
0.003
 10
2.528984
 20
1.342409
 40
0.003
 41
0.003
 10
1.884311
 20
1.724283
 40
0.003
 41
0.003
  0
LWPOLYLINE
  5
2AF
100
AcDbEntity
  8
0
 62
     0
100
AcDbPolyline
 90
        2
 70
     0
 39
0.003
 10
1.884311
 20
1.724283
 40
0.003
 41
0.003
 10
1.883413
 20
1.337024
 40
0.003
 41
0.003
  0
LWPOLYLINE
  5
2B0
100
AcDbEntity
  8
0
 62
   254
100
AcDbPolyline
 90
        2
 70
     0
 39
0.003
 10
-2.138067
 20
-0.863449
 40
0.003
 41
0.003
 10
-1.493394
 20
-1.245323
 40
0.003
 41
0.003
  0
LWPOLYLINE
  5
2B1
100
AcDbEntity
  8
0
 62
   254
100
AcDbPolyline
 90
        2
 70
     0
 39
0.003
 10
-1.493394
 20
-1.245323
 40
0.003
 41
0.003
 10
-0.991866
 20
-1.24315
 40
0.003
 41
0.003
  0
LWPOLYLINE
  5
2B2
100
AcDbEntity
  8
0
 62
   254
100
AcDbPolyline
 90
        2
 70
     0
 39
0.003
 10
-0.991866
 20
-1.24315
 40
0.003
 41
0.003
 10
-1.636539
 20
-0.861276
 40
0.003
 41
0.003
  0
LWPOLYLINE
  5
2B3
100
AcDbEntity
  8
0
 62
   254
100
AcDbPolyline
 90
        2
 70
     0
 39
0.003
 10
-1.636539
 20
-0.861276
 40
0.003
 41
0.003
 10
-2.138067
 20
-0.863449
 40
0.003
 41
0.003
  0
LWPOLYLINE
  5
2B4
100
AcDbEntity
  8
0
 62
     0
100
AcDbPolyline
 90
        2
 70
     0
 39
0.003
 10
-2.138067
 20
-0.863449
 40
0.003
 41
0.003
 10
-1.493394
 20
-1.245323
 40
0.003
 41
0.003
  0
LWPOLYLINE
  5
2B5
100
AcDbEntity
  8
0
 62
     0
100
AcDbPolyline
 90
        2
 70
     0
 39
0.003
 10
-1.493394
 20
-1.245323
 40
0.003
 41
0.003
 10
-0.991866
 20
-1.24315
 40
0.003
 41
0.003
  0
LWPOLYLINE
  5
2B6
100
AcDbEntity
  8
0
 62
     0
100
AcDbPolyline
 90
        2
 70
     0
 39
0.003
 10
-0.991866
 20
-1.24315
 40
0.003
 41
0.003
 10
-1.636539
 20
-0.861276
 40
0.003
 41
0.003
  0
LWPOLYLINE
  5
2B7
100
AcDbEntity
  8
0
 62
     0
100
AcDbPolyline
 90
        2
 70
     0
 39
0.003
 10
-1.636539
 20
-0.861276
 40
0.003
 41
0.003
 10
-2.138067
 20
-0.863449
 40
0.003
 41
0.003
  0
LWPOLYLINE
  5
2B8
100
AcDbEntity
  8
0
 62
   254
100
AcDbPolyline
 90
        2
 70
     0
 39
0.003
 10
-1.636539
 20
-0.861276
 40
0.003
 41
0.003
 10
-0.991866
 20
-1.24315
 40
0.003
 41
0.003
  0
LWPOLYLINE
  5
2B9
100
AcDbEntity
  8
0
 62
   254
100
AcDbPolyline
 90
        2
 70
     0
 39
0.003
 10
-0.991866
 20
-1.24315
 40
0.003
 41
0.003
 10
-0.933315
 20
-1.020417
 40
0.003
 41
0.003
  0
LWPOLYLINE
  5
2BA
100
AcDbEntity
  8
0
 62
   254
100
AcDbPolyline
 90
        2
 70
     0
 39
0.003
 10
-0.933315
 20
-1.020417
 40
0.003
 41
0.003
 10
-1.577988
 20
-0.638543
 40
0.003
 41
0.003
  0
LWPOLYLINE
  5
2BB
100
AcDbEntity
  8
0
 62
   254
100
AcDbPolyline
 90
        2
 70
     0
 39
0.003
 10
-1.577988
 20
-0.638543
 40
0.003
 41
0.003
 10
-1.636539
 20
-0.861276
 40
0.003
 41
0.003
  0
LWPOLYLINE
  5
2BC
100
AcDbEntity
  8
0
 62
     0
100
AcDbPolyline
 90
        2
 70
     0
 39
0.003
 10
-1.636539
 20
-0.861276
 40
0.003
 41
0.003
 10
-0.991866
 20
-1.24315
 40
0.003
 41
0.003
  0
LWPOLYLINE
  5
2BD
100
AcDbEntity
  8
0
 62
     0
100
AcDbPolyline
 90
        2
 70
     0
 39
0.003
 10
-0.991866
 20
-1.24315
 40
0.003
 41
0.003
 10
-0.933315
 20
-1.020417
 40
0.003
 41
0.003
  0
LWPOLYLINE
  5
2BE
100
AcDbEntity
  8
0
 62
     0
100
AcDbPolyline
 90
        2
 70
     0
 39
0.003
 10
-0.933315
 20
-1.020417
 40
0.003
 41
0.003
 10
-1.577988
 20
-0.638543
 40
0.003
 41
0.003
  0
LWPOLYLINE
  5
2BF
100
AcDbEntity
  8
0
 62
     0
100
AcDbPolyline
 90
        2
 70
     0
 39
0.003
 10
-1.577988
 20
-0.638543
 40
0.003
 41
0.003
 10
-1.636539
 20
-0.861276
 40
0.003
 41
0.003
  0
LWPOLYLINE
  5
2C0
100
AcDbEntity
  8
0
 62
   254
100
AcDbPolyline
 90
        2
 70
     0
 39
0.003
 10
-1.577988
 20
-0.638543
 40
0.003
 41
0.003
 10
-0.933315
 20
-1.020417
 40
0.003
 41
0.003
  0
LWPOLYLINE
  5
2C1
100
AcDbEntity
  8
0
 62
   254
100
AcDbPolyline
 90
        2
 70
     0
 39
0.003
 10
-0.933315
 20
-1.020417
 40
0.003
 41
0.003
 10
-0.883512
 20
-1.018406
 40
0.003
 41
0.003
  0
LWPOLYLINE
  5
2C2
100
AcDbEntity
  8
0
 62
   254
100
AcDbPolyline
 90
        2
 70
     0
 39
0.003
 10
-0.883512
 20
-1.018406
 40
0.003
 41
0.003
 10
-1.528185
 20
-0.636531
 40
0.003
 41
0.003
  0
LWPOLYLINE
  5
2C3
100
AcDbEntity
  8
0
 62
   254
100
AcDbPolyline
 90
        2
 70
     0
 39
0.003
 10
-1.528185
 20
-0.636531
 40
0.003
 41
0.003
 10
-1.577988
 20
-0.638543
 40
0.003
 41
0.003
  0
LWPOLYLINE
  5
2C4
100
AcDbEntity
  8
0
 62
   254
100
AcDbPolyline
 90
        2
 70
     0
 39
0.003
 10
-1.528185
 20
-0.636531
 40
0.003
 41
0.003
 10
-0.883512
 20
-1.018406
 40
0.003
 41
0.003
  0
LWPOLYLINE
  5
2C5
100
AcDbEntity
  8
0
 62
   254
100
AcDbPolyline
 90
        2
 70
     0
 39
0.003
 10
-0.883512
 20
-1.018406
 40
0.003
 41
0.003
 10
-0.835551
 20
-1.014516
 40
0.003
 41
0.003
  0
LWPOLYLINE
  5
2C6
100
AcDbEntity
  8
0
 62
   254
100
AcDbPolyline
 90
        2
 70
     0
 39
0.003
 10
-0.835551
 20
-1.014516
 40
0.003
 41
0.003
 10
-1.480224
 20
-0.632642
 40
0.003
 41
0.003
  0
LWPOLYLINE
  5
2C7
100
AcDbEntity
  8
0
 62
   254
100
AcDbPolyline
 90
        2
 70
     0
 39
0.003
 10
-1.480224
 20
-0.632642
 40
0.003
 41
0.003
 10
-1.528185
 20
-0.636531
 40
0.003
 41
0.003
  0
LWPOLYLINE
  5
2C8
100
AcDbEntity
  8
0
 62
   254
100
AcDbPolyline
 90
        2
 70
     0
 39
0.003
 10
-1.480224
 20
-0.632642
 40
0.003
 41
0.003
 10
-0.835551
 20
-1.014516
 40
0.003
 41
0.003
  0
LWPOLYLINE
  5
2C9
100
AcDbEntity
  8
0
 62
   254
100
AcDbPolyline
 90
        2
 70
     0
 39
0.003
 10
-0.835551
 20
-1.014516
 40
0.003
 41
0.003
 10
-0.789378
 20
-1.008835
 40
0.003
 41
0.003
  0
LWPOLYLINE
  5
2CA
100
AcDbEntity
  8
0
 62
   254
100
AcDbPolyline
 90
        2
 70
     0
 39
0.003
 10
-0.789378
 20
-1.008835
 40
0.003
 41
0.003
 10
-1.434051
 20
-0.626961
 40
0.003
 41
0.003
  0
LWPOLYLINE
  5
2CB
100
AcDbEntity
  8
0
 62
   254
100
AcDbPolyline
 90
        2
 70
     0
 39
0.003
 10
-1.434051
 20
-0.626961
 40
0.003
 41
0.003
 10
-1.480224
 20
-0.632642
 40
0.003
 41
0.003
  0
LWPOLYLINE
  5
2CC
100
AcDbEntity
  8
0
 62
   254
100
AcDbPolyline
 90
        2
 70
     0
 39
0.003
 10
-1.434051
 20
-0.626961
 40
0.003
 41
0.003
 10
-0.789378
 20
-1.008835
 40
0.003
 41
0.003
  0
LWPOLYLINE
  5
2CD
100
AcDbEntity
  8
0
 62
   254
100
AcDbPolyline
 90
        2
 70
     0
 39
0.003
 10
-0.789378
 20
-1.008835
 40
0.003
 41
0.003
 10
-0.744949
 20
-1.001465
 40
0.003
 41
0.003
  0
LWPOLYLINE
  5
2CE
100
AcDbEntity
  8
0
 62
   254
100
AcDbPolyline
 90
        2
 70
     0
 39
0.003
 10
-0.744949
 20
-1.001465
 40
0.003
 41
0.003
 10
-1.389622
 20
-0.619591
 40
0.003
 41
0.003
  0
LWPOLYLINE
  5
2CF
100
AcDbEntity
  8
0
 62
   254
100
AcDbPolyline
 90
        2
 70
     0
 39
0.003
 10
-1.389622
 20
-0.619591
 40
0.003
 41
0.003
 10
-1.434051
 20
-0.626961
 40
0.003
 41
0.003
  0
LWPOLYLINE
  5
2D0
100
AcDbEntity
  8
0
 62
   254
100
AcDbPolyline
 90
        2
 70
     0
 39
0.003
 10
-1.389622
 20
-0.619591
 40
0.003
 41
0.003
 10
-0.744949
 20
-1.001465
 40
0.003
 41
0.003
  0
LWPOLYLINE
  5
2D1
100
AcDbEntity
  8
0
 62
   254
100
AcDbPolyline
 90
        2
 70
     0
 39
0.003
 10
-0.744949
 20
-1.001465
 40
0.003
 41
0.003
 10
-0.702189
 20
-0.992492
 40
0.003
 41
0.003
  0
LWPOLYLINE
  5
2D2
100
AcDbEntity
  8
0
 62
   254
100
AcDbPolyline
 90
        2
 70
     0
 39
0.003
 10
-0.702189
 20
-0.992492
 40
0.003
 41
0.003
 10
-1.346862
 20
-0.610618
 40
0.003
 41
0.003
  0
LWPOLYLINE
  5
2D3
100
AcDbEntity
  8
0
 62
   254
100
AcDbPolyline
 90
        2
 70
     0
 39
0.003
 10
-1.346862
 20
-0.610618
 40
0.003
 41
0.003
 10
-1.389622
 20
-0.619591
 40
0.003
 41
0.003
  0
LWPOLYLINE
  5
2D4
100
AcDbEntity
  8
0
 62
   254
100
AcDbPolyline
 90
        2
 70
     0
 39
0.003
 10
-1.346862
 20
-0.610618
 40
0.003
 41
0.003
 10
-0.702189
 20
-0.992492
 40
0.003
 41
0.003
  0
LWPOLYLINE
  5
2D5
100
AcDbEntity
  8
0
 62
   254
100
AcDbPolyline
 90
        2
 70
     0
 39
0.003
 10
-0.702189
 20
-0.992492
 40
0.003
 41
0.003
 10
-0.661063
 20
-0.98202
 40
0.003
 41
0.003
  0
LWPOLYLINE
  5
2D6
100
AcDbEntity
  8
0
 62
   254
100
AcDbPolyline
 90
        2
 70
     0
 39
0.003
 10
-0.661063
 20
-0.98202
 40
0.003
 41
0.003
 10
-1.305736
 20
-0.600146
 40
0.003
 41
0.003
  0
LWPOLYLINE
  5
2D7
100
AcDbEntity
  8
0
 62
   254
100
AcDbPolyline
 90
        2
 70
     0
 39
0.003
 10
-1.305736
 20
-0.600146
 40
0.003
 41
0.003
 10
-1.346862
 20
-0.610618
 40
0.003
 41
0.003
  0
LWPOLYLINE
  5
2D8
100
AcDbEntity
  8
0
 62
   254
100
AcDbPolyline
 90
        2
 70
     0
 39
0.003
 10
-1.305736
 20
-0.600146
 40
0.003
 41
0.003
 10
-0.661063
 20
-0.98202
 40
0.003
 41
0.003
  0
LWPOLYLINE
  5
2D9
100
AcDbEntity
  8
0
 62
   254
100
AcDbPolyline
 90
        2
 70
     0
 39
0.003
 10
-0.661063
 20
-0.98202
 40
0.003
 41
0.003
 10
-0.621508
 20
-0.970138
 40
0.003
 41
0.003
  0
LWPOLYLINE
  5
2DA
100
AcDbEntity
  8
0
 62
   254
100
AcDbPolyline
 90
        2
 70
     0
 39
0.003
 10
-0.621508
 20
-0.970138
 40
0.003
 41
0.003
 10
-1.266181
 20
-0.588264
 40
0.003
 41
0.003
  0
LWPOLYLINE
  5
2DB
100
AcDbEntity
  8
0
 62
   254
100
AcDbPolyline
 90
        2
 70
     0
 39
0.003
 10
-1.266181
 20
-0.588264
 40
0.003
 41
0.003
 10
-1.305736
 20
-0.600146
 40
0.003
 41
0.003
  0
LWPOLYLINE
  5
2DC
100
AcDbEntity
  8
0
 62
   254
100
AcDbPolyline
 90
        2
 70
     0
 39
0.003
 10
-1.266181
 20
-0.588264
 40
0.003
 41
0.003
 10
-0.621508
 20
-0.970138
 40
0.003
 41
0.003
  0
LWPOLYLINE
  5
2DD
100
AcDbEntity
  8
0
 62
   254
100
AcDbPolyline
 90
        2
 70
     0
 39
0.003
 10
-0.621508
 20
-0.970138
 40
0.003
 41
0.003
 10
-0.583476
 20
-0.956945
 40
0.003
 41
0.003
  0
LWPOLYLINE
  5
2DE
100
AcDbEntity
  8
0
 62
   254
100
AcDbPolyline
 90
        2
 70
     0
 39
0.003
 10
-0.583476
 20
-0.956945
 40
0.003
 41
0.003
 10
-1.22815
 20
-0.575071
 40
0.003
 41
0.003
  0
LWPOLYLINE
  5
2DF
100
AcDbEntity
  8
0
 62
   254
100
AcDbPolyline
 90
        2
 70
     0
 39
0.003
 10
-1.22815
 20
-0.575071
 40
0.003
 41
0.003
 10
-1.266181
 20
-0.588264
 40
0.003
 41
0.003
  0
LWPOLYLINE
  5
2E0
100
AcDbEntity
  8
0
 62
   254
100
AcDbPolyline
 90
        2
 70
     0
 39
0.003
 10
-1.22815
 20
-0.575071
 40
0.003
 41
0.003
 10
-0.583476
 20
-0.956945
 40
0.003
 41
0.003
  0
LWPOLYLINE
  5
2E1
100
AcDbEntity
  8
0
 62
   254
100
AcDbPolyline
 90
        2
 70
     0
 39
0.003
 10
-0.583476
 20
-0.956945
 40
0.003
 41
0.003
 10
-0.546902
 20
-0.942524
 40
0.003
 41
0.003
  0
LWPOLYLINE
  5
2E2
100
AcDbEntity
  8
0
 62
   254
100
AcDbPolyline
 90
        2
 70
     0
 39
0.003
 10
-0.546902
 20
-0.942524
 40
0.003
 41
0.003
 10
-1.191575
 20
-0.56065
 40
0.003
 41
0.003
  0
LWPOLYLINE
  5
2E3
100
AcDbEntity
  8
0
 62
   254
100
AcDbPolyline
 90
        2
 70
     0
 39
0.003
 10
-1.191575
 20
-0.56065
 40
0.003
 41
0.003
 10
-1.22815
 20
-0.575071
 40
0.003
 41
0.003
  0
LWPOLYLINE
  5
2E4
100
AcDbEntity
  8
0
 62
   254
100
AcDbPolyline
 90
        2
 70
     0
 39
0.003
 10
-1.191575
 20
-0.56065
 40
0.003
 41
0.003
 10
-0.546902
 20
-0.942524
 40
0.003
 41
0.003
  0
LWPOLYLINE
  5
2E5
100
AcDbEntity
  8
0
 62
   254
100
AcDbPolyline
 90
        2
 70
     0
 39
0.003
 10
-0.546902
 20
-0.942524
 40
0.003
 41
0.003
 10
-0.51174
 20
-0.926984
 40
0.003
 41
0.003
  0
LWPOLYLINE
  5
2E6
100
AcDbEntity
  8
0
 62
   254
100
AcDbPolyline
 90
        2
 70
     0
 39
0.003
 10
-0.51174
 20
-0.926984
 40
0.003
 41
0.003
 10
-1.156413
 20
-0.54511
 40
0.003
 41
0.003
  0
LWPOLYLINE
  5
2E7
100
AcDbEntity
  8
0
 62
   254
100
AcDbPolyline
 90
        2
 70
     0
 39
0.003
 10
-1.156413
 20
-0.54511
 40
0.003
 41
0.003
 10
-1.191575
 20
-0.56065
 40
0.003
 41
0.003
  0
LWPOLYLINE
  5
2E8
100
AcDbEntity
  8
0
 62
   254
100
AcDbPolyline
 90
        2
 70
     0
 39
0.003
 10
-1.156413
 20
-0.54511
 40
0.003
 41
0.003
 10
-0.51174
 20
-0.926984
 40
0.003
 41
0.003
  0
LWPOLYLINE
  5
2E9
100
AcDbEntity
  8
0
 62
   254
100
AcDbPolyline
 90
        2
 70
     0
 39
0.003
 10
-0.51174
 20
-0.926984
 40
0.003
 41
0.003
 10
-0.477937
 20
-0.910406
 40
0.003
 41
0.003
  0
LWPOLYLINE
  5
2EA
100
AcDbEntity
  8
0
 62
   254
100
AcDbPolyline
 90
        2
 70
     0
 39
0.003
 10
-0.477937
 20
-0.910406
 40
0.003
 41
0.003
 10
-1.12261
 20
-0.528531
 40
0.003
 41
0.003
  0
LWPOLYLINE
  5
2EB
100
AcDbEntity
  8
0
 62
   254
100
AcDbPolyline
 90
        2
 70
     0
 39
0.003
 10
-1.12261
 20
-0.528531
 40
0.003
 41
0.003
 10
-1.156413
 20
-0.54511
 40
0.003
 41
0.003
  0
LWPOLYLINE
  5
2EC
100
AcDbEntity
  8
0
 62
   254
100
AcDbPolyline
 90
        2
 70
     0
 39
0.003
 10
-1.12261
 20
-0.528531
 40
0.003
 41
0.003
 10
-0.477937
 20
-0.910406
 40
0.003
 41
0.003
  0
LWPOLYLINE
  5
2ED
100
AcDbEntity
  8
0
 62
   254
100
AcDbPolyline
 90
        2
 70
     0
 39
0.003
 10
-0.477937
 20
-0.910406
 40
0.003
 41
0.003
 10
-0.445441
 20
-0.892898
 40
0.003
 41
0.003
  0
LWPOLYLINE
  5
2EE
100
AcDbEntity
  8
0
 62
   254
100
AcDbPolyline
 90
        2
 70
     0
 39
0.003
 10
-0.445441
 20
-0.892898
 40
0.003
 41
0.003
 10
-1.090114
 20
-0.511024
 40
0.003
 41
0.003
  0
LWPOLYLINE
  5
2EF
100
AcDbEntity
  8
0
 62
   254
100
AcDbPolyline
 90
        2
 70
     0
 39
0.003
 10
-1.090114
 20
-0.511024
 40
0.003
 41
0.003
 10
-1.12261
 20
-0.528531
 40
0.003
 41
0.003
  0
LWPOLYLINE
  5
2F0
100
AcDbEntity
  8
0
 62
   254
100
AcDbPolyline
 90
        2
 70
     0
 39
0.003
 10
-1.090114
 20
-0.511024
 40
0.003
 41
0.003
 10
-0.445441
 20
-0.892898
 40
0.003
 41
0.003
  0
LWPOLYLINE
  5
2F1
100
AcDbEntity
  8
0
 62
   254
100
AcDbPolyline
 90
        2
 70
     0
 39
0.003
 10
-0.445441
 20
-0.892898
 40
0.003
 41
0.003
 10
-0.414185
 20
-0.874543
 40
0.003
 41
0.003
  0
LWPOLYLINE
  5
2F2
100
AcDbEntity
  8
0
 62
   254
100
AcDbPolyline
 90
        2
 70
     0
 39
0.003
 10
-0.414185
 20
-0.874543
 40
0.003
 41
0.003
 10
-1.058858
 20
-0.492669
 40
0.003
 41
0.003
  0
LWPOLYLINE
  5
2F3
100
AcDbEntity
  8
0
 62
   254
100
AcDbPolyline
 90
        2
 70
     0
 39
0.003
 10
-1.058858
 20
-0.492669
 40
0.003
 41
0.003
 10
-1.090114
 20
-0.511024
 40
0.003
 41
0.003
  0
LWPOLYLINE
  5
2F4
100
AcDbEntity
  8
0
 62
   254
100
AcDbPolyline
 90
        2
 70
     0
 39
0.003
 10
-1.058858
 20
-0.492669
 40
0.003
 41
0.003
 10
-0.414185
 20
-0.874543
 40
0.003
 41
0.003
  0
LWPOLYLINE
  5
2F5
100
AcDbEntity
  8
0
 62
   254
100
AcDbPolyline
 90
        2
 70
     0
 39
0.003
 10
-0.414185
 20
-0.874543
 40
0.003
 41
0.003
 10
-0.384134
 20
-0.855445
 40
0.003
 41
0.003
  0
LWPOLYLINE
  5
2F6
100
AcDbEntity
  8
0
 62
   254
100
AcDbPolyline
 90
        2
 70
     0
 39
0.003
 10
-0.384134
 20
-0.855445
 40
0.003
 41
0.003
 10
-1.028807
 20
-0.473571
 40
0.003
 41
0.003
  0
LWPOLYLINE
  5
2F7
100
AcDbEntity
  8
0
 62
   254
100
AcDbPolyline
 90
        2
 70
     0
 39
0.003
 10
-1.028807
 20
-0.473571
 40
0.003
 41
0.003
 10
-1.058858
 20
-0.492669
 40
0.003
 41
0.003
  0
LWPOLYLINE
  5
2F8
100
AcDbEntity
  8
0
 62
   254
100
AcDbPolyline
 90
        2
 70
     0
 39
0.003
 10
-1.028807
 20
-0.473571
 40
0.003
 41
0.003
 10
-0.384134
 20
-0.855445
 40
0.003
 41
0.003
  0
LWPOLYLINE
  5
2F9
100
AcDbEntity
  8
0
 62
   254
100
AcDbPolyline
 90
        2
 70
     0
 39
0.003
 10
-0.384134
 20
-0.855445
 40
0.003
 41
0.003
 10
-0.355224
 20
-0.835689
 40
0.003
 41
0.003
  0
LWPOLYLINE
  5
2FA
100
AcDbEntity
  8
0
 62
   254
100
AcDbPolyline
 90
        2
 70
     0
 39
0.003
 10
-0.355224
 20
-0.835689
 40
0.003
 41
0.003
 10
-0.999898
 20
-0.453815
 40
0.003
 41
0.003
  0
LWPOLYLINE
  5
2FB
100
AcDbEntity
  8
0
 62
   254
100
AcDbPolyline
 90
        2
 70
     0
 39
0.003
 10
-0.999898
 20
-0.453815
 40
0.003
 41
0.003
 10
-1.028807
 20
-0.473571
 40
0.003
 41
0.003
  0
LWPOLYLINE
  5
2FC
100
AcDbEntity
  8
0
 62
   254
100
AcDbPolyline
 90
        2
 70
     0
 39
0.003
 10
-0.999898
 20
-0.453815
 40
0.003
 41
0.003
 10
-0.355224
 20
-0.835689
 40
0.003
 41
0.003
  0
LWPOLYLINE
  5
2FD
100
AcDbEntity
  8
0
 62
   254
100
AcDbPolyline
 90
        2
 70
     0
 39
0.003
 10
-0.355224
 20
-0.835689
 40
0.003
 41
0.003
 10
-0.327406
 20
-0.815382
 40
0.003
 41
0.003
  0
LWPOLYLINE
  5
2FE
100
AcDbEntity
  8
0
 62
   254
100
AcDbPolyline
 90
        2
 70
     0
 39
0.003
 10
-0.327406
 20
-0.815382
 40
0.003
 41
0.003
 10
-0.972079
 20
-0.433508
 40
0.003
 41
0.003
  0
LWPOLYLINE
  5
2FF
100
AcDbEntity
  8
0
 62
   254
100
AcDbPolyline
 90
        2
 70
     0
 39
0.003
 10
-0.972079
 20
-0.433508
 40
0.003
 41
0.003
 10
-0.999898
 20
-0.453815
 40
0.003
 41
0.003
  0
LWPOLYLINE
  5
300
100
AcDbEntity
  8
0
 62
   254
100
AcDbPolyline
 90
        2
 70
     0
 39
0.003
 10
-0.972079
 20
-0.433508
 40
0.003
 41
0.003
 10
-0.327406
 20
-0.815382
 40
0.003
 41
0.003
  0
LWPOLYLINE
  5
301
100
AcDbEntity
  8
0
 62
   254
100
AcDbPolyline
 90
        2
 70
     0
 39
0.003
 10
-0.327406
 20
-0.815382
 40
0.003
 41
0.003
 10
-0.30061
 20
-0.794602
 40
0.003
 41
0.003
  0
LWPOLYLINE
  5
302
100
AcDbEntity
  8
0
 62
   254
100
AcDbPolyline
 90
        2
 70
     0
 39
0.003
 10
-0.30061
 20
-0.794602
 40
0.003
 41
0.003
 10
-0.945283
 20
-0.412728
 40
0.003
 41
0.003
  0
LWPOLYLINE
  5
303
100
AcDbEntity
  8
0
 62
   254
100
AcDbPolyline
 90
        2
 70
     0
 39
0.003
 10
-0.945283
 20
-0.412728
 40
0.003
 41
0.003
 10
-0.972079
 20
-0.433508
 40
0.003
 41
0.003
  0
LWPOLYLINE
  5
304
100
AcDbEntity
  8
0
 62
   254
100
AcDbPolyline
 90
        2
 70
     0
 39
0.003
 10
-0.945283
 20
-0.412728
 40
0.003
 41
0.003
 10
-0.30061
 20
-0.794602
 40
0.003
 41
0.003
  0
LWPOLYLINE
  5
305
100
AcDbEntity
  8
0
 62
   254
100
AcDbPolyline
 90
        2
 70
     0
 39
0.003
 10
-0.30061
 20
-0.794602
 40
0.003
 41
0.003
 10
-0.274799
 20
-0.773457
 40
0.003
 41
0.003
  0
LWPOLYLINE
  5
306
100
AcDbEntity
  8
0
 62
   254
100
AcDbPolyline
 90
        2
 70
     0
 39
0.003
 10
-0.274799
 20
-0.773457
 40
0.003
 41
0.003
 10
-0.919472
 20
-0.391583
 40
0.003
 41
0.003
  0
LWPOLYLINE
  5
307
100
AcDbEntity
  8
0
 62
   254
100
AcDbPolyline
 90
        2
 70
     0
 39
0.003
 10
-0.919472
 20
-0.391583
 40
0.003
 41
0.003
 10
-0.945283
 20
-0.412728
 40
0.003
 41
0.003
  0
LWPOLYLINE
  5
308
100
AcDbEntity
  8
0
 62
   254
100
AcDbPolyline
 90
        2
 70
     0
 39
0.003
 10
-0.919472
 20
-0.391583
 40
0.003
 41
0.003
 10
-0.274799
 20
-0.773457
 40
0.003
 41
0.003
  0
LWPOLYLINE
  5
309
100
AcDbEntity
  8
0
 62
   254
100
AcDbPolyline
 90
        2
 70
     0
 39
0.003
 10
-0.274799
 20
-0.773457
 40
0.003
 41
0.003
 10
-0.249917
 20
-0.752031
 40
0.003
 41
0.003
  0
LWPOLYLINE
  5
30A
100
AcDbEntity
  8
0
 62
   254
100
AcDbPolyline
 90
        2
 70
     0
 39
0.003
 10
-0.249917
 20
-0.752031
 40
0.003
 41
0.003
 10
-0.894591
 20
-0.370157
 40
0.003
 41
0.003
  0
LWPOLYLINE
  5
30B
100
AcDbEntity
  8
0
 62
   254
100
AcDbPolyline
 90
        2
 70
     0
 39
0.003
 10
-0.894591
 20
-0.370157
 40
0.003
 41
0.003
 10
-0.919472
 20
-0.391583
 40
0.003
 41
0.003
  0
LWPOLYLINE
  5
30C
100
AcDbEntity
  8
0
 62
   254
100
AcDbPolyline
 90
        2
 70
     0
 39
0.003
 10
-0.894591
 20
-0.370157
 40
0.003
 41
0.003
 10
-0.249917
 20
-0.752031
 40
0.003
 41
0.003
  0
LWPOLYLINE
  5
30D
100
AcDbEntity
  8
0
 62
   254
100
AcDbPolyline
 90
        2
 70
     0
 39
0.003
 10
-0.249917
 20
-0.752031
 40
0.003
 41
0.003
 10
-0.225909
 20
-0.730433
 40
0.003
 41
0.003
  0
LWPOLYLINE
  5
30E
100
AcDbEntity
  8
0
 62
   254
100
AcDbPolyline
 90
        2
 70
     0
 39
0.003
 10
-0.225909
 20
-0.730433
 40
0.003
 41
0.003
 10
-0.870583
 20
-0.348559
 40
0.003
 41
0.003
  0
LWPOLYLINE
  5
30F
100
AcDbEntity
  8
0
 62
   254
100
AcDbPolyline
 90
        2
 70
     0
 39
0.003
 10
-0.870583
 20
-0.348559
 40
0.003
 41
0.003
 10
-0.894591
 20
-0.370157
 40
0.003
 41
0.003
  0
LWPOLYLINE
  5
310
100
AcDbEntity
  8
0
 62
   254
100
AcDbPolyline
 90
        2
 70
     0
 39
0.003
 10
-0.870583
 20
-0.348559
 40
0.003
 41
0.003
 10
-0.225909
 20
-0.730433
 40
0.003
 41
0.003
  0
LWPOLYLINE
  5
311
100
AcDbEntity
  8
0
 62
   254
100
AcDbPolyline
 90
        2
 70
     0
 39
0.003
 10
-0.225909
 20
-0.730433
 40
0.003
 41
0.003
 10
-0.202717
 20
-0.70874
 40
0.003
 41
0.003
  0
LWPOLYLINE
  5
312
100
AcDbEntity
  8
0
 62
   254
100
AcDbPolyline
 90
        2
 70
     0
 39
0.003
 10
-0.202717
 20
-0.70874
 40
0.003
 41
0.003
 10
-0.84739
 20
-0.326866
 40
0.003
 41
0.003
  0
LWPOLYLINE
  5
313
100
AcDbEntity
  8
0
 62
   254
100
AcDbPolyline
 90
        2
 70
     0
 39
0.003
 10
-0.84739
 20
-0.326866
 40
0.003
 41
0.003
 10
-0.870583
 20
-0.348559
 40
0.003
 41
0.003
  0
LWPOLYLINE
  5
314
100
AcDbEntity
  8
0
 62
   254
100
AcDbPolyline
 90
        2
 70
     0
 39
0.003
 10
-0.84739
 20
-0.326866
 40
0.003
 41
0.003
 10
-0.202717
 20
-0.70874
 40
0.003
 41
0.003
  0
LWPOLYLINE
  5
315
100
AcDbEntity
  8
0
 62
   254
100
AcDbPolyline
 90
        2
 70
     0
 39
0.003
 10
-0.202717
 20
-0.70874
 40
0.003
 41
0.003
 10
-0.180295
 20
-0.687063
 40
0.003
 41
0.003
  0
LWPOLYLINE
  5
316
100
AcDbEntity
  8
0
 62
   254
100
AcDbPolyline
 90
        2
 70
     0
 39
0.003
 10
-0.180295
 20
-0.687063
 40
0.003
 41
0.003
 10
-0.824969
 20
-0.305189
 40
0.003
 41
0.003
  0
LWPOLYLINE
  5
317
100
AcDbEntity
  8
0
 62
   254
100
AcDbPolyline
 90
        2
 70
     0
 39
0.003
 10
-0.824969
 20
-0.305189
 40
0.003
 41
0.003
 10
-0.84739
 20
-0.326866
 40
0.003
 41
0.003
  0
LWPOLYLINE
  5
318
100
AcDbEntity
  8
0
 62
   254
100
AcDbPolyline
 90
        2
 70
     0
 39
0.003
 10
-0.824969
 20
-0.305189
 40
0.003
 41
0.003
 10
-0.180295
 20
-0.687063
 40
0.003
 41
0.003
  0
LWPOLYLINE
  5
319
100
AcDbEntity
  8
0
 62
   254
100
AcDbPolyline
 90
        2
 70
     0
 39
0.003
 10
-0.180295
 20
-0.687063
 40
0.003
 41
0.003
 10
-0.158579
 20
-0.665484
 40
0.003
 41
0.003
  0
LWPOLYLINE
  5
31A
100
AcDbEntity
  8
0
 62
   254
100
AcDbPolyline
 90
        2
 70
     0
 39
0.003
 10
-0.158579
 20
-0.665484
 40
0.003
 41
0.003
 10
-0.803252
 20
-0.28361
 40
0.003
 41
0.003
  0
LWPOLYLINE
  5
31B
100
AcDbEntity
  8
0
 62
   254
100
AcDbPolyline
 90
        2
 70
     0
 39
0.003
 10
-0.803252
 20
-0.28361
 40
0.003
 41
0.003
 10
-0.824969
 20
-0.305189
 40
0.003
 41
0.003
  0
LWPOLYLINE
  5
31C
100
AcDbEntity
  8
0
 62
   254
100
AcDbPolyline
 90
        2
 70
     0
 39
0.003
 10
-0.803252
 20
-0.28361
 40
0.003
 41
0.003
 10
-0.158579
 20
-0.665484
 40
0.003
 41
0.003
  0
LWPOLYLINE
  5
31D
100
AcDbEntity
  8
0
 62
   254
100
AcDbPolyline
 90
        2
 70
     0
 39
0.003
 10
-0.158579
 20
-0.665484
 40
0.003
 41
0.003
 10
-0.137528
 20
-0.64411
 40
0.003
 41
0.003
  0
LWPOLYLINE
  5
31E
100
AcDbEntity
  8
0
 62
   254
100
AcDbPolyline
 90
        2
 70
     0
 39
0.003
 10
-0.137528
 20
-0.64411
 40
0.003
 41
0.003
 10
-0.782201
 20
-0.262236
 40
0.003
 41
0.003
  0
LWPOLYLINE
  5
31F
100
AcDbEntity
  8
0
 62
   254
100
AcDbPolyline
 90
        2
 70
     0
 39
0.003
 10
-0.782201
 20
-0.262236
 40
0.003
 41
0.003
 10
-0.803252
 20
-0.28361
 40
0.003
 41
0.003
  0
LWPOLYLINE
  5
320
100
AcDbEntity
  8
0
 62
   254
100
AcDbPolyline
 90
        2
 70
     0
 39
0.003
 10
-0.782201
 20
-0.262236
 40
0.003
 41
0.003
 10
-0.137528
 20
-0.64411
 40
0.003
 41
0.003
  0
LWPOLYLINE
  5
321
100
AcDbEntity
  8
0
 62
   254
100
AcDbPolyline
 90
        2
 70
     0
 39
0.003
 10
-0.137528
 20
-0.64411
 40
0.003
 41
0.003
 10
-0.117071
 20
-0.62302
 40
0.003
 41
0.003
  0
LWPOLYLINE
  5
322
100
AcDbEntity
  8
0
 62
   254
100
AcDbPolyline
 90
        2
 70
     0
 39
0.003
 10
-0.117071
 20
-0.62302
 40
0.003
 41
0.003
 10
-0.761744
 20
-0.241146
 40
0.003
 41
0.003
  0
LWPOLYLINE
  5
323
100
AcDbEntity
  8
0
 62
   254
100
AcDbPolyline
 90
        2
 70
     0
 39
0.003
 10
-0.761744
 20
-0.241146
 40
0.003
 41
0.003
 10
-0.782201
 20
-0.262236
 40
0.003
 41
0.003
  0
LWPOLYLINE
  5
324
100
AcDbEntity
  8
0
 62
   254
100
AcDbPolyline
 90
        2
 70
     0
 39
0.003
 10
-0.761744
 20
-0.241146
 40
0.003
 41
0.003
 10
-0.117071
 20
-0.62302
 40
0.003
 41
0.003
  0
LWPOLYLINE
  5
325
100
AcDbEntity
  8
0
 62
   254
100
AcDbPolyline
 90
        2
 70
     0
 39
0.003
 10
-0.117071
 20
-0.62302
 40
0.003
 41
0.003
 10
-0.097165
 20
-0.602319
 40
0.003
 41
0.003
  0
LWPOLYLINE
  5
326
100
AcDbEntity
  8
0
 62
   254
100
AcDbPolyline
 90
        2
 70
     0
 39
0.003
 10
-0.097165
 20
-0.602319
 40
0.003
 41
0.003
 10
-0.741839
 20
-0.220445
 40
0.003
 41
0.003
  0
LWPOLYLINE
  5
327
100
AcDbEntity
  8
0
 62
   254
100
AcDbPolyline
 90
        2
 70
     0
 39
0.003
 10
-0.741839
 20
-0.220445
 40
0.003
 41
0.003
 10
-0.761744
 20
-0.241146
 40
0.003
 41
0.003
  0
LWPOLYLINE
  5
328
100
AcDbEntity
  8
0
 62
   254
100
AcDbPolyline
 90
        2
 70
     0
 39
0.003
 10
-0.741839
 20
-0.220445
 40
0.003
 41
0.003
 10
-0.097165
 20
-0.602319
 40
0.003
 41
0.003
  0
LWPOLYLINE
  5
329
100
AcDbEntity
  8
0
 62
   254
100
AcDbPolyline
 90
        2
 70
     0
 39
0.003
 10
-0.097165
 20
-0.602319
 40
0.003
 41
0.003
 10
-0.077752
 20
-0.582098
 40
0.003
 41
0.003
  0
LWPOLYLINE
  5
32A
100
AcDbEntity
  8
0
 62
   254
100
AcDbPolyline
 90
        2
 70
     0
 39
0.003
 10
-0.077752
 20
-0.582098
 40
0.003
 41
0.003
 10
-0.722425
 20
-0.200224
 40
0.003
 41
0.003
  0
LWPOLYLINE
  5
32B
100
AcDbEntity
  8
0
 62
   254
100
AcDbPolyline
 90
        2
 70
     0
 39
0.003
 10
-0.722425
 20
-0.200224
 40
0.003
 41
0.003
 10
-0.741839
 20
-0.220445
 40
0.003
 41
0.003
  0
LWPOLYLINE
  5
32C
100
AcDbEntity
  8
0
 62
   254
100
AcDbPolyline
 90
        2
 70
     0
 39
0.003
 10
-0.722425
 20
-0.200224
 40
0.003
 41
0.003
 10
-0.077752
 20
-0.582098
 40
0.003
 41
0.003
  0
LWPOLYLINE
  5
32D
100
AcDbEntity
  8
0
 62
   254
100
AcDbPolyline
 90
        2
 70
     0
 39
0.003
 10
-0.077752
 20
-0.582098
 40
0.003
 41
0.003
 10
-0.058791
 20
-0.562457
 40
0.003
 41
0.003
  0
LWPOLYLINE
  5
32E
100
AcDbEntity
  8
0
 62
   254
100
AcDbPolyline
 90
        2
 70
     0
 39
0.003
 10
-0.058791
 20
-0.562457
 40
0.003
 41
0.003
 10
-0.703465
 20
-0.180583
 40
0.003
 41
0.003
  0
LWPOLYLINE
  5
32F
100
AcDbEntity
  8
0
 62
   254
100
AcDbPolyline
 90
        2
 70
     0
 39
0.003
 10
-0.703465
 20
-0.180583
 40
0.003
 41
0.003
 10
-0.722425
 20
-0.200224
 40
0.003
 41
0.003
  0
LWPOLYLINE
  5
330
100
AcDbEntity
  8
0
 62
   254
100
AcDbPolyline
 90
        2
 70
     0
 39
0.003
 10
-0.703465
 20
-0.180583
 40
0.003
 41
0.003
 10
-0.058791
 20
-0.562457
 40
0.003
 41
0.003
  0
LWPOLYLINE
  5
331
100
AcDbEntity
  8
0
 62
   254
100
AcDbPolyline
 90
        2
 70
     0
 39
0.003
 10
-0.058791
 20
-0.562457
 40
0.003
 41
0.003
 10
-0.040213
 20
-0.54348
 40
0.003
 41
0.003
  0
LWPOLYLINE
  5
332
100
AcDbEntity
  8
0
 62
   254
100
AcDbPolyline
 90
        2
 70
     0
 39
0.003
 10
-0.040213
 20
-0.54348
 40
0.003
 41
0.003
 10
-0.684886
 20
-0.161606
 40
0.003
 41
0.003
  0
LWPOLYLINE
  5
333
100
AcDbEntity
  8
0
 62
   254
100
AcDbPolyline
 90
        2
 70
     0
 39
0.003
 10
-0.684886
 20
-0.161606
 40
0.003
 41
0.003
 10
-0.703465
 20
-0.180583
 40
0.003
 41
0.003
  0
LWPOLYLINE
  5
334
100
AcDbEntity
  8
0
 62
   254
100
AcDbPolyline
 90
        2
 70
     0
 39
0.003
 10
-0.684886
 20
-0.161606
 40
0.003
 41
0.003
 10
-0.040213
 20
-0.54348
 40
0.003
 41
0.003
  0
LWPOLYLINE
  5
335
100
AcDbEntity
  8
0
 62
   254
100
AcDbPolyline
 90
        2
 70
     0
 39
0.003
 10
-0.040213
 20
-0.54348
 40
0.003
 41
0.003
 10
-0.021969
 20
-0.525272
 40
0.003
 41
0.003
  0
LWPOLYLINE
  5
336
100
AcDbEntity
  8
0
 62
   254
100
AcDbPolyline
 90
        2
 70
     0
 39
0.003
 10
-0.021969
 20
-0.525272
 40
0.003
 41
0.003
 10
-0.666642
 20
-0.143398
 40
0.003
 41
0.003
  0
LWPOLYLINE
  5
337
100
AcDbEntity
  8
0
 62
   254
100
AcDbPolyline
 90
        2
 70
     0
 39
0.003
 10
-0.666642
 20
-0.143398
 40
0.003
 41
0.003
 10
-0.684886
 20
-0.161606
 40
0.003
 41
0.003
  0
LWPOLYLINE
  5
338
100
AcDbEntity
  8
0
 62
   254
100
AcDbPolyline
 90
        2
 70
     0
 39
0.003
 10
-0.666642
 20
-0.143398
 40
0.003
 41
0.003
 10
-0.021969
 20
-0.525272
 40
0.003
 41
0.003
  0
LWPOLYLINE
  5
339
100
AcDbEntity
  8
0
 62
   254
100
AcDbPolyline
 90
        2
 70
     0
 39
0.003
 10
-0.021969
 20
-0.525272
 40
0.003
 41
0.003
 10
-0.004008
 20
-0.507921
 40
0.003
 41
0.003
  0
LWPOLYLINE
  5
33A
100
AcDbEntity
  8
0
 62
   254
100
AcDbPolyline
 90
        2
 70
     0
 39
0.003
 10
-0.004008
 20
-0.507921
 40
0.003
 41
0.003
 10
-0.648681
 20
-0.126047
 40
0.003
 41
0.003
  0
LWPOLYLINE
  5
33B
100
AcDbEntity
  8
0
 62
   254
100
AcDbPolyline
 90
        2
 70
     0
 39
0.003
 10
-0.648681
 20
-0.126047
 40
0.003
 41
0.003
 10
-0.666642
 20
-0.143398
 40
0.003
 41
0.003
  0
LWPOLYLINE
  5
33C
100
AcDbEntity
  8
0
 62
   254
100
AcDbPolyline
 90
        2
 70
     0
 39
0.003
 10
-0.648681
 20
-0.126047
 40
0.003
 41
0.003
 10
-0.004008
 20
-0.507921
 40
0.003
 41
0.003
  0
LWPOLYLINE
  5
33D
100
AcDbEntity
  8
0
 62
   254
100
AcDbPolyline
 90
        2
 70
     0
 39
0.003
 10
-0.004008
 20
-0.507921
 40
0.003
 41
0.003
 10
0.013724
 20
-0.491528
 40
0.003
 41
0.003
  0
LWPOLYLINE
  5
33E
100
AcDbEntity
  8
0
 62
   254
100
AcDbPolyline
 90
        2
 70
     0
 39
0.003
 10
0.013724
 20
-0.491528
 40
0.003
 41
0.003
 10
-0.630949
 20
-0.109654
 40
0.003
 41
0.003
  0
LWPOLYLINE
  5
33F
100
AcDbEntity
  8
0
 62
   254
100
AcDbPolyline
 90
        2
 70
     0
 39
0.003
 10
-0.630949
 20
-0.109654
 40
0.003
 41
0.003
 10
-0.648681
 20
-0.126047
 40
0.003
 41
0.003
  0
LWPOLYLINE
  5
340
100
AcDbEntity
  8
0
 62
   254
100
AcDbPolyline
 90
        2
 70
     0
 39
0.003
 10
-0.630949
 20
-0.109654
 40
0.003
 41
0.003
 10
0.013724
 20
-0.491528
 40
0.003
 41
0.003
  0
LWPOLYLINE
  5
341
100
AcDbEntity
  8
0
 62
   254
100
AcDbPolyline
 90
        2
 70
     0
 39
0.003
 10
0.013724
 20
-0.491528
 40
0.003
 41
0.003
 10
0.031197
 20
-0.47528
 40
0.003
 41
0.003
  0
LWPOLYLINE
  5
342
100
AcDbEntity
  8
0
 62
   254
100
AcDbPolyline
 90
        2
 70
     0
 39
0.003
 10
0.031197
 20
-0.47528
 40
0.003
 41
0.003
 10
-0.613476
 20
-0.093406
 40
0.003
 41
0.003
  0
LWPOLYLINE
  5
343
100
AcDbEntity
  8
0
 62
   254
100
AcDbPolyline
 90
        2
 70
     0
 39
0.003
 10
-0.613476
 20
-0.093406
 40
0.003
 41
0.003
 10
-0.630949
 20
-0.109654
 40
0.003
 41
0.003
  0
LWPOLYLINE
  5
344
100
AcDbEntity
  8
0
 62
   254
100
AcDbPolyline
 90
        2
 70
     0
 39
0.003
 10
-0.613476
 20
-0.093406
 40
0.003
 41
0.003
 10
0.031197
 20
-0.47528
 40
0.003
 41
0.003
  0
LWPOLYLINE
  5
345
100
AcDbEntity
  8
0
 62
   254
100
AcDbPolyline
 90
        2
 70
     0
 39
0.003
 10
0.031197
 20
-0.47528
 40
0.003
 41
0.003
 10
0.048402
 20
-0.458358
 40
0.003
 41
0.003
  0
LWPOLYLINE
  5
346
100
AcDbEntity
  8
0
 62
   254
100
AcDbPolyline
 90
        2
 70
     0
 39
0.003
 10
0.048402
 20
-0.458358
 40
0.003
 41
0.003
 10
-0.596272
 20
-0.076484
 40
0.003
 41
0.003
  0
LWPOLYLINE
  5
347
100
AcDbEntity
  8
0
 62
   254
100
AcDbPolyline
 90
        2
 70
     0
 39
0.003
 10
-0.596272
 20
-0.076484
 40
0.003
 41
0.003
 10
-0.613476
 20
-0.093406
 40
0.003
 41
0.003
  0
LWPOLYLINE
  5
348
100
AcDbEntity
  8
0
 62
   254
100
AcDbPolyline
 90
        2
 70
     0
 39
0.003
 10
-0.596272
 20
-0.076484
 40
0.003
 41
0.003
 10
0.048402
 20
-0.458358
 40
0.003
 41
0.003
  0
LWPOLYLINE
  5
349
100
AcDbEntity
  8
0
 62
   254
100
AcDbPolyline
 90
        2
 70
     0
 39
0.003
 10
0.048402
 20
-0.458358
 40
0.003
 41
0.003
 10
0.065484
 20
-0.440815
 40
0.003
 41
0.003
  0
LWPOLYLINE
  5
34A
100
AcDbEntity
  8
0
 62
   254
100
AcDbPolyline
 90
        2
 70
     0
 39
0.003
 10
0.065484
 20
-0.440815
 40
0.003
 41
0.003
 10
-0.579189
 20
-0.058941
 40
0.003
 41
0.003
  0
LWPOLYLINE
  5
34B
100
AcDbEntity
  8
0
 62
   254
100
AcDbPolyline
 90
        2
 70
     0
 39
0.003
 10
-0.579189
 20
-0.058941
 40
0.003
 41
0.003
 10
-0.596272
 20
-0.076484
 40
0.003
 41
0.003
  0
LWPOLYLINE
  5
34C
100
AcDbEntity
  8
0
 62
   254
100
AcDbPolyline
 90
        2
 70
     0
 39
0.003
 10
-0.579189
 20
-0.058941
 40
0.003
 41
0.003
 10
0.065484
 20
-0.440815
 40
0.003
 41
0.003
  0
LWPOLYLINE
  5
34D
100
AcDbEntity
  8
0
 62
   254
100
AcDbPolyline
 90
        2
 70
     0
 39
0.003
 10
0.065484
 20
-0.440815
 40
0.003
 41
0.003
 10
0.082567
 20
-0.422713
 40
0.003
 41
0.003
  0
LWPOLYLINE
  5
34E
100
AcDbEntity
  8
0
 62
   254
100
AcDbPolyline
 90
        2
 70
     0
 39
0.003
 10
0.082567
 20
-0.422713
 40
0.003
 41
0.003
 10
-0.562106
 20
-0.040839
 40
0.003
 41
0.003
  0
LWPOLYLINE
  5
34F
100
AcDbEntity
  8
0
 62
   254
100
AcDbPolyline
 90
        2
 70
     0
 39
0.003
 10
-0.562106
 20
-0.040839
 40
0.003
 41
0.003
 10
-0.579189
 20
-0.058941
 40
0.003
 41
0.003
  0
LWPOLYLINE
  5
350
100
AcDbEntity
  8
0
 62
   254
100
AcDbPolyline
 90
        2
 70
     0
 39
0.003
 10
-0.562106
 20
-0.040839
 40
0.003
 41
0.003
 10
0.082567
 20
-0.422713
 40
0.003
 41
0.003
  0
LWPOLYLINE
  5
351
100
AcDbEntity
  8
0
 62
   254
100
AcDbPolyline
 90
        2
 70
     0
 39
0.003
 10
0.082567
 20
-0.422713
 40
0.003
 41
0.003
 10
0.099799
 20
-0.404087
 40
0.003
 41
0.003
  0
LWPOLYLINE
  5
352
100
AcDbEntity
  8
0
 62
   254
100
AcDbPolyline
 90
        2
 70
     0
 39
0.003
 10
0.099799
 20
-0.404087
 40
0.003
 41
0.003
 10
-0.544874
 20
-0.022213
 40
0.003
 41
0.003
  0
LWPOLYLINE
  5
353
100
AcDbEntity
  8
0
 62
   254
100
AcDbPolyline
 90
        2
 70
     0
 39
0.003
 10
-0.544874
 20
-0.022213
 40
0.003
 41
0.003
 10
-0.562106
 20
-0.040839
 40
0.003
 41
0.003
  0
LWPOLYLINE
  5
354
100
AcDbEntity
  8
0
 62
   254
100
AcDbPolyline
 90
        2
 70
     0
 39
0.003
 10
-0.544874
 20
-0.022213
 40
0.003
 41
0.003
 10
0.099799
 20
-0.404087
 40
0.003
 41
0.003
  0
LWPOLYLINE
  5
355
100
AcDbEntity
  8
0
 62
   254
100
AcDbPolyline
 90
        2
 70
     0
 39
0.003
 10
0.099799
 20
-0.404087
 40
0.003
 41
0.003
 10
0.117307
 20
-0.385004
 40
0.003
 41
0.003
  0
LWPOLYLINE
  5
356
100
AcDbEntity
  8
0
 62
   254
100
AcDbPolyline
 90
        2
 70
     0
 39
0.003
 10
0.117307
 20
-0.385004
 40
0.003
 41
0.003
 10
-0.527366
 20
-0.00313
 40
0.003
 41
0.003
  0
LWPOLYLINE
  5
357
100
AcDbEntity
  8
0
 62
   254
100
AcDbPolyline
 90
        2
 70
     0
 39
0.003
 10
-0.527366
 20
-0.00313
 40
0.003
 41
0.003
 10
-0.544874
 20
-0.022213
 40
0.003
 41
0.003
  0
LWPOLYLINE
  5
358
100
AcDbEntity
  8
0
 62
   254
100
AcDbPolyline
 90
        2
 70
     0
 39
0.003
 10
-0.527366
 20
-0.00313
 40
0.003
 41
0.003
 10
0.117307
 20
-0.385004
 40
0.003
 41
0.003
  0
LWPOLYLINE
  5
359
100
AcDbEntity
  8
0
 62
   254
100
AcDbPolyline
 90
        2
 70
     0
 39
0.003
 10
0.117307
 20
-0.385004
 40
0.003
 41
0.003
 10
0.135232
 20
-0.365516
 40
0.003
 41
0.003
  0
LWPOLYLINE
  5
35A
100
AcDbEntity
  8
0
 62
   254
100
AcDbPolyline
 90
        2
 70
     0
 39
0.003
 10
0.135232
 20
-0.365516
 40
0.003
 41
0.003
 10
-0.509441
 20
0.016358
 40
0.003
 41
0.003
  0
LWPOLYLINE
  5
35B
100
AcDbEntity
  8
0
 62
   254
100
AcDbPolyline
 90
        2
 70
     0
 39
0.003
 10
-0.509441
 20
0.016358
 40
0.003
 41
0.003
 10
-0.527366
 20
-0.00313
 40
0.003
 41
0.003
  0
LWPOLYLINE
  5
35C
100
AcDbEntity
  8
0
 62
   254
100
AcDbPolyline
 90
        2
 70
     0
 39
0.003
 10
-0.509441
 20
0.016358
 40
0.003
 41
0.003
 10
0.135232
 20
-0.365516
 40
0.003
 41
0.003
  0
LWPOLYLINE
  5
35D
100
AcDbEntity
  8
0
 62
   254
100
AcDbPolyline
 90
        2
 70
     0
 39
0.003
 10
0.135232
 20
-0.365516
 40
0.003
 41
0.003
 10
0.153701
 20
-0.345661
 40
0.003
 41
0.003
  0
LWPOLYLINE
  5
35E
100
AcDbEntity
  8
0
 62
   254
100
AcDbPolyline
 90
        2
 70
     0
 39
0.003
 10
0.153701
 20
-0.345661
 40
0.003
 41
0.003
 10
-0.490972
 20
0.036213
 40
0.003
 41
0.003
  0
LWPOLYLINE
  5
35F
100
AcDbEntity
  8
0
 62
   254
100
AcDbPolyline
 90
        2
 70
     0
 39
0.003
 10
-0.490972
 20
0.036213
 40
0.003
 41
0.003
 10
-0.509441
 20
0.016358
 40
0.003
 41
0.003
  0
LWPOLYLINE
  5
360
100
AcDbEntity
  8
0
 62
   254
100
AcDbPolyline
 90
        2
 70
     0
 39
0.003
 10
-0.490972
 20
0.036213
 40
0.003
 41
0.003
 10
0.153701
 20
-0.345661
 40
0.003
 41
0.003
  0
LWPOLYLINE
  5
361
100
AcDbEntity
  8
0
 62
   254
100
AcDbPolyline
 90
        2
 70
     0
 39
0.003
 10
0.153701
 20
-0.345661
 40
0.003
 41
0.003
 10
0.172858
 20
-0.325508
 40
0.003
 41
0.003
  0
LWPOLYLINE
  5
362
100
AcDbEntity
  8
0
 62
   254
100
AcDbPolyline
 90
        2
 70
     0
 39
0.003
 10
0.172858
 20
-0.325508
 40
0.003
 41
0.003
 10
-0.471815
 20
0.056366
 40
0.003
 41
0.003
  0
LWPOLYLINE
  5
363
100
AcDbEntity
  8
0
 62
   254
100
AcDbPolyline
 90
        2
 70
     0
 39
0.003
 10
-0.471815
 20
0.056366
 40
0.003
 41
0.003
 10
-0.490972
 20
0.036213
 40
0.003
 41
0.003
  0
LWPOLYLINE
  5
364
100
AcDbEntity
  8
0
 62
   254
100
AcDbPolyline
 90
        2
 70
     0
 39
0.003
 10
-0.471815
 20
0.056366
 40
0.003
 41
0.003
 10
0.172858
 20
-0.325508
 40
0.003
 41
0.003
  0
LWPOLYLINE
  5
365
100
AcDbEntity
  8
0
 62
   254
100
AcDbPolyline
 90
        2
 70
     0
 39
0.003
 10
0.172858
 20
-0.325508
 40
0.003
 41
0.003
 10
0.192835
 20
-0.305098
 40
0.003
 41
0.003
  0
LWPOLYLINE
  5
366
100
AcDbEntity
  8
0
 62
   254
100
AcDbPolyline
 90
        2
 70
     0
 39
0.003
 10
0.192835
 20
-0.305098
 40
0.003
 41
0.003
 10
-0.451839
 20
0.076776
 40
0.003
 41
0.003
  0
LWPOLYLINE
  5
367
100
AcDbEntity
  8
0
 62
   254
100
AcDbPolyline
 90
        2
 70
     0
 39
0.003
 10
-0.451839
 20
0.076776
 40
0.003
 41
0.003
 10
-0.471815
 20
0.056366
 40
0.003
 41
0.003
  0
LWPOLYLINE
  5
368
100
AcDbEntity
  8
0
 62
   254
100
AcDbPolyline
 90
        2
 70
     0
 39
0.003
 10
-0.451839
 20
0.076776
 40
0.003
 41
0.003
 10
0.192835
 20
-0.305098
 40
0.003
 41
0.003
  0
LWPOLYLINE
  5
369
100
AcDbEntity
  8
0
 62
   254
100
AcDbPolyline
 90
        2
 70
     0
 39
0.003
 10
0.192835
 20
-0.305098
 40
0.003
 41
0.003
 10
0.213764
 20
-0.284492
 40
0.003
 41
0.003
  0
LWPOLYLINE
  5
36A
100
AcDbEntity
  8
0
 62
   254
100
AcDbPolyline
 90
        2
 70
     0
 39
0.003
 10
0.213764
 20
-0.284492
 40
0.003
 41
0.003
 10
-0.430909
 20
0.097382
 40
0.003
 41
0.003
  0
LWPOLYLINE
  5
36B
100
AcDbEntity
  8
0
 62
   254
100
AcDbPolyline
 90
        2
 70
     0
 39
0.003
 10
-0.430909
 20
0.097382
 40
0.003
 41
0.003
 10
-0.451839
 20
0.076776
 40
0.003
 41
0.003
  0
LWPOLYLINE
  5
36C
100
AcDbEntity
  8
0
 62
   254
100
AcDbPolyline
 90
        2
 70
     0
 39
0.003
 10
-0.430909
 20
0.097382
 40
0.003
 41
0.003
 10
0.213764
 20
-0.284492
 40
0.003
 41
0.003
  0
LWPOLYLINE
  5
36D
100
AcDbEntity
  8
0
 62
   254
100
AcDbPolyline
 90
        2
 70
     0
 39
0.003
 10
0.213764
 20
-0.284492
 40
0.003
 41
0.003
 10
0.235776
 20
-0.263736
 40
0.003
 41
0.003
  0
LWPOLYLINE
  5
36E
100
AcDbEntity
  8
0
 62
   254
100
AcDbPolyline
 90
        2
 70
     0
 39
0.003
 10
0.235776
 20
-0.263736
 40
0.003
 41
0.003
 10
-0.408898
 20
0.118138
 40
0.003
 41
0.003
  0
LWPOLYLINE
  5
36F
100
AcDbEntity
  8
0
 62
   254
100
AcDbPolyline
 90
        2
 70
     0
 39
0.003
 10
-0.408898
 20
0.118138
 40
0.003
 41
0.003
 10
-0.430909
 20
0.097382
 40
0.003
 41
0.003
  0
LWPOLYLINE
  5
370
100
AcDbEntity
  8
0
 62
   254
100
AcDbPolyline
 90
        2
 70
     0
 39
0.003
 10
-0.408898
 20
0.118138
 40
0.003
 41
0.003
 10
0.235776
 20
-0.263736
 40
0.003
 41
0.003
  0
LWPOLYLINE
  5
371
100
AcDbEntity
  8
0
 62
   254
100
AcDbPolyline
 90
        2
 70
     0
 39
0.003
 10
0.235776
 20
-0.263736
 40
0.003
 41
0.003
 10
0.25902
 20
-0.242898
 40
0.003
 41
0.003
  0
LWPOLYLINE
  5
372
100
AcDbEntity
  8
0
 62
   254
100
AcDbPolyline
 90
        2
 70
     0
 39
0.003
 10
0.25902
 20
-0.242898
 40
0.003
 41
0.003
 10
-0.385654
 20
0.138976
 40
0.003
 41
0.003
  0
LWPOLYLINE
  5
373
100
AcDbEntity
  8
0
 62
   254
100
AcDbPolyline
 90
        2
 70
     0
 39
0.003
 10
-0.385654
 20
0.138976
 40
0.003
 41
0.003
 10
-0.408898
 20
0.118138
 40
0.003
 41
0.003
  0
LWPOLYLINE
  5
374
100
AcDbEntity
  8
0
 62
   254
100
AcDbPolyline
 90
        2
 70
     0
 39
0.003
 10
-0.385654
 20
0.138976
 40
0.003
 41
0.003
 10
0.25902
 20
-0.242898
 40
0.003
 41
0.003
  0
LWPOLYLINE
  5
375
100
AcDbEntity
  8
0
 62
   254
100
AcDbPolyline
 90
        2
 70
     0
 39
0.003
 10
0.25902
 20
-0.242898
 40
0.003
 41
0.003
 10
0.28361
 20
-0.222008
 40
0.003
 41
0.003
  0
LWPOLYLINE
  5
376
100
AcDbEntity
  8
0
 62
   254
100
AcDbPolyline
 90
        2
 70
     0
 39
0.003
 10
0.28361
 20
-0.222008
 40
0.003
 41
0.003
 10
-0.361063
 20
0.159866
 40
0.003
 41
0.003
  0
LWPOLYLINE
  5
377
100
AcDbEntity
  8
0
 62
   254
100
AcDbPolyline
 90
        2
 70
     0
 39
0.003
 10
-0.361063
 20
0.159866
 40
0.003
 41
0.003
 10
-0.385654
 20
0.138976
 40
0.003
 41
0.003
  0
LWPOLYLINE
  5
378
100
AcDbEntity
  8
0
 62
   254
100
AcDbPolyline
 90
        2
 70
     0
 39
0.003
 10
-0.361063
 20
0.159866
 40
0.003
 41
0.003
 10
0.28361
 20
-0.222008
 40
0.003
 41
0.003
  0
LWPOLYLINE
  5
379
100
AcDbEntity
  8
0
 62
   254
100
AcDbPolyline
 90
        2
 70
     0
 39
0.003
 10
0.28361
 20
-0.222008
 40
0.003
 41
0.003
 10
0.309701
 20
-0.201134
 40
0.003
 41
0.003
  0
LWPOLYLINE
  5
37A
100
AcDbEntity
  8
0
 62
   254
100
AcDbPolyline
 90
        2
 70
     0
 39
0.003
 10
0.309701
 20
-0.201134
 40
0.003
 41
0.003
 10
-0.334972
 20
0.18074
 40
0.003
 41
0.003
  0
LWPOLYLINE
  5
37B
100
AcDbEntity
  8
0
 62
   254
100
AcDbPolyline
 90
        2
 70
     0
 39
0.003
 10
-0.334972
 20
0.18074
 40
0.003
 41
0.003
 10
-0.361063
 20
0.159866
 40
0.003
 41
0.003
  0
LWPOLYLINE
  5
37C
100
AcDbEntity
  8
0
 62
   254
100
AcDbPolyline
 90
        2
 70
     0
 39
0.003
 10
-0.334972
 20
0.18074
 40
0.003
 41
0.003
 10
0.309701
 20
-0.201134
 40
0.003
 41
0.003
  0
LWPOLYLINE
  5
37D
100
AcDbEntity
  8
0
 62
   254
100
AcDbPolyline
 90
        2
 70
     0
 39
0.003
 10
0.309701
 20
-0.201134
 40
0.003
 41
0.003
 10
0.337409
 20
-0.180323
 40
0.003
 41
0.003
  0
LWPOLYLINE
  5
37E
100
AcDbEntity
  8
0
 62
   254
100
AcDbPolyline
 90
        2
 70
     0
 39
0.003
 10
0.337409
 20
-0.180323
 40
0.003
 41
0.003
 10
-0.307264
 20
0.201551
 40
0.003
 41
0.003
  0
LWPOLYLINE
  5
37F
100
AcDbEntity
  8
0
 62
   254
100
AcDbPolyline
 90
        2
 70
     0
 39
0.003
 10
-0.307264
 20
0.201551
 40
0.003
 41
0.003
 10
-0.334972
 20
0.18074
 40
0.003
 41
0.003
  0
LWPOLYLINE
  5
380
100
AcDbEntity
  8
0
 62
   254
100
AcDbPolyline
 90
        2
 70
     0
 39
0.003
 10
-0.307264
 20
0.201551
 40
0.003
 41
0.003
 10
0.337409
 20
-0.180323
 40
0.003
 41
0.003
  0
LWPOLYLINE
  5
381
100
AcDbEntity
  8
0
 62
   254
100
AcDbPolyline
 90
        2
 70
     0
 39
0.003
 10
0.337409
 20
-0.180323
 40
0.003
 41
0.003
 10
0.366894
 20
-0.159642
 40
0.003
 41
0.003
  0
LWPOLYLINE
  5
382
100
AcDbEntity
  8
0
 62
   254
100
AcDbPolyline
 90
        2
 70
     0
 39
0.003
 10
0.366894
 20
-0.159642
 40
0.003
 41
0.003
 10
-0.27778
 20
0.222232
 40
0.003
 41
0.003
  0
LWPOLYLINE
  5
383
100
AcDbEntity
  8
0
 62
   254
100
AcDbPolyline
 90
        2
 70
     0
 39
0.003
 10
-0.27778
 20
0.222232
 40
0.003
 41
0.003
 10
-0.307264
 20
0.201551
 40
0.003
 41
0.003
  0
LWPOLYLINE
  5
384
100
AcDbEntity
  8
0
 62
   254
100
AcDbPolyline
 90
        2
 70
     0
 39
0.003
 10
-0.27778
 20
0.222232
 40
0.003
 41
0.003
 10
0.366894
 20
-0.159642
 40
0.003
 41
0.003
  0
LWPOLYLINE
  5
385
100
AcDbEntity
  8
0
 62
   254
100
AcDbPolyline
 90
        2
 70
     0
 39
0.003
 10
0.366894
 20
-0.159642
 40
0.003
 41
0.003
 10
0.398272
 20
-0.139122
 40
0.003
 41
0.003
  0
LWPOLYLINE
  5
386
100
AcDbEntity
  8
0
 62
   254
100
AcDbPolyline
 90
        2
 70
     0
 39
0.003
 10
0.398272
 20
-0.139122
 40
0.003
 41
0.003
 10
-0.246402
 20
0.242752
 40
0.003
 41
0.003
  0
LWPOLYLINE
  5
387
100
AcDbEntity
  8
0
 62
   254
100
AcDbPolyline
 90
        2
 70
     0
 39
0.003
 10
-0.246402
 20
0.242752
 40
0.003
 41
0.003
 10
-0.27778
 20
0.222232
 40
0.003
 41
0.003
  0
LWPOLYLINE
  5
388
100
AcDbEntity
  8
0
 62
   254
100
AcDbPolyline
 90
        2
 70
     0
 39
0.003
 10
-0.246402
 20
0.242752
 40
0.003
 41
0.003
 10
0.398272
 20
-0.139122
 40
0.003
 41
0.003
  0
LWPOLYLINE
  5
389
100
AcDbEntity
  8
0
 62
   254
100
AcDbPolyline
 90
        2
 70
     0
 39
0.003
 10
0.398272
 20
-0.139122
 40
0.003
 41
0.003
 10
0.431685
 20
-0.118831
 40
0.003
 41
0.003
  0
LWPOLYLINE
  5
38A
100
AcDbEntity
  8
0
 62
   254
100
AcDbPolyline
 90
        2
 70
     0
 39
0.003
 10
0.431685
 20
-0.118831
 40
0.003
 41
0.003
 10
-0.212988
 20
0.263043
 40
0.003
 41
0.003
  0
LWPOLYLINE
  5
38B
100
AcDbEntity
  8
0
 62
   254
100
AcDbPolyline
 90
        2
 70
     0
 39
0.003
 10
-0.212988
 20
0.263043
 40
0.003
 41
0.003
 10
-0.246402
 20
0.242752
 40
0.003
 41
0.003
  0
LWPOLYLINE
  5
38C
100
AcDbEntity
  8
0
 62
   254
100
AcDbPolyline
 90
        2
 70
     0
 39
0.003
 10
-0.212988
 20
0.263043
 40
0.003
 41
0.003
 10
0.431685
 20
-0.118831
 40
0.003
 41
0.003
  0
LWPOLYLINE
  5
38D
100
AcDbEntity
  8
0
 62
   254
100
AcDbPolyline
 90
        2
 70
     0
 39
0.003
 10
0.431685
 20
-0.118831
 40
0.003
 41
0.003
 10
0.46726
 20
-0.098811
 40
0.003
 41
0.003
  0
LWPOLYLINE
  5
38E
100
AcDbEntity
  8
0
 62
   254
100
AcDbPolyline
 90
        2
 70
     0
 39
0.003
 10
0.46726
 20
-0.098811
 40
0.003
 41
0.003
 10
-0.177413
 20
0.283063
 40
0.003
 41
0.003
  0
LWPOLYLINE
  5
38F
100
AcDbEntity
  8
0
 62
   254
100
AcDbPolyline
 90
        2
 70
     0
 39
0.003
 10
-0.177413
 20
0.283063
 40
0.003
 41
0.003
 10
-0.212988
 20
0.263043
 40
0.003
 41
0.003
  0
LWPOLYLINE
  5
390
100
AcDbEntity
  8
0
 62
   254
100
AcDbPolyline
 90
        2
 70
     0
 39
0.003
 10
-0.177413
 20
0.283063
 40
0.003
 41
0.003
 10
0.46726
 20
-0.098811
 40
0.003
 41
0.003
  0
LWPOLYLINE
  5
391
100
AcDbEntity
  8
0
 62
   254
100
AcDbPolyline
 90
        2
 70
     0
 39
0.003
 10
0.46726
 20
-0.098811
 40
0.003
 41
0.003
 10
0.505146
 20
-0.07913
 40
0.003
 41
0.003
  0
LWPOLYLINE
  5
392
100
AcDbEntity
  8
0
 62
   254
100
AcDbPolyline
 90
        2
 70
     0
 39
0.003
 10
0.505146
 20
-0.07913
 40
0.003
 41
0.003
 10
-0.139528
 20
0.302744
 40
0.003
 41
0.003
  0
LWPOLYLINE
  5
393
100
AcDbEntity
  8
0
 62
   254
100
AcDbPolyline
 90
        2
 70
     0
 39
0.003
 10
-0.139528
 20
0.302744
 40
0.003
 41
0.003
 10
-0.177413
 20
0.283063
 40
0.003
 41
0.003
  0
LWPOLYLINE
  5
394
100
AcDbEntity
  8
0
 62
   254
100
AcDbPolyline
 90
        2
 70
     0
 39
0.003
 10
-0.139528
 20
0.302744
 40
0.003
 41
0.003
 10
0.505146
 20
-0.07913
 40
0.003
 41
0.003
  0
LWPOLYLINE
  5
395
100
AcDbEntity
  8
0
 62
   254
100
AcDbPolyline
 90
        2
 70
     0
 39
0.003
 10
0.505146
 20
-0.07913
 40
0.003
 41
0.003
 10
0.545461
 20
-0.059819
 40
0.003
 41
0.003
  0
LWPOLYLINE
  5
396
100
AcDbEntity
  8
0
 62
   254
100
AcDbPolyline
 90
        2
 70
     0
 39
0.003
 10
0.545461
 20
-0.059819
 40
0.003
 41
0.003
 10
-0.099213
 20
0.322055
 40
0.003
 41
0.003
  0
LWPOLYLINE
  5
397
100
AcDbEntity
  8
0
 62
   254
100
AcDbPolyline
 90
        2
 70
     0
 39
0.003
 10
-0.099213
 20
0.322055
 40
0.003
 41
0.003
 10
-0.139528
 20
0.302744
 40
0.003
 41
0.003
  0
LWPOLYLINE
  5
398
100
AcDbEntity
  8
0
 62
   254
100
AcDbPolyline
 90
        2
 70
     0
 39
0.003
 10
-0.099213
 20
0.322055
 40
0.003
 41
0.003
 10
0.545461
 20
-0.059819
 40
0.003
 41
0.003
  0
LWPOLYLINE
  5
399
100
AcDbEntity
  8
0
 62
   254
100
AcDbPolyline
 90
        2
 70
     0
 39
0.003
 10
0.545461
 20
-0.059819
 40
0.003
 41
0.003
 10
0.58835
 20
-0.040949
 40
0.003
 41
0.003
  0
LWPOLYLINE
  5
39A
100
AcDbEntity
  8
0
 62
   254
100
AcDbPolyline
 90
        2
 70
     0
 39
0.003
 10
0.58835
 20
-0.040949
 40
0.003
 41
0.003
 10
-0.056323
 20
0.340925
 40
0.003
 41
0.003
  0
LWPOLYLINE
  5
39B
100
AcDbEntity
  8
0
 62
   254
100
AcDbPolyline
 90
        2
 70
     0
 39
0.003
 10
-0.056323
 20
0.340925
 40
0.003
 41
0.003
 10
-0.099213
 20
0.322055
 40
0.003
 41
0.003
  0
LWPOLYLINE
  5
39C
100
AcDbEntity
  8
0
 62
   254
100
AcDbPolyline
 90
        2
 70
     0
 39
0.003
 10
-0.056323
 20
0.340925
 40
0.003
 41
0.003
 10
0.58835
 20
-0.040949
 40
0.003
 41
0.003
  0
LWPOLYLINE
  5
39D
100
AcDbEntity
  8
0
 62
   254
100
AcDbPolyline
 90
        2
 70
     0
 39
0.003
 10
0.58835
 20
-0.040949
 40
0.003
 41
0.003
 10
0.633945
 20
-0.022563
 40
0.003
 41
0.003
  0
LWPOLYLINE
  5
39E
100
AcDbEntity
  8
0
 62
   254
100
AcDbPolyline
 90
        2
 70
     0
 39
0.003
 10
0.633945
 20
-0.022563
 40
0.003
 41
0.003
 10
-0.010728
 20
0.359311
 40
0.003
 41
0.003
  0
LWPOLYLINE
  5
39F
100
AcDbEntity
  8
0
 62
   254
100
AcDbPolyline
 90
        2
 70
     0
 39
0.003
 10
-0.010728
 20
0.359311
 40
0.003
 41
0.003
 10
-0.056323
 20
0.340925
 40
0.003
 41
0.003
  0
LWPOLYLINE
  5
3A0
100
AcDbEntity
  8
0
 62
   254
100
AcDbPolyline
 90
        2
 70
     0
 39
0.003
 10
-0.010728
 20
0.359311
 40
0.003
 41
0.003
 10
0.633945
 20
-0.022563
 40
0.003
 41
0.003
  0
LWPOLYLINE
  5
3A1
100
AcDbEntity
  8
0
 62
   254
100
AcDbPolyline
 90
        2
 70
     0
 39
0.003
 10
0.633945
 20
-0.022563
 40
0.003
 41
0.003
 10
0.682382
 20
-0.004724
 40
0.003
 41
0.003
  0
LWPOLYLINE
  5
3A2
100
AcDbEntity
  8
0
 62
   254
100
AcDbPolyline
 90
        2
 70
     0
 39
0.003
 10
0.682382
 20
-0.004724
 40
0.003
 41
0.003
 10
0.037709
 20
0.37715
 40
0.003
 41
0.003
  0
LWPOLYLINE
  5
3A3
100
AcDbEntity
  8
0
 62
   254
100
AcDbPolyline
 90
        2
 70
     0
 39
0.003
 10
0.037709
 20
0.37715
 40
0.003
 41
0.003
 10
-0.010728
 20
0.359311
 40
0.003
 41
0.003
  0
LWPOLYLINE
  5
3A4
100
AcDbEntity
  8
0
 62
   254
100
AcDbPolyline
 90
        2
 70
     0
 39
0.003
 10
0.037709
 20
0.37715
 40
0.003
 41
0.003
 10
0.682382
 20
-0.004724
 40
0.003
 41
0.003
  0
LWPOLYLINE
  5
3A5
100
AcDbEntity
  8
0
 62
   254
100
AcDbPolyline
 90
        2
 70
     0
 39
0.003
 10
0.682382
 20
-0.004724
 40
0.003
 41
0.003
 10
0.733799
 20
0.012524
 40
0.003
 41
0.003
  0
LWPOLYLINE
  5
3A6
100
AcDbEntity
  8
0
 62
   254
100
AcDbPolyline
 90
        2
 70
     0
 39
0.003
 10
0.733799
 20
0.012524
 40
0.003
 41
0.003
 10
0.089126
 20
0.394398
 40
0.003
 41
0.003
  0
LWPOLYLINE
  5
3A7
100
AcDbEntity
  8
0
 62
   254
100
AcDbPolyline
 90
        2
 70
     0
 39
0.003
 10
0.089126
 20
0.394398
 40
0.003
 41
0.003
 10
0.037709
 20
0.37715
 40
0.003
 41
0.003
  0
LWPOLYLINE
  5
3A8
100
AcDbEntity
  8
0
 62
   254
100
AcDbPolyline
 90
        2
 70
     0
 39
0.003
 10
0.089126
 20
0.394398
 40
0.003
 41
0.003
 10
0.733799
 20
0.012524
 40
0.003
 41
0.003
  0
LWPOLYLINE
  5
3A9
100
AcDbEntity
  8
0
 62
   254
100
AcDbPolyline
 90
        2
 70
     0
 39
0.003
 10
0.733799
 20
0.012524
 40
0.003
 41
0.003
 10
0.788327
 20
0.029122
 40
0.003
 41
0.003
  0
LWPOLYLINE
  5
3AA
100
AcDbEntity
  8
0
 62
   254
100
AcDbPolyline
 90
        2
 70
     0
 39
0.003
 10
0.788327
 20
0.029122
 40
0.003
 41
0.003
 10
0.143654
 20
0.410996
 40
0.003
 41
0.003
  0
LWPOLYLINE
  5
3AB
100
AcDbEntity
  8
0
 62
   254
100
AcDbPolyline
 90
        2
 70
     0
 39
0.003
 10
0.143654
 20
0.410996
 40
0.003
 41
0.003
 10
0.089126
 20
0.394398
 40
0.003
 41
0.003
  0
LWPOLYLINE
  5
3AC
100
AcDbEntity
  8
0
 62
   254
100
AcDbPolyline
 90
        2
 70
     0
 39
0.003
 10
0.143654
 20
0.410996
 40
0.003
 41
0.003
 10
0.788327
 20
0.029122
 40
0.003
 41
0.003
  0
LWPOLYLINE
  5
3AD
100
AcDbEntity
  8
0
 62
   254
100
AcDbPolyline
 90
        2
 70
     0
 39
0.003
 10
0.788327
 20
0.029122
 40
0.003
 41
0.003
 10
0.846106
 20
0.045028
 40
0.003
 41
0.003
  0
LWPOLYLINE
  5
3AE
100
AcDbEntity
  8
0
 62
   254
100
AcDbPolyline
 90
        2
 70
     0
 39
0.003
 10
0.846106
 20
0.045028
 40
0.003
 41
0.003
 10
0.201433
 20
0.426902
 40
0.003
 41
0.003
  0
LWPOLYLINE
  5
3AF
100
AcDbEntity
  8
0
 62
   254
100
AcDbPolyline
 90
        2
 70
     0
 39
0.003
 10
0.201433
 20
0.426902
 40
0.003
 41
0.003
 10
0.143654
 20
0.410996
 40
0.003
 41
0.003
  0
LWPOLYLINE
  5
3B0
100
AcDbEntity
  8
0
 62
   254
100
AcDbPolyline
 90
        2
 70
     0
 39
0.003
 10
0.201433
 20
0.426902
 40
0.003
 41
0.003
 10
0.846106
 20
0.045028
 40
0.003
 41
0.003
  0
LWPOLYLINE
  5
3B1
100
AcDbEntity
  8
0
 62
   254
100
AcDbPolyline
 90
        2
 70
     0
 39
0.003
 10
0.846106
 20
0.045028
 40
0.003
 41
0.003
 10
0.907264
 20
0.060173
 40
0.003
 41
0.003
  0
LWPOLYLINE
  5
3B2
100
AcDbEntity
  8
0
 62
   254
100
AcDbPolyline
 90
        2
 70
     0
 39
0.003
 10
0.907264
 20
0.060173
 40
0.003
 41
0.003
 10
0.262591
 20
0.442047
 40
0.003
 41
0.003
  0
LWPOLYLINE
  5
3B3
100
AcDbEntity
  8
0
 62
   254
100
AcDbPolyline
 90
        2
 70
     0
 39
0.003
 10
0.262591
 20
0.442047
 40
0.003
 41
0.003
 10
0.201433
 20
0.426902
 40
0.003
 41
0.003
  0
LWPOLYLINE
  5
3B4
100
AcDbEntity
  8
0
 62
   254
100
AcDbPolyline
 90
        2
 70
     0
 39
0.003
 10
0.262591
 20
0.442047
 40
0.003
 41
0.003
 10
0.907264
 20
0.060173
 40
0.003
 41
0.003
  0
LWPOLYLINE
  5
3B5
100
AcDbEntity
  8
0
 62
   254
100
AcDbPolyline
 90
        2
 70
     0
 39
0.003
 10
0.907264
 20
0.060173
 40
0.003
 41
0.003
 10
0.971945
 20
0.074516
 40
0.003
 41
0.003
  0
LWPOLYLINE
  5
3B6
100
AcDbEntity
  8
0
 62
   254
100
AcDbPolyline
 90
        2
 70
     0
 39
0.003
 10
0.971945
 20
0.074516
 40
0.003
 41
0.003
 10
0.327272
 20
0.45639
 40
0.003
 41
0.003
  0
LWPOLYLINE
  5
3B7
100
AcDbEntity
  8
0
 62
   254
100
AcDbPolyline
 90
        2
 70
     0
 39
0.003
 10
0.327272
 20
0.45639
 40
0.003
 41
0.003
 10
0.262591
 20
0.442047
 40
0.003
 41
0.003
  0
LWPOLYLINE
  5
3B8
100
AcDbEntity
  8
0
 62
   254
100
AcDbPolyline
 90
        2
 70
     0
 39
0.003
 10
0.327272
 20
0.45639
 40
0.003
 41
0.003
 10
0.971945
 20
0.074516
 40
0.003
 41
0.003
  0
LWPOLYLINE
  5
3B9
100
AcDbEntity
  8
0
 62
   254
100
AcDbPolyline
 90
        2
 70
     0
 39
0.003
 10
0.971945
 20
0.074516
 40
0.003
 41
0.003
 10
1.040276
 20
0.088
 40
0.003
 41
0.003
  0
LWPOLYLINE
  5
3BA
100
AcDbEntity
  8
0
 62
   254
100
AcDbPolyline
 90
        2
 70
     0
 39
0.003
 10
1.040276
 20
0.088
 40
0.003
 41
0.003
 10
0.395602
 20
0.469874
 40
0.003
 41
0.003
  0
LWPOLYLINE
  5
3BB
100
AcDbEntity
  8
0
 62
   254
100
AcDbPolyline
 90
        2
 70
     0
 39
0.003
 10
0.395602
 20
0.469874
 40
0.003
 41
0.003
 10
0.327272
 20
0.45639
 40
0.003
 41
0.003
  0
LWPOLYLINE
  5
3BC
100
AcDbEntity
  8
0
 62
   254
100
AcDbPolyline
 90
        2
 70
     0
 39
0.003
 10
0.395602
 20
0.469874
 40
0.003
 41
0.003
 10
1.040276
 20
0.088
 40
0.003
 41
0.003
  0
LWPOLYLINE
  5
3BD
100
AcDbEntity
  8
0
 62
   254
100
AcDbPolyline
 90
        2
 70
     0
 39
0.003
 10
1.040276
 20
0.088
 40
0.003
 41
0.003
 10
1.112394
 20
0.100583
 40
0.003
 41
0.003
  0
LWPOLYLINE
  5
3BE
100
AcDbEntity
  8
0
 62
   254
100
AcDbPolyline
 90
        2
 70
     0
 39
0.003
 10
1.112394
 20
0.100583
 40
0.003
 41
0.003
 10
0.46772
 20
0.482457
 40
0.003
 41
0.003
  0
LWPOLYLINE
  5
3BF
100
AcDbEntity
  8
0
 62
   254
100
AcDbPolyline
 90
        2
 70
     0
 39
0.003
 10
0.46772
 20
0.482457
 40
0.003
 41
0.003
 10
0.395602
 20
0.469874
 40
0.003
 41
0.003
  0
LWPOLYLINE
  5
3C0
100
AcDbEntity
  8
0
 62
     0
100
AcDbPolyline
 90
        2
 70
     0
 39
0.003
 10
-1.577988
 20
-0.638543
 40
0.003
 41
0.003
 10
-0.933315
 20
-1.020417
 40
0.003
 41
0.003
  0
LWPOLYLINE
  5
3C1
100
AcDbEntity
  8
0
 62
     0
100
AcDbPolyline
 90
        2
 70
     0
 39
0.003
 10
-0.933315
 20
-1.020417
 40
0.003
 41
0.003
 10
-0.883512
 20
-1.018406
 40
0.003
 41
0.003
  0
LWPOLYLINE
  5
3C2
100
AcDbEntity
  8
0
 62
     0
100
AcDbPolyline
 90
        2
 70
     0
 39
0.003
 10
-0.883512
 20
-1.018406
 40
0.003
 41
0.003
 10
-0.835551
 20
-1.014516
 40
0.003
 41
0.003
  0
LWPOLYLINE
  5
3C3
100
AcDbEntity
  8
0
 62
     0
100
AcDbPolyline
 90
        2
 70
     0
 39
0.003
 10
-0.835551
 20
-1.014516
 40
0.003
 41
0.003
 10
-0.789378
 20
-1.008835
 40
0.003
 41
0.003
  0
LWPOLYLINE
  5
3C4
100
AcDbEntity
  8
0
 62
     0
100
AcDbPolyline
 90
        2
 70
     0
 39
0.003
 10
-0.789378
 20
-1.008835
 40
0.003
 41
0.003
 10
-0.744949
 20
-1.001465
 40
0.003
 41
0.003
  0
LWPOLYLINE
  5
3C5
100
AcDbEntity
  8
0
 62
     0
100
AcDbPolyline
 90
        2
 70
     0
 39
0.003
 10
-0.744949
 20
-1.001465
 40
0.003
 41
0.003
 10
-0.702189
 20
-0.992492
 40
0.003
 41
0.003
  0
LWPOLYLINE
  5
3C6
100
AcDbEntity
  8
0
 62
     0
100
AcDbPolyline
 90
        2
 70
     0
 39
0.003
 10
-0.702189
 20
-0.992492
 40
0.003
 41
0.003
 10
-0.661063
 20
-0.98202
 40
0.003
 41
0.003
  0
LWPOLYLINE
  5
3C7
100
AcDbEntity
  8
0
 62
     0
100
AcDbPolyline
 90
        2
 70
     0
 39
0.003
 10
-0.661063
 20
-0.98202
 40
0.003
 41
0.003
 10
-0.621508
 20
-0.970138
 40
0.003
 41
0.003
  0
LWPOLYLINE
  5
3C8
100
AcDbEntity
  8
0
 62
     0
100
AcDbPolyline
 90
        2
 70
     0
 39
0.003
 10
-0.621508
 20
-0.970138
 40
0.003
 41
0.003
 10
-0.583476
 20
-0.956945
 40
0.003
 41
0.003
  0
LWPOLYLINE
  5
3C9
100
AcDbEntity
  8
0
 62
     0
100
AcDbPolyline
 90
        2
 70
     0
 39
0.003
 10
-0.583476
 20
-0.956945
 40
0.003
 41
0.003
 10
-0.546902
 20
-0.942524
 40
0.003
 41
0.003
  0
LWPOLYLINE
  5
3CA
100
AcDbEntity
  8
0
 62
     0
100
AcDbPolyline
 90
        2
 70
     0
 39
0.003
 10
-0.546902
 20
-0.942524
 40
0.003
 41
0.003
 10
-0.51174
 20
-0.926984
 40
0.003
 41
0.003
  0
LWPOLYLINE
  5
3CB
100
AcDbEntity
  8
0
 62
     0
100
AcDbPolyline
 90
        2
 70
     0
 39
0.003
 10
-0.51174
 20
-0.926984
 40
0.003
 41
0.003
 10
-0.477937
 20
-0.910406
 40
0.003
 41
0.003
  0
LWPOLYLINE
  5
3CC
100
AcDbEntity
  8
0
 62
     0
100
AcDbPolyline
 90
        2
 70
     0
 39
0.003
 10
-0.477937
 20
-0.910406
 40
0.003
 41
0.003
 10
-0.445441
 20
-0.892898
 40
0.003
 41
0.003
  0
LWPOLYLINE
  5
3CD
100
AcDbEntity
  8
0
 62
     0
100
AcDbPolyline
 90
        2
 70
     0
 39
0.003
 10
-0.445441
 20
-0.892898
 40
0.003
 41
0.003
 10
-0.414185
 20
-0.874543
 40
0.003
 41
0.003
  0
LWPOLYLINE
  5
3CE
100
AcDbEntity
  8
0
 62
     0
100
AcDbPolyline
 90
        2
 70
     0
 39
0.003
 10
-0.414185
 20
-0.874543
 40
0.003
 41
0.003
 10
-0.384134
 20
-0.855445
 40
0.003
 41
0.003
  0
LWPOLYLINE
  5
3CF
100
AcDbEntity
  8
0
 62
     0
100
AcDbPolyline
 90
        2
 70
     0
 39
0.003
 10
-0.384134
 20
-0.855445
 40
0.003
 41
0.003
 10
-0.355224
 20
-0.835689
 40
0.003
 41
0.003
  0
LWPOLYLINE
  5
3D0
100
AcDbEntity
  8
0
 62
     0
100
AcDbPolyline
 90
        2
 70
     0
 39
0.003
 10
-0.355224
 20
-0.835689
 40
0.003
 41
0.003
 10
-0.327406
 20
-0.815382
 40
0.003
 41
0.003
  0
LWPOLYLINE
  5
3D1
100
AcDbEntity
  8
0
 62
     0
100
AcDbPolyline
 90
        2
 70
     0
 39
0.003
 10
-0.327406
 20
-0.815382
 40
0.003
 41
0.003
 10
-0.30061
 20
-0.794602
 40
0.003
 41
0.003
  0
LWPOLYLINE
  5
3D2
100
AcDbEntity
  8
0
 62
     0
100
AcDbPolyline
 90
        2
 70
     0
 39
0.003
 10
-0.30061
 20
-0.794602
 40
0.003
 41
0.003
 10
-0.274799
 20
-0.773457
 40
0.003
 41
0.003
  0
LWPOLYLINE
  5
3D3
100
AcDbEntity
  8
0
 62
     0
100
AcDbPolyline
 90
        2
 70
     0
 39
0.003
 10
-0.274799
 20
-0.773457
 40
0.003
 41
0.003
 10
-0.249917
 20
-0.752031
 40
0.003
 41
0.003
  0
LWPOLYLINE
  5
3D4
100
AcDbEntity
  8
0
 62
     0
100
AcDbPolyline
 90
        2
 70
     0
 39
0.003
 10
-0.249917
 20
-0.752031
 40
0.003
 41
0.003
 10
-0.225909
 20
-0.730433
 40
0.003
 41
0.003
  0
LWPOLYLINE
  5
3D5
100
AcDbEntity
  8
0
 62
     0
100
AcDbPolyline
 90
        2
 70
     0
 39
0.003
 10
-0.225909
 20
-0.730433
 40
0.003
 41
0.003
 10
-0.202717
 20
-0.70874
 40
0.003
 41
0.003
  0
LWPOLYLINE
  5
3D6
100
AcDbEntity
  8
0
 62
     0
100
AcDbPolyline
 90
        2
 70
     0
 39
0.003
 10
-0.202717
 20
-0.70874
 40
0.003
 41
0.003
 10
-0.180295
 20
-0.687063
 40
0.003
 41
0.003
  0
LWPOLYLINE
  5
3D7
100
AcDbEntity
  8
0
 62
     0
100
AcDbPolyline
 90
        2
 70
     0
 39
0.003
 10
-0.180295
 20
-0.687063
 40
0.003
 41
0.003
 10
-0.158579
 20
-0.665484
 40
0.003
 41
0.003
  0
LWPOLYLINE
  5
3D8
100
AcDbEntity
  8
0
 62
     0
100
AcDbPolyline
 90
        2
 70
     0
 39
0.003
 10
-0.158579
 20
-0.665484
 40
0.003
 41
0.003
 10
-0.137528
 20
-0.64411
 40
0.003
 41
0.003
  0
LWPOLYLINE
  5
3D9
100
AcDbEntity
  8
0
 62
     0
100
AcDbPolyline
 90
        2
 70
     0
 39
0.003
 10
-0.137528
 20
-0.64411
 40
0.003
 41
0.003
 10
-0.117071
 20
-0.62302
 40
0.003
 41
0.003
  0
LWPOLYLINE
  5
3DA
100
AcDbEntity
  8
0
 62
     0
100
AcDbPolyline
 90
        2
 70
     0
 39
0.003
 10
-0.117071
 20
-0.62302
 40
0.003
 41
0.003
 10
-0.097165
 20
-0.602319
 40
0.003
 41
0.003
  0
LWPOLYLINE
  5
3DB
100
AcDbEntity
  8
0
 62
     0
100
AcDbPolyline
 90
        2
 70
     0
 39
0.003
 10
-0.097165
 20
-0.602319
 40
0.003
 41
0.003
 10
-0.077752
 20
-0.582098
 40
0.003
 41
0.003
  0
LWPOLYLINE
  5
3DC
100
AcDbEntity
  8
0
 62
     0
100
AcDbPolyline
 90
        2
 70
     0
 39
0.003
 10
-0.077752
 20
-0.582098
 40
0.003
 41
0.003
 10
-0.058791
 20
-0.562457
 40
0.003
 41
0.003
  0
LWPOLYLINE
  5
3DD
100
AcDbEntity
  8
0
 62
     0
100
AcDbPolyline
 90
        2
 70
     0
 39
0.003
 10
-0.058791
 20
-0.562457
 40
0.003
 41
0.003
 10
-0.040213
 20
-0.54348
 40
0.003
 41
0.003
  0
LWPOLYLINE
  5
3DE
100
AcDbEntity
  8
0
 62
     0
100
AcDbPolyline
 90
        2
 70
     0
 39
0.003
 10
-0.040213
 20
-0.54348
 40
0.003
 41
0.003
 10
-0.021969
 20
-0.525272
 40
0.003
 41
0.003
  0
LWPOLYLINE
  5
3DF
100
AcDbEntity
  8
0
 62
     0
100
AcDbPolyline
 90
        2
 70
     0
 39
0.003
 10
-0.021969
 20
-0.525272
 40
0.003
 41
0.003
 10
-0.004008
 20
-0.507921
 40
0.003
 41
0.003
  0
LWPOLYLINE
  5
3E0
100
AcDbEntity
  8
0
 62
     0
100
AcDbPolyline
 90
        2
 70
     0
 39
0.003
 10
-0.004008
 20
-0.507921
 40
0.003
 41
0.003
 10
0.013724
 20
-0.491528
 40
0.003
 41
0.003
  0
LWPOLYLINE
  5
3E1
100
AcDbEntity
  8
0
 62
     0
100
AcDbPolyline
 90
        2
 70
     0
 39
0.003
 10
0.013724
 20
-0.491528
 40
0.003
 41
0.003
 10
0.031197
 20
-0.47528
 40
0.003
 41
0.003
  0
LWPOLYLINE
  5
3E2
100
AcDbEntity
  8
0
 62
     0
100
AcDbPolyline
 90
        2
 70
     0
 39
0.003
 10
0.031197
 20
-0.47528
 40
0.003
 41
0.003
 10
0.048402
 20
-0.458358
 40
0.003
 41
0.003
  0
LWPOLYLINE
  5
3E3
100
AcDbEntity
  8
0
 62
     0
100
AcDbPolyline
 90
        2
 70
     0
 39
0.003
 10
0.048402
 20
-0.458358
 40
0.003
 41
0.003
 10
0.065484
 20
-0.440815
 40
0.003
 41
0.003
  0
LWPOLYLINE
  5
3E4
100
AcDbEntity
  8
0
 62
     0
100
AcDbPolyline
 90
        2
 70
     0
 39
0.003
 10
0.065484
 20
-0.440815
 40
0.003
 41
0.003
 10
0.082567
 20
-0.422713
 40
0.003
 41
0.003
  0
LWPOLYLINE
  5
3E5
100
AcDbEntity
  8
0
 62
     0
100
AcDbPolyline
 90
        2
 70
     0
 39
0.003
 10
0.082567
 20
-0.422713
 40
0.003
 41
0.003
 10
0.099799
 20
-0.404087
 40
0.003
 41
0.003
  0
LWPOLYLINE
  5
3E6
100
AcDbEntity
  8
0
 62
     0
100
AcDbPolyline
 90
        2
 70
     0
 39
0.003
 10
0.099799
 20
-0.404087
 40
0.003
 41
0.003
 10
0.117307
 20
-0.385004
 40
0.003
 41
0.003
  0
LWPOLYLINE
  5
3E7
100
AcDbEntity
  8
0
 62
     0
100
AcDbPolyline
 90
        2
 70
     0
 39
0.003
 10
0.117307
 20
-0.385004
 40
0.003
 41
0.003
 10
0.135232
 20
-0.365516
 40
0.003
 41
0.003
  0
LWPOLYLINE
  5
3E8
100
AcDbEntity
  8
0
 62
     0
100
AcDbPolyline
 90
        2
 70
     0
 39
0.003
 10
0.135232
 20
-0.365516
 40
0.003
 41
0.003
 10
0.153701
 20
-0.345661
 40
0.003
 41
0.003
  0
LWPOLYLINE
  5
3E9
100
AcDbEntity
  8
0
 62
     0
100
AcDbPolyline
 90
        2
 70
     0
 39
0.003
 10
0.153701
 20
-0.345661
 40
0.003
 41
0.003
 10
0.172858
 20
-0.325508
 40
0.003
 41
0.003
  0
LWPOLYLINE
  5
3EA
100
AcDbEntity
  8
0
 62
     0
100
AcDbPolyline
 90
        2
 70
     0
 39
0.003
 10
0.172858
 20
-0.325508
 40
0.003
 41
0.003
 10
0.192835
 20
-0.305098
 40
0.003
 41
0.003
  0
LWPOLYLINE
  5
3EB
100
AcDbEntity
  8
0
 62
     0
100
AcDbPolyline
 90
        2
 70
     0
 39
0.003
 10
0.192835
 20
-0.305098
 40
0.003
 41
0.003
 10
0.213764
 20
-0.284492
 40
0.003
 41
0.003
  0
LWPOLYLINE
  5
3EC
100
AcDbEntity
  8
0
 62
     0
100
AcDbPolyline
 90
        2
 70
     0
 39
0.003
 10
0.213764
 20
-0.284492
 40
0.003
 41
0.003
 10
0.235776
 20
-0.263736
 40
0.003
 41
0.003
  0
LWPOLYLINE
  5
3ED
100
AcDbEntity
  8
0
 62
     0
100
AcDbPolyline
 90
        2
 70
     0
 39
0.003
 10
0.235776
 20
-0.263736
 40
0.003
 41
0.003
 10
0.25902
 20
-0.242898
 40
0.003
 41
0.003
  0
LWPOLYLINE
  5
3EE
100
AcDbEntity
  8
0
 62
     0
100
AcDbPolyline
 90
        2
 70
     0
 39
0.003
 10
0.25902
 20
-0.242898
 40
0.003
 41
0.003
 10
0.28361
 20
-0.222008
 40
0.003
 41
0.003
  0
LWPOLYLINE
  5
3EF
100
AcDbEntity
  8
0
 62
     0
100
AcDbPolyline
 90
        2
 70
     0
 39
0.003
 10
0.28361
 20
-0.222008
 40
0.003
 41
0.003
 10
0.309701
 20
-0.201134
 40
0.003
 41
0.003
  0
LWPOLYLINE
  5
3F0
100
AcDbEntity
  8
0
 62
     0
100
AcDbPolyline
 90
        2
 70
     0
 39
0.003
 10
0.309701
 20
-0.201134
 40
0.003
 41
0.003
 10
0.337409
 20
-0.180323
 40
0.003
 41
0.003
  0
LWPOLYLINE
  5
3F1
100
AcDbEntity
  8
0
 62
     0
100
AcDbPolyline
 90
        2
 70
     0
 39
0.003
 10
0.337409
 20
-0.180323
 40
0.003
 41
0.003
 10
0.366894
 20
-0.159642
 40
0.003
 41
0.003
  0
LWPOLYLINE
  5
3F2
100
AcDbEntity
  8
0
 62
     0
100
AcDbPolyline
 90
        2
 70
     0
 39
0.003
 10
0.366894
 20
-0.159642
 40
0.003
 41
0.003
 10
0.398272
 20
-0.139122
 40
0.003
 41
0.003
  0
LWPOLYLINE
  5
3F3
100
AcDbEntity
  8
0
 62
     0
100
AcDbPolyline
 90
        2
 70
     0
 39
0.003
 10
0.398272
 20
-0.139122
 40
0.003
 41
0.003
 10
0.431685
 20
-0.118831
 40
0.003
 41
0.003
  0
LWPOLYLINE
  5
3F4
100
AcDbEntity
  8
0
 62
     0
100
AcDbPolyline
 90
        2
 70
     0
 39
0.003
 10
0.431685
 20
-0.118831
 40
0.003
 41
0.003
 10
0.46726
 20
-0.098811
 40
0.003
 41
0.003
  0
LWPOLYLINE
  5
3F5
100
AcDbEntity
  8
0
 62
     0
100
AcDbPolyline
 90
        2
 70
     0
 39
0.003
 10
0.46726
 20
-0.098811
 40
0.003
 41
0.003
 10
0.505146
 20
-0.07913
 40
0.003
 41
0.003
  0
LWPOLYLINE
  5
3F6
100
AcDbEntity
  8
0
 62
     0
100
AcDbPolyline
 90
        2
 70
     0
 39
0.003
 10
0.505146
 20
-0.07913
 40
0.003
 41
0.003
 10
0.545461
 20
-0.059819
 40
0.003
 41
0.003
  0
LWPOLYLINE
  5
3F7
100
AcDbEntity
  8
0
 62
     0
100
AcDbPolyline
 90
        2
 70
     0
 39
0.003
 10
0.545461
 20
-0.059819
 40
0.003
 41
0.003
 10
0.58835
 20
-0.040949
 40
0.003
 41
0.003
  0
LWPOLYLINE
  5
3F8
100
AcDbEntity
  8
0
 62
     0
100
AcDbPolyline
 90
        2
 70
     0
 39
0.003
 10
0.58835
 20
-0.040949
 40
0.003
 41
0.003
 10
0.633945
 20
-0.022563
 40
0.003
 41
0.003
  0
LWPOLYLINE
  5
3F9
100
AcDbEntity
  8
0
 62
     0
100
AcDbPolyline
 90
        2
 70
     0
 39
0.003
 10
0.633945
 20
-0.022563
 40
0.003
 41
0.003
 10
0.682382
 20
-0.004724
 40
0.003
 41
0.003
  0
LWPOLYLINE
  5
3FA
100
AcDbEntity
  8
0
 62
     0
100
AcDbPolyline
 90
        2
 70
     0
 39
0.003
 10
0.682382
 20
-0.004724
 40
0.003
 41
0.003
 10
0.733799
 20
0.012524
 40
0.003
 41
0.003
  0
LWPOLYLINE
  5
3FB
100
AcDbEntity
  8
0
 62
     0
100
AcDbPolyline
 90
        2
 70
     0
 39
0.003
 10
0.733799
 20
0.012524
 40
0.003
 41
0.003
 10
0.788327
 20
0.029122
 40
0.003
 41
0.003
  0
LWPOLYLINE
  5
3FC
100
AcDbEntity
  8
0
 62
     0
100
AcDbPolyline
 90
        2
 70
     0
 39
0.003
 10
0.788327
 20
0.029122
 40
0.003
 41
0.003
 10
0.846106
 20
0.045028
 40
0.003
 41
0.003
  0
LWPOLYLINE
  5
3FD
100
AcDbEntity
  8
0
 62
     0
100
AcDbPolyline
 90
        2
 70
     0
 39
0.003
 10
0.846106
 20
0.045028
 40
0.003
 41
0.003
 10
0.907264
 20
0.060173
 40
0.003
 41
0.003
  0
LWPOLYLINE
  5
3FE
100
AcDbEntity
  8
0
 62
     0
100
AcDbPolyline
 90
        2
 70
     0
 39
0.003
 10
0.907264
 20
0.060173
 40
0.003
 41
0.003
 10
0.971945
 20
0.074516
 40
0.003
 41
0.003
  0
LWPOLYLINE
  5
3FF
100
AcDbEntity
  8
0
 62
     0
100
AcDbPolyline
 90
        2
 70
     0
 39
0.003
 10
0.971945
 20
0.074516
 40
0.003
 41
0.003
 10
1.040276
 20
0.088
 40
0.003
 41
0.003
  0
LWPOLYLINE
  5
400
100
AcDbEntity
  8
0
 62
     0
100
AcDbPolyline
 90
        2
 70
     0
 39
0.003
 10
1.040276
 20
0.088
 40
0.003
 41
0.003
 10
1.112394
 20
0.100583
 40
0.003
 41
0.003
  0
LWPOLYLINE
  5
401
100
AcDbEntity
  8
0
 62
     0
100
AcDbPolyline
 90
        2
 70
     0
 39
0.003
 10
1.112394
 20
0.100583
 40
0.003
 41
0.003
 10
0.46772
 20
0.482457
 40
0.003
 41
0.003
  0
LWPOLYLINE
  5
402
100
AcDbEntity
  8
0
 62
     0
100
AcDbPolyline
 90
        2
 70
     0
 39
0.003
 10
0.46772
 20
0.482457
 40
0.003
 41
0.003
 10
0.395602
 20
0.469874
 40
0.003
 41
0.003
  0
LWPOLYLINE
  5
403
100
AcDbEntity
  8
0
 62
     0
100
AcDbPolyline
 90
        2
 70
     0
 39
0.003
 10
0.395602
 20
0.469874
 40
0.003
 41
0.003
 10
0.327272
 20
0.45639
 40
0.003
 41
0.003
  0
LWPOLYLINE
  5
404
100
AcDbEntity
  8
0
 62
     0
100
AcDbPolyline
 90
        2
 70
     0
 39
0.003
 10
0.327272
 20
0.45639
 40
0.003
 41
0.003
 10
0.262591
 20
0.442047
 40
0.003
 41
0.003
  0
LWPOLYLINE
  5
405
100
AcDbEntity
  8
0
 62
     0
100
AcDbPolyline
 90
        2
 70
     0
 39
0.003
 10
0.262591
 20
0.442047
 40
0.003
 41
0.003
 10
0.201433
 20
0.426902
 40
0.003
 41
0.003
  0
LWPOLYLINE
  5
406
100
AcDbEntity
  8
0
 62
     0
100
AcDbPolyline
 90
        2
 70
     0
 39
0.003
 10
0.201433
 20
0.426902
 40
0.003
 41
0.003
 10
0.143654
 20
0.410996
 40
0.003
 41
0.003
  0
LWPOLYLINE
  5
407
100
AcDbEntity
  8
0
 62
     0
100
AcDbPolyline
 90
        2
 70
     0
 39
0.003
 10
0.143654
 20
0.410996
 40
0.003
 41
0.003
 10
0.089126
 20
0.394398
 40
0.003
 41
0.003
  0
LWPOLYLINE
  5
408
100
AcDbEntity
  8
0
 62
     0
100
AcDbPolyline
 90
        2
 70
     0
 39
0.003
 10
0.089126
 20
0.394398
 40
0.003
 41
0.003
 10
0.037709
 20
0.37715
 40
0.003
 41
0.003
  0
LWPOLYLINE
  5
409
100
AcDbEntity
  8
0
 62
     0
100
AcDbPolyline
 90
        2
 70
     0
 39
0.003
 10
0.037709
 20
0.37715
 40
0.003
 41
0.003
 10
-0.010728
 20
0.359311
 40
0.003
 41
0.003
  0
LWPOLYLINE
  5
40A
100
AcDbEntity
  8
0
 62
     0
100
AcDbPolyline
 90
        2
 70
     0
 39
0.003
 10
-0.010728
 20
0.359311
 40
0.003
 41
0.003
 10
-0.056323
 20
0.340925
 40
0.003
 41
0.003
  0
LWPOLYLINE
  5
40B
100
AcDbEntity
  8
0
 62
     0
100
AcDbPolyline
 90
        2
 70
     0
 39
0.003
 10
-0.056323
 20
0.340925
 40
0.003
 41
0.003
 10
-0.099213
 20
0.322055
 40
0.003
 41
0.003
  0
LWPOLYLINE
  5
40C
100
AcDbEntity
  8
0
 62
     0
100
AcDbPolyline
 90
        2
 70
     0
 39
0.003
 10
-0.099213
 20
0.322055
 40
0.003
 41
0.003
 10
-0.139528
 20
0.302744
 40
0.003
 41
0.003
  0
LWPOLYLINE
  5
40D
100
AcDbEntity
  8
0
 62
     0
100
AcDbPolyline
 90
        2
 70
     0
 39
0.003
 10
-0.139528
 20
0.302744
 40
0.003
 41
0.003
 10
-0.177413
 20
0.283063
 40
0.003
 41
0.003
  0
LWPOLYLINE
  5
40E
100
AcDbEntity
  8
0
 62
     0
100
AcDbPolyline
 90
        2
 70
     0
 39
0.003
 10
-0.177413
 20
0.283063
 40
0.003
 41
0.003
 10
-0.212988
 20
0.263043
 40
0.003
 41
0.003
  0
LWPOLYLINE
  5
40F
100
AcDbEntity
  8
0
 62
     0
100
AcDbPolyline
 90
        2
 70
     0
 39
0.003
 10
-0.212988
 20
0.263043
 40
0.003
 41
0.003
 10
-0.246402
 20
0.242752
 40
0.003
 41
0.003
  0
LWPOLYLINE
  5
410
100
AcDbEntity
  8
0
 62
     0
100
AcDbPolyline
 90
        2
 70
     0
 39
0.003
 10
-0.246402
 20
0.242752
 40
0.003
 41
0.003
 10
-0.27778
 20
0.222232
 40
0.003
 41
0.003
  0
LWPOLYLINE
  5
411
100
AcDbEntity
  8
0
 62
     0
100
AcDbPolyline
 90
        2
 70
     0
 39
0.003
 10
-0.27778
 20
0.222232
 40
0.003
 41
0.003
 10
-0.307264
 20
0.201551
 40
0.003
 41
0.003
  0
LWPOLYLINE
  5
412
100
AcDbEntity
  8
0
 62
     0
100
AcDbPolyline
 90
        2
 70
     0
 39
0.003
 10
-0.307264
 20
0.201551
 40
0.003
 41
0.003
 10
-0.334972
 20
0.18074
 40
0.003
 41
0.003
  0
LWPOLYLINE
  5
413
100
AcDbEntity
  8
0
 62
     0
100
AcDbPolyline
 90
        2
 70
     0
 39
0.003
 10
-0.334972
 20
0.18074
 40
0.003
 41
0.003
 10
-0.361063
 20
0.159866
 40
0.003
 41
0.003
  0
LWPOLYLINE
  5
414
100
AcDbEntity
  8
0
 62
     0
100
AcDbPolyline
 90
        2
 70
     0
 39
0.003
 10
-0.361063
 20
0.159866
 40
0.003
 41
0.003
 10
-0.385654
 20
0.138976
 40
0.003
 41
0.003
  0
LWPOLYLINE
  5
415
100
AcDbEntity
  8
0
 62
     0
100
AcDbPolyline
 90
        2
 70
     0
 39
0.003
 10
-0.385654
 20
0.138976
 40
0.003
 41
0.003
 10
-0.408898
 20
0.118138
 40
0.003
 41
0.003
  0
LWPOLYLINE
  5
416
100
AcDbEntity
  8
0
 62
     0
100
AcDbPolyline
 90
        2
 70
     0
 39
0.003
 10
-0.408898
 20
0.118138
 40
0.003
 41
0.003
 10
-0.430909
 20
0.097382
 40
0.003
 41
0.003
  0
LWPOLYLINE
  5
417
100
AcDbEntity
  8
0
 62
     0
100
AcDbPolyline
 90
        2
 70
     0
 39
0.003
 10
-0.430909
 20
0.097382
 40
0.003
 41
0.003
 10
-0.451839
 20
0.076776
 40
0.003
 41
0.003
  0
LWPOLYLINE
  5
418
100
AcDbEntity
  8
0
 62
     0
100
AcDbPolyline
 90
        2
 70
     0
 39
0.003
 10
-0.451839
 20
0.076776
 40
0.003
 41
0.003
 10
-0.471815
 20
0.056366
 40
0.003
 41
0.003
  0
LWPOLYLINE
  5
419
100
AcDbEntity
  8
0
 62
     0
100
AcDbPolyline
 90
        2
 70
     0
 39
0.003
 10
-0.471815
 20
0.056366
 40
0.003
 41
0.003
 10
-0.490972
 20
0.036213
 40
0.003
 41
0.003
  0
LWPOLYLINE
  5
41A
100
AcDbEntity
  8
0
 62
     0
100
AcDbPolyline
 90
        2
 70
     0
 39
0.003
 10
-0.490972
 20
0.036213
 40
0.003
 41
0.003
 10
-0.509441
 20
0.016358
 40
0.003
 41
0.003
  0
LWPOLYLINE
  5
41B
100
AcDbEntity
  8
0
 62
     0
100
AcDbPolyline
 90
        2
 70
     0
 39
0.003
 10
-0.509441
 20
0.016358
 40
0.003
 41
0.003
 10
-0.527366
 20
-0.00313
 40
0.003
 41
0.003
  0
LWPOLYLINE
  5
41C
100
AcDbEntity
  8
0
 62
     0
100
AcDbPolyline
 90
        2
 70
     0
 39
0.003
 10
-0.527366
 20
-0.00313
 40
0.003
 41
0.003
 10
-0.544874
 20
-0.022213
 40
0.003
 41
0.003
  0
LWPOLYLINE
  5
41D
100
AcDbEntity
  8
0
 62
     0
100
AcDbPolyline
 90
        2
 70
     0
 39
0.003
 10
-0.544874
 20
-0.022213
 40
0.003
 41
0.003
 10
-0.562106
 20
-0.040839
 40
0.003
 41
0.003
  0
LWPOLYLINE
  5
41E
100
AcDbEntity
  8
0
 62
     0
100
AcDbPolyline
 90
        2
 70
     0
 39
0.003
 10
-0.562106
 20
-0.040839
 40
0.003
 41
0.003
 10
-0.579189
 20
-0.058941
 40
0.003
 41
0.003
  0
LWPOLYLINE
  5
41F
100
AcDbEntity
  8
0
 62
     0
100
AcDbPolyline
 90
        2
 70
     0
 39
0.003
 10
-0.579189
 20
-0.058941
 40
0.003
 41
0.003
 10
-0.596272
 20
-0.076484
 40
0.003
 41
0.003
  0
LWPOLYLINE
  5
420
100
AcDbEntity
  8
0
 62
     0
100
AcDbPolyline
 90
        2
 70
     0
 39
0.003
 10
-0.596272
 20
-0.076484
 40
0.003
 41
0.003
 10
-0.613476
 20
-0.093406
 40
0.003
 41
0.003
  0
LWPOLYLINE
  5
421
100
AcDbEntity
  8
0
 62
     0
100
AcDbPolyline
 90
        2
 70
     0
 39
0.003
 10
-0.613476
 20
-0.093406
 40
0.003
 41
0.003
 10
-0.630949
 20
-0.109654
 40
0.003
 41
0.003
  0
LWPOLYLINE
  5
422
100
AcDbEntity
  8
0
 62
     0
100
AcDbPolyline
 90
        2
 70
     0
 39
0.003
 10
-0.630949
 20
-0.109654
 40
0.003
 41
0.003
 10
-0.648681
 20
-0.126047
 40
0.003
 41
0.003
  0
LWPOLYLINE
  5
423
100
AcDbEntity
  8
0
 62
     0
100
AcDbPolyline
 90
        2
 70
     0
 39
0.003
 10
-0.648681
 20
-0.126047
 40
0.003
 41
0.003
 10
-0.666642
 20
-0.143398
 40
0.003
 41
0.003
  0
LWPOLYLINE
  5
424
100
AcDbEntity
  8
0
 62
     0
100
AcDbPolyline
 90
        2
 70
     0
 39
0.003
 10
-0.666642
 20
-0.143398
 40
0.003
 41
0.003
 10
-0.684886
 20
-0.161606
 40
0.003
 41
0.003
  0
LWPOLYLINE
  5
425
100
AcDbEntity
  8
0
 62
     0
100
AcDbPolyline
 90
        2
 70
     0
 39
0.003
 10
-0.684886
 20
-0.161606
 40
0.003
 41
0.003
 10
-0.703465
 20
-0.180583
 40
0.003
 41
0.003
  0
LWPOLYLINE
  5
426
100
AcDbEntity
  8
0
 62
     0
100
AcDbPolyline
 90
        2
 70
     0
 39
0.003
 10
-0.703465
 20
-0.180583
 40
0.003
 41
0.003
 10
-0.722425
 20
-0.200224
 40
0.003
 41
0.003
  0
LWPOLYLINE
  5
427
100
AcDbEntity
  8
0
 62
     0
100
AcDbPolyline
 90
        2
 70
     0
 39
0.003
 10
-0.722425
 20
-0.200224
 40
0.003
 41
0.003
 10
-0.741839
 20
-0.220445
 40
0.003
 41
0.003
  0
LWPOLYLINE
  5
428
100
AcDbEntity
  8
0
 62
     0
100
AcDbPolyline
 90
        2
 70
     0
 39
0.003
 10
-0.741839
 20
-0.220445
 40
0.003
 41
0.003
 10
-0.761744
 20
-0.241146
 40
0.003
 41
0.003
  0
LWPOLYLINE
  5
429
100
AcDbEntity
  8
0
 62
     0
100
AcDbPolyline
 90
        2
 70
     0
 39
0.003
 10
-0.761744
 20
-0.241146
 40
0.003
 41
0.003
 10
-0.782201
 20
-0.262236
 40
0.003
 41
0.003
  0
LWPOLYLINE
  5
42A
100
AcDbEntity
  8
0
 62
     0
100
AcDbPolyline
 90
        2
 70
     0
 39
0.003
 10
-0.782201
 20
-0.262236
 40
0.003
 41
0.003
 10
-0.803252
 20
-0.28361
 40
0.003
 41
0.003
  0
LWPOLYLINE
  5
42B
100
AcDbEntity
  8
0
 62
     0
100
AcDbPolyline
 90
        2
 70
     0
 39
0.003
 10
-0.803252
 20
-0.28361
 40
0.003
 41
0.003
 10
-0.824969
 20
-0.305189
 40
0.003
 41
0.003
  0
LWPOLYLINE
  5
42C
100
AcDbEntity
  8
0
 62
     0
100
AcDbPolyline
 90
        2
 70
     0
 39
0.003
 10
-0.824969
 20
-0.305189
 40
0.003
 41
0.003
 10
-0.84739
 20
-0.326866
 40
0.003
 41
0.003
  0
LWPOLYLINE
  5
42D
100
AcDbEntity
  8
0
 62
     0
100
AcDbPolyline
 90
        2
 70
     0
 39
0.003
 10
-0.84739
 20
-0.326866
 40
0.003
 41
0.003
 10
-0.870583
 20
-0.348559
 40
0.003
 41
0.003
  0
LWPOLYLINE
  5
42E
100
AcDbEntity
  8
0
 62
     0
100
AcDbPolyline
 90
        2
 70
     0
 39
0.003
 10
-0.870583
 20
-0.348559
 40
0.003
 41
0.003
 10
-0.894591
 20
-0.370157
 40
0.003
 41
0.003
  0
LWPOLYLINE
  5
42F
100
AcDbEntity
  8
0
 62
     0
100
AcDbPolyline
 90
        2
 70
     0
 39
0.003
 10
-0.894591
 20
-0.370157
 40
0.003
 41
0.003
 10
-0.919472
 20
-0.391583
 40
0.003
 41
0.003
  0
LWPOLYLINE
  5
430
100
AcDbEntity
  8
0
 62
     0
100
AcDbPolyline
 90
        2
 70
     0
 39
0.003
 10
-0.919472
 20
-0.391583
 40
0.003
 41
0.003
 10
-0.945283
 20
-0.412728
 40
0.003
 41
0.003
  0
LWPOLYLINE
  5
431
100
AcDbEntity
  8
0
 62
     0
100
AcDbPolyline
 90
        2
 70
     0
 39
0.003
 10
-0.945283
 20
-0.412728
 40
0.003
 41
0.003
 10
-0.972079
 20
-0.433508
 40
0.003
 41
0.003
  0
LWPOLYLINE
  5
432
100
AcDbEntity
  8
0
 62
     0
100
AcDbPolyline
 90
        2
 70
     0
 39
0.003
 10
-0.972079
 20
-0.433508
 40
0.003
 41
0.003
 10
-0.999898
 20
-0.453815
 40
0.003
 41
0.003
  0
LWPOLYLINE
  5
433
100
AcDbEntity
  8
0
 62
     0
100
AcDbPolyline
 90
        2
 70
     0
 39
0.003
 10
-0.999898
 20
-0.453815
 40
0.003
 41
0.003
 10
-1.028807
 20
-0.473571
 40
0.003
 41
0.003
  0
LWPOLYLINE
  5
434
100
AcDbEntity
  8
0
 62
     0
100
AcDbPolyline
 90
        2
 70
     0
 39
0.003
 10
-1.028807
 20
-0.473571
 40
0.003
 41
0.003
 10
-1.058858
 20
-0.492669
 40
0.003
 41
0.003
  0
LWPOLYLINE
  5
435
100
AcDbEntity
  8
0
 62
     0
100
AcDbPolyline
 90
        2
 70
     0
 39
0.003
 10
-1.058858
 20
-0.492669
 40
0.003
 41
0.003
 10
-1.090114
 20
-0.511024
 40
0.003
 41
0.003
  0
LWPOLYLINE
  5
436
100
AcDbEntity
  8
0
 62
     0
100
AcDbPolyline
 90
        2
 70
     0
 39
0.003
 10
-1.090114
 20
-0.511024
 40
0.003
 41
0.003
 10
-1.12261
 20
-0.528531
 40
0.003
 41
0.003
  0
LWPOLYLINE
  5
437
100
AcDbEntity
  8
0
 62
     0
100
AcDbPolyline
 90
        2
 70
     0
 39
0.003
 10
-1.12261
 20
-0.528531
 40
0.003
 41
0.003
 10
-1.156413
 20
-0.54511
 40
0.003
 41
0.003
  0
LWPOLYLINE
  5
438
100
AcDbEntity
  8
0
 62
     0
100
AcDbPolyline
 90
        2
 70
     0
 39
0.003
 10
-1.156413
 20
-0.54511
 40
0.003
 41
0.003
 10
-1.191575
 20
-0.56065
 40
0.003
 41
0.003
  0
LWPOLYLINE
  5
439
100
AcDbEntity
  8
0
 62
     0
100
AcDbPolyline
 90
        2
 70
     0
 39
0.003
 10
-1.191575
 20
-0.56065
 40
0.003
 41
0.003
 10
-1.22815
 20
-0.575071
 40
0.003
 41
0.003
  0
LWPOLYLINE
  5
43A
100
AcDbEntity
  8
0
 62
     0
100
AcDbPolyline
 90
        2
 70
     0
 39
0.003
 10
-1.22815
 20
-0.575071
 40
0.003
 41
0.003
 10
-1.266181
 20
-0.588264
 40
0.003
 41
0.003
  0
LWPOLYLINE
  5
43B
100
AcDbEntity
  8
0
 62
     0
100
AcDbPolyline
 90
        2
 70
     0
 39
0.003
 10
-1.266181
 20
-0.588264
 40
0.003
 41
0.003
 10
-1.305736
 20
-0.600146
 40
0.003
 41
0.003
  0
LWPOLYLINE
  5
43C
100
AcDbEntity
  8
0
 62
     0
100
AcDbPolyline
 90
        2
 70
     0
 39
0.003
 10
-1.305736
 20
-0.600146
 40
0.003
 41
0.003
 10
-1.346862
 20
-0.610618
 40
0.003
 41
0.003
  0
LWPOLYLINE
  5
43D
100
AcDbEntity
  8
0
 62
     0
100
AcDbPolyline
 90
        2
 70
     0
 39
0.003
 10
-1.346862
 20
-0.610618
 40
0.003
 41
0.003
 10
-1.389622
 20
-0.619591
 40
0.003
 41
0.003
  0
LWPOLYLINE
  5
43E
100
AcDbEntity
  8
0
 62
     0
100
AcDbPolyline
 90
        2
 70
     0
 39
0.003
 10
-1.389622
 20
-0.619591
 40
0.003
 41
0.003
 10
-1.434051
 20
-0.626961
 40
0.003
 41
0.003
  0
LWPOLYLINE
  5
43F
100
AcDbEntity
  8
0
 62
     0
100
AcDbPolyline
 90
        2
 70
     0
 39
0.003
 10
-1.434051
 20
-0.626961
 40
0.003
 41
0.003
 10
-1.480224
 20
-0.632642
 40
0.003
 41
0.003
  0
LWPOLYLINE
  5
440
100
AcDbEntity
  8
0
 62
     0
100
AcDbPolyline
 90
        2
 70
     0
 39
0.003
 10
-1.480224
 20
-0.632642
 40
0.003
 41
0.003
 10
-1.528185
 20
-0.636531
 40
0.003
 41
0.003
  0
LWPOLYLINE
  5
441
100
AcDbEntity
  8
0
 62
     0
100
AcDbPolyline
 90
        2
 70
     0
 39
0.003
 10
-1.528185
 20
-0.636531
 40
0.003
 41
0.003
 10
-1.577988
 20
-0.638543
 40
0.003
 41
0.003
  0
LWPOLYLINE
  5
442
100
AcDbEntity
  8
0
 62
   254
100
AcDbPolyline
 90
        2
 70
     0
 39
0.003
 10
0.46772
 20
0.482457
 40
0.003
 41
0.003
 10
1.112394
 20
0.100583
 40
0.003
 41
0.003
  0
LWPOLYLINE
  5
443
100
AcDbEntity
  8
0
 62
   254
100
AcDbPolyline
 90
        2
 70
     0
 39
0.003
 10
1.112394
 20
0.100583
 40
0.003
 41
0.003
 10
1.122874
 20
0.223409
 40
0.003
 41
0.003
  0
LWPOLYLINE
  5
444
100
AcDbEntity
  8
0
 62
   254
100
AcDbPolyline
 90
        2
 70
     0
 39
0.003
 10
1.122874
 20
0.223409
 40
0.003
 41
0.003
 10
0.478201
 20
0.605283
 40
0.003
 41
0.003
  0
LWPOLYLINE
  5
445
100
AcDbEntity
  8
0
 62
   254
100
AcDbPolyline
 90
        2
 70
     0
 39
0.003
 10
0.478201
 20
0.605283
 40
0.003
 41
0.003
 10
0.46772
 20
0.482457
 40
0.003
 41
0.003
  0
LWPOLYLINE
  5
446
100
AcDbEntity
  8
0
 62
     0
100
AcDbPolyline
 90
        2
 70
     0
 39
0.003
 10
0.46772
 20
0.482457
 40
0.003
 41
0.003
 10
1.112394
 20
0.100583
 40
0.003
 41
0.003
  0
LWPOLYLINE
  5
447
100
AcDbEntity
  8
0
 62
     0
100
AcDbPolyline
 90
        2
 70
     0
 39
0.003
 10
1.112394
 20
0.100583
 40
0.003
 41
0.003
 10
1.122874
 20
0.223409
 40
0.003
 41
0.003
  0
LWPOLYLINE
  5
448
100
AcDbEntity
  8
0
 62
     0
100
AcDbPolyline
 90
        2
 70
     0
 39
0.003
 10
1.122874
 20
0.223409
 40
0.003
 41
0.003
 10
0.478201
 20
0.605283
 40
0.003
 41
0.003
  0
LWPOLYLINE
  5
449
100
AcDbEntity
  8
0
 62
     0
100
AcDbPolyline
 90
        2
 70
     0
 39
0.003
 10
0.478201
 20
0.605283
 40
0.003
 41
0.003
 10
0.46772
 20
0.482457
 40
0.003
 41
0.003
  0
LWPOLYLINE
  5
44A
100
AcDbEntity
  8
0
 62
   254
100
AcDbPolyline
 90
        2
 70
     0
 39
0.003
 10
0.478201
 20
0.605283
 40
0.003
 41
0.003
 10
1.122874
 20
0.223409
 40
0.003
 41
0.003
  0
LWPOLYLINE
  5
44B
100
AcDbEntity
  8
0
 62
   254
100
AcDbPolyline
 90
        2
 70
     0
 39
0.003
 10
1.122874
 20
0.223409
 40
0.003
 41
0.003
 10
1.46952
 20
0.263406
 40
0.003
 41
0.003
  0
LWPOLYLINE
  5
44C
100
AcDbEntity
  8
0
 62
   254
100
AcDbPolyline
 90
        2
 70
     0
 39
0.003
 10
1.46952
 20
0.263406
 40
0.003
 41
0.003
 10
0.824846
 20
0.64528
 40
0.003
 41
0.003
  0
LWPOLYLINE
  5
44D
100
AcDbEntity
  8
0
 62
   254
100
AcDbPolyline
 90
        2
 70
     0
 39
0.003
 10
0.824846
 20
0.64528
 40
0.003
 41
0.003
 10
0.478201
 20
0.605283
 40
0.003
 41
0.003
  0
LWPOLYLINE
  5
44E
100
AcDbEntity
  8
0
 62
     0
100
AcDbPolyline
 90
        2
 70
     0
 39
0.003
 10
0.478201
 20
0.605283
 40
0.003
 41
0.003
 10
1.122874
 20
0.223409
 40
0.003
 41
0.003
  0
LWPOLYLINE
  5
44F
100
AcDbEntity
  8
0
 62
     0
100
AcDbPolyline
 90
        2
 70
     0
 39
0.003
 10
1.122874
 20
0.223409
 40
0.003
 41
0.003
 10
1.46952
 20
0.263406
 40
0.003
 41
0.003
  0
LWPOLYLINE
  5
450
100
AcDbEntity
  8
0
 62
     0
100
AcDbPolyline
 90
        2
 70
     0
 39
0.003
 10
1.46952
 20
0.263406
 40
0.003
 41
0.003
 10
0.824846
 20
0.64528
 40
0.003
 41
0.003
  0
LWPOLYLINE
  5
451
100
AcDbEntity
  8
0
 62
     0
100
AcDbPolyline
 90
        2
 70
     0
 39
0.003
 10
0.824846
 20
0.64528
 40
0.003
 41
0.003
 10
0.478201
 20
0.605283
 40
0.003
 41
0.003
  0
LWPOLYLINE
  5
452
100
AcDbEntity
  8
0
 62
   254
100
AcDbPolyline
 90
        2
 70
     0
 39
0.003
 10
0.824846
 20
0.64528
 40
0.003
 41
0.003
 10
1.46952
 20
0.263406
 40
0.003
 41
0.003
  0
LWPOLYLINE
  5
453
100
AcDbEntity
  8
0
 62
   254
100
AcDbPolyline
 90
        2
 70
     0
 39
0.003
 10
1.46952
 20
0.263406
 40
0.003
 41
0.003
 10
1.490827
 20
0.432
 40
0.003
 41
0.003
  0
LWPOLYLINE
  5
454
100
AcDbEntity
  8
0
 62
   254
100
AcDbPolyline
 90
        2
 70
     0
 39
0.003
 10
1.490827
 20
0.432
 40
0.003
 41
0.003
 10
0.846154
 20
0.813874
 40
0.003
 41
0.003
  0
LWPOLYLINE
  5
455
100
AcDbEntity
  8
0
 62
   254
100
AcDbPolyline
 90
        2
 70
     0
 39
0.003
 10
0.846154
 20
0.813874
 40
0.003
 41
0.003
 10
0.824846
 20
0.64528
 40
0.003
 41
0.003
  0
LWPOLYLINE
  5
456
100
AcDbEntity
  8
0
 62
     0
100
AcDbPolyline
 90
        2
 70
     0
 39
0.003
 10
0.824846
 20
0.64528
 40
0.003
 41
0.003
 10
1.46952
 20
0.263406
 40
0.003
 41
0.003
  0
LWPOLYLINE
  5
457
100
AcDbEntity
  8
0
 62
     0
100
AcDbPolyline
 90
        2
 70
     0
 39
0.003
 10
1.46952
 20
0.263406
 40
0.003
 41
0.003
 10
1.490827
 20
0.432
 40
0.003
 41
0.003
  0
LWPOLYLINE
  5
458
100
AcDbEntity
  8
0
 62
     0
100
AcDbPolyline
 90
        2
 70
     0
 39
0.003
 10
1.490827
 20
0.432
 40
0.003
 41
0.003
 10
0.846154
 20
0.813874
 40
0.003
 41
0.003
  0
LWPOLYLINE
  5
459
100
AcDbEntity
  8
0
 62
     0
100
AcDbPolyline
 90
        2
 70
     0
 39
0.003
 10
0.846154
 20
0.813874
 40
0.003
 41
0.003
 10
0.824846
 20
0.64528
 40
0.003
 41
0.003
  0
LWPOLYLINE
  5
45A
100
AcDbEntity
  8
0
 62
   254
100
AcDbPolyline
 90
        2
 70
     0
 39
0.003
 10
0.846154
 20
0.813874
 40
0.003
 41
0.003
 10
1.490827
 20
0.432
 40
0.003
 41
0.003
  0
LWPOLYLINE
  5
45B
100
AcDbEntity
  8
0
 62
   254
100
AcDbPolyline
 90
        2
 70
     0
 39
0.003
 10
1.490827
 20
0.432
 40
0.003
 41
0.003
 10
1.513421
 20
0.433669
 40
0.003
 41
0.003
  0
LWPOLYLINE
  5
45C
100
AcDbEntity
  8
0
 62
   254
100
AcDbPolyline
 90
        2
 70
     0
 39
0.003
 10
1.513421
 20
0.433669
 40
0.003
 41
0.003
 10
0.868748
 20
0.815543
 40
0.003
 41
0.003
  0
LWPOLYLINE
  5
45D
100
AcDbEntity
  8
0
 62
   254
100
AcDbPolyline
 90
        2
 70
     0
 39
0.003
 10
0.868748
 20
0.815543
 40
0.003
 41
0.003
 10
0.846154
 20
0.813874
 40
0.003
 41
0.003
  0
LWPOLYLINE
  5
45E
100
AcDbEntity
  8
0
 62
   254
100
AcDbPolyline
 90
        2
 70
     0
 39
0.003
 10
0.868748
 20
0.815543
 40
0.003
 41
0.003
 10
1.513421
 20
0.433669
 40
0.003
 41
0.003
  0
LWPOLYLINE
  5
45F
100
AcDbEntity
  8
0
 62
   254
100
AcDbPolyline
 90
        2
 70
     0
 39
0.003
 10
1.513421
 20
0.433669
 40
0.003
 41
0.003
 10
1.537087
 20
0.435587
 40
0.003
 41
0.003
  0
LWPOLYLINE
  5
460
100
AcDbEntity
  8
0
 62
   254
100
AcDbPolyline
 90
        2
 70
     0
 39
0.003
 10
1.537087
 20
0.435587
 40
0.003
 41
0.003
 10
0.892413
 20
0.817461
 40
0.003
 41
0.003
  0
LWPOLYLINE
  5
461
100
AcDbEntity
  8
0
 62
   254
100
AcDbPolyline
 90
        2
 70
     0
 39
0.003
 10
0.892413
 20
0.817461
 40
0.003
 41
0.003
 10
0.868748
 20
0.815543
 40
0.003
 41
0.003
  0
LWPOLYLINE
  5
462
100
AcDbEntity
  8
0
 62
   254
100
AcDbPolyline
 90
        2
 70
     0
 39
0.003
 10
0.892413
 20
0.817461
 40
0.003
 41
0.003
 10
1.537087
 20
0.435587
 40
0.003
 41
0.003
  0
LWPOLYLINE
  5
463
100
AcDbEntity
  8
0
 62
   254
100
AcDbPolyline
 90
        2
 70
     0
 39
0.003
 10
1.537087
 20
0.435587
 40
0.003
 41
0.003
 10
1.561701
 20
0.437803
 40
0.003
 41
0.003
  0
LWPOLYLINE
  5
464
100
AcDbEntity
  8
0
 62
   254
100
AcDbPolyline
 90
        2
 70
     0
 39
0.003
 10
1.561701
 20
0.437803
 40
0.003
 41
0.003
 10
0.917028
 20
0.819677
 40
0.003
 41
0.003
  0
LWPOLYLINE
  5
465
100
AcDbEntity
  8
0
 62
   254
100
AcDbPolyline
 90
        2
 70
     0
 39
0.003
 10
0.917028
 20
0.819677
 40
0.003
 41
0.003
 10
0.892413
 20
0.817461
 40
0.003
 41
0.003
  0
LWPOLYLINE
  5
466
100
AcDbEntity
  8
0
 62
   254
100
AcDbPolyline
 90
        2
 70
     0
 39
0.003
 10
0.917028
 20
0.819677
 40
0.003
 41
0.003
 10
1.561701
 20
0.437803
 40
0.003
 41
0.003
  0
LWPOLYLINE
  5
467
100
AcDbEntity
  8
0
 62
   254
100
AcDbPolyline
 90
        2
 70
     0
 39
0.003
 10
1.561701
 20
0.437803
 40
0.003
 41
0.003
 10
1.587161
 20
0.440386
 40
0.003
 41
0.003
  0
LWPOLYLINE
  5
468
100
AcDbEntity
  8
0
 62
   254
100
AcDbPolyline
 90
        2
 70
     0
 39
0.003
 10
1.587161
 20
0.440386
 40
0.003
 41
0.003
 10
0.942488
 20
0.82226
 40
0.003
 41
0.003
  0
LWPOLYLINE
  5
469
100
AcDbEntity
  8
0
 62
   254
100
AcDbPolyline
 90
        2
 70
     0
 39
0.003
 10
0.942488
 20
0.82226
 40
0.003
 41
0.003
 10
0.917028
 20
0.819677
 40
0.003
 41
0.003
  0
LWPOLYLINE
  5
46A
100
AcDbEntity
  8
0
 62
   254
100
AcDbPolyline
 90
        2
 70
     0
 39
0.003
 10
0.942488
 20
0.82226
 40
0.003
 41
0.003
 10
1.587161
 20
0.440386
 40
0.003
 41
0.003
  0
LWPOLYLINE
  5
46B
100
AcDbEntity
  8
0
 62
   254
100
AcDbPolyline
 90
        2
 70
     0
 39
0.003
 10
1.587161
 20
0.440386
 40
0.003
 41
0.003
 10
1.613335
 20
0.443378
 40
0.003
 41
0.003
  0
LWPOLYLINE
  5
46C
100
AcDbEntity
  8
0
 62
   254
100
AcDbPolyline
 90
        2
 70
     0
 39
0.003
 10
1.613335
 20
0.443378
 40
0.003
 41
0.003
 10
0.968661
 20
0.825252
 40
0.003
 41
0.003
  0
LWPOLYLINE
  5
46D
100
AcDbEntity
  8
0
 62
   254
100
AcDbPolyline
 90
        2
 70
     0
 39
0.003
 10
0.968661
 20
0.825252
 40
0.003
 41
0.003
 10
0.942488
 20
0.82226
 40
0.003
 41
0.003
  0
LWPOLYLINE
  5
46E
100
AcDbEntity
  8
0
 62
   254
100
AcDbPolyline
 90
        2
 70
     0
 39
0.003
 10
0.968661
 20
0.825252
 40
0.003
 41
0.003
 10
1.613335
 20
0.443378
 40
0.003
 41
0.003
  0
LWPOLYLINE
  5
46F
100
AcDbEntity
  8
0
 62
   254
100
AcDbPolyline
 90
        2
 70
     0
 39
0.003
 10
1.613335
 20
0.443378
 40
0.003
 41
0.003
 10
1.640126
 20
0.44685
 40
0.003
 41
0.003
  0
LWPOLYLINE
  5
470
100
AcDbEntity
  8
0
 62
   254
100
AcDbPolyline
 90
        2
 70
     0
 39
0.003
 10
1.640126
 20
0.44685
 40
0.003
 41
0.003
 10
0.995453
 20
0.828724
 40
0.003
 41
0.003
  0
LWPOLYLINE
  5
471
100
AcDbEntity
  8
0
 62
   254
100
AcDbPolyline
 90
        2
 70
     0
 39
0.003
 10
0.995453
 20
0.828724
 40
0.003
 41
0.003
 10
0.968661
 20
0.825252
 40
0.003
 41
0.003
  0
LWPOLYLINE
  5
472
100
AcDbEntity
  8
0
 62
   254
100
AcDbPolyline
 90
        2
 70
     0
 39
0.003
 10
0.995453
 20
0.828724
 40
0.003
 41
0.003
 10
1.640126
 20
0.44685
 40
0.003
 41
0.003
  0
LWPOLYLINE
  5
473
100
AcDbEntity
  8
0
 62
   254
100
AcDbPolyline
 90
        2
 70
     0
 39
0.003
 10
1.640126
 20
0.44685
 40
0.003
 41
0.003
 10
1.667402
 20
0.450854
 40
0.003
 41
0.003
  0
LWPOLYLINE
  5
474
100
AcDbEntity
  8
0
 62
   254
100
AcDbPolyline
 90
        2
 70
     0
 39
0.003
 10
1.667402
 20
0.450854
 40
0.003
 41
0.003
 10
1.022728
 20
0.832728
 40
0.003
 41
0.003
  0
LWPOLYLINE
  5
475
100
AcDbEntity
  8
0
 62
   254
100
AcDbPolyline
 90
        2
 70
     0
 39
0.003
 10
1.022728
 20
0.832728
 40
0.003
 41
0.003
 10
0.995453
 20
0.828724
 40
0.003
 41
0.003
  0
LWPOLYLINE
  5
476
100
AcDbEntity
  8
0
 62
   254
100
AcDbPolyline
 90
        2
 70
     0
 39
0.003
 10
1.022728
 20
0.832728
 40
0.003
 41
0.003
 10
1.667402
 20
0.450854
 40
0.003
 41
0.003
  0
LWPOLYLINE
  5
477
100
AcDbEntity
  8
0
 62
   254
100
AcDbPolyline
 90
        2
 70
     0
 39
0.003
 10
1.667402
 20
0.450854
 40
0.003
 41
0.003
 10
1.695067
 20
0.455461
 40
0.003
 41
0.003
  0
LWPOLYLINE
  5
478
100
AcDbEntity
  8
0
 62
   254
100
AcDbPolyline
 90
        2
 70
     0
 39
0.003
 10
1.695067
 20
0.455461
 40
0.003
 41
0.003
 10
1.050394
 20
0.837335
 40
0.003
 41
0.003
  0
LWPOLYLINE
  5
479
100
AcDbEntity
  8
0
 62
   254
100
AcDbPolyline
 90
        2
 70
     0
 39
0.003
 10
1.050394
 20
0.837335
 40
0.003
 41
0.003
 10
1.022728
 20
0.832728
 40
0.003
 41
0.003
  0
LWPOLYLINE
  5
47A
100
AcDbEntity
  8
0
 62
   254
100
AcDbPolyline
 90
        2
 70
     0
 39
0.003
 10
1.050394
 20
0.837335
 40
0.003
 41
0.003
 10
1.695067
 20
0.455461
 40
0.003
 41
0.003
  0
LWPOLYLINE
  5
47B
100
AcDbEntity
  8
0
 62
   254
100
AcDbPolyline
 90
        2
 70
     0
 39
0.003
 10
1.695067
 20
0.455461
 40
0.003
 41
0.003
 10
1.722984
 20
0.460709
 40
0.003
 41
0.003
  0
LWPOLYLINE
  5
47C
100
AcDbEntity
  8
0
 62
   254
100
AcDbPolyline
 90
        2
 70
     0
 39
0.003
 10
1.722984
 20
0.460709
 40
0.003
 41
0.003
 10
1.078311
 20
0.842583
 40
0.003
 41
0.003
  0
LWPOLYLINE
  5
47D
100
AcDbEntity
  8
0
 62
   254
100
AcDbPolyline
 90
        2
 70
     0
 39
0.003
 10
1.078311
 20
0.842583
 40
0.003
 41
0.003
 10
1.050394
 20
0.837335
 40
0.003
 41
0.003
  0
LWPOLYLINE
  5
47E
100
AcDbEntity
  8
0
 62
   254
100
AcDbPolyline
 90
        2
 70
     0
 39
0.003
 10
1.078311
 20
0.842583
 40
0.003
 41
0.003
 10
1.722984
 20
0.460709
 40
0.003
 41
0.003
  0
LWPOLYLINE
  5
47F
100
AcDbEntity
  8
0
 62
   254
100
AcDbPolyline
 90
        2
 70
     0
 39
0.003
 10
1.722984
 20
0.460709
 40
0.003
 41
0.003
 10
1.751055
 20
0.466673
 40
0.003
 41
0.003
  0
LWPOLYLINE
  5
480
100
AcDbEntity
  8
0
 62
   254
100
AcDbPolyline
 90
        2
 70
     0
 39
0.003
 10
1.751055
 20
0.466673
 40
0.003
 41
0.003
 10
1.106382
 20
0.848547
 40
0.003
 41
0.003
  0
LWPOLYLINE
  5
481
100
AcDbEntity
  8
0
 62
   254
100
AcDbPolyline
 90
        2
 70
     0
 39
0.003
 10
1.106382
 20
0.848547
 40
0.003
 41
0.003
 10
1.078311
 20
0.842583
 40
0.003
 41
0.003
  0
LWPOLYLINE
  5
482
100
AcDbEntity
  8
0
 62
   254
100
AcDbPolyline
 90
        2
 70
     0
 39
0.003
 10
1.106382
 20
0.848547
 40
0.003
 41
0.003
 10
1.751055
 20
0.466673
 40
0.003
 41
0.003
  0
LWPOLYLINE
  5
483
100
AcDbEntity
  8
0
 62
   254
100
AcDbPolyline
 90
        2
 70
     0
 39
0.003
 10
1.751055
 20
0.466673
 40
0.003
 41
0.003
 10
1.779161
 20
0.473402
 40
0.003
 41
0.003
  0
LWPOLYLINE
  5
484
100
AcDbEntity
  8
0
 62
   254
100
AcDbPolyline
 90
        2
 70
     0
 39
0.003
 10
1.779161
 20
0.473402
 40
0.003
 41
0.003
 10
1.134488
 20
0.855276
 40
0.003
 41
0.003
  0
LWPOLYLINE
  5
485
100
AcDbEntity
  8
0
 62
   254
100
AcDbPolyline
 90
        2
 70
     0
 39
0.003
 10
1.134488
 20
0.855276
 40
0.003
 41
0.003
 10
1.106382
 20
0.848547
 40
0.003
 41
0.003
  0
LWPOLYLINE
  5
486
100
AcDbEntity
  8
0
 62
   254
100
AcDbPolyline
 90
        2
 70
     0
 39
0.003
 10
1.134488
 20
0.855276
 40
0.003
 41
0.003
 10
1.779161
 20
0.473402
 40
0.003
 41
0.003
  0
LWPOLYLINE
  5
487
100
AcDbEntity
  8
0
 62
   254
100
AcDbPolyline
 90
        2
 70
     0
 39
0.003
 10
1.779161
 20
0.473402
 40
0.003
 41
0.003
 10
1.807189
 20
0.480965
 40
0.003
 41
0.003
  0
LWPOLYLINE
  5
488
100
AcDbEntity
  8
0
 62
   254
100
AcDbPolyline
 90
        2
 70
     0
 39
0.003
 10
1.807189
 20
0.480965
 40
0.003
 41
0.003
 10
1.162516
 20
0.862839
 40
0.003
 41
0.003
  0
LWPOLYLINE
  5
489
100
AcDbEntity
  8
0
 62
   254
100
AcDbPolyline
 90
        2
 70
     0
 39
0.003
 10
1.162516
 20
0.862839
 40
0.003
 41
0.003
 10
1.134488
 20
0.855276
 40
0.003
 41
0.003
  0
LWPOLYLINE
  5
48A
100
AcDbEntity
  8
0
 62
   254
100
AcDbPolyline
 90
        2
 70
     0
 39
0.003
 10
1.162516
 20
0.862839
 40
0.003
 41
0.003
 10
1.807189
 20
0.480965
 40
0.003
 41
0.003
  0
LWPOLYLINE
  5
48B
100
AcDbEntity
  8
0
 62
   254
100
AcDbPolyline
 90
        2
 70
     0
 39
0.003
 10
1.807189
 20
0.480965
 40
0.003
 41
0.003
 10
1.835012
 20
0.489409
 40
0.003
 41
0.003
  0
LWPOLYLINE
  5
48C
100
AcDbEntity
  8
0
 62
   254
100
AcDbPolyline
 90
        2
 70
     0
 39
0.003
 10
1.835012
 20
0.489409
 40
0.003
 41
0.003
 10
1.190339
 20
0.871283
 40
0.003
 41
0.003
  0
LWPOLYLINE
  5
48D
100
AcDbEntity
  8
0
 62
   254
100
AcDbPolyline
 90
        2
 70
     0
 39
0.003
 10
1.190339
 20
0.871283
 40
0.003
 41
0.003
 10
1.162516
 20
0.862839
 40
0.003
 41
0.003
  0
LWPOLYLINE
  5
48E
100
AcDbEntity
  8
0
 62
   254
100
AcDbPolyline
 90
        2
 70
     0
 39
0.003
 10
1.190339
 20
0.871283
 40
0.003
 41
0.003
 10
1.835012
 20
0.489409
 40
0.003
 41
0.003
  0
LWPOLYLINE
  5
48F
100
AcDbEntity
  8
0
 62
   254
100
AcDbPolyline
 90
        2
 70
     0
 39
0.003
 10
1.835012
 20
0.489409
 40
0.003
 41
0.003
 10
1.862535
 20
0.498803
 40
0.003
 41
0.003
  0
LWPOLYLINE
  5
490
100
AcDbEntity
  8
0
 62
   254
100
AcDbPolyline
 90
        2
 70
     0
 39
0.003
 10
1.862535
 20
0.498803
 40
0.003
 41
0.003
 10
1.217862
 20
0.880677
 40
0.003
 41
0.003
  0
LWPOLYLINE
  5
491
100
AcDbEntity
  8
0
 62
   254
100
AcDbPolyline
 90
        2
 70
     0
 39
0.003
 10
1.217862
 20
0.880677
 40
0.003
 41
0.003
 10
1.190339
 20
0.871283
 40
0.003
 41
0.003
  0
LWPOLYLINE
  5
492
100
AcDbEntity
  8
0
 62
   254
100
AcDbPolyline
 90
        2
 70
     0
 39
0.003
 10
1.217862
 20
0.880677
 40
0.003
 41
0.003
 10
1.862535
 20
0.498803
 40
0.003
 41
0.003
  0
LWPOLYLINE
  5
493
100
AcDbEntity
  8
0
 62
   254
100
AcDbPolyline
 90
        2
 70
     0
 39
0.003
 10
1.862535
 20
0.498803
 40
0.003
 41
0.003
 10
1.889634
 20
0.509197
 40
0.003
 41
0.003
  0
LWPOLYLINE
  5
494
100
AcDbEntity
  8
0
 62
   254
100
AcDbPolyline
 90
        2
 70
     0
 39
0.003
 10
1.889634
 20
0.509197
 40
0.003
 41
0.003
 10
1.244961
 20
0.891071
 40
0.003
 41
0.003
  0
LWPOLYLINE
  5
495
100
AcDbEntity
  8
0
 62
   254
100
AcDbPolyline
 90
        2
 70
     0
 39
0.003
 10
1.244961
 20
0.891071
 40
0.003
 41
0.003
 10
1.217862
 20
0.880677
 40
0.003
 41
0.003
  0
LWPOLYLINE
  5
496
100
AcDbEntity
  8
0
 62
   254
100
AcDbPolyline
 90
        2
 70
     0
 39
0.003
 10
1.244961
 20
0.891071
 40
0.003
 41
0.003
 10
1.889634
 20
0.509197
 40
0.003
 41
0.003
  0
LWPOLYLINE
  5
497
100
AcDbEntity
  8
0
 62
   254
100
AcDbPolyline
 90
        2
 70
     0
 39
0.003
 10
1.889634
 20
0.509197
 40
0.003
 41
0.003
 10
1.916193
 20
0.520661
 40
0.003
 41
0.003
  0
LWPOLYLINE
  5
498
100
AcDbEntity
  8
0
 62
   254
100
AcDbPolyline
 90
        2
 70
     0
 39
0.003
 10
1.916193
 20
0.520661
 40
0.003
 41
0.003
 10
1.27152
 20
0.902535
 40
0.003
 41
0.003
  0
LWPOLYLINE
  5
499
100
AcDbEntity
  8
0
 62
   254
100
AcDbPolyline
 90
        2
 70
     0
 39
0.003
 10
1.27152
 20
0.902535
 40
0.003
 41
0.003
 10
1.244961
 20
0.891071
 40
0.003
 41
0.003
  0
LWPOLYLINE
  5
49A
100
AcDbEntity
  8
0
 62
   254
100
AcDbPolyline
 90
        2
 70
     0
 39
0.003
 10
1.27152
 20
0.902535
 40
0.003
 41
0.003
 10
1.916193
 20
0.520661
 40
0.003
 41
0.003
  0
LWPOLYLINE
  5
49B
100
AcDbEntity
  8
0
 62
   254
100
AcDbPolyline
 90
        2
 70
     0
 39
0.003
 10
1.916193
 20
0.520661
 40
0.003
 41
0.003
 10
1.942087
 20
0.533236
 40
0.003
 41
0.003
  0
LWPOLYLINE
  5
49C
100
AcDbEntity
  8
0
 62
   254
100
AcDbPolyline
 90
        2
 70
     0
 39
0.003
 10
1.942087
 20
0.533236
 40
0.003
 41
0.003
 10
1.297413
 20
0.91511
 40
0.003
 41
0.003
  0
LWPOLYLINE
  5
49D
100
AcDbEntity
  8
0
 62
   254
100
AcDbPolyline
 90
        2
 70
     0
 39
0.003
 10
1.297413
 20
0.91511
 40
0.003
 41
0.003
 10
1.27152
 20
0.902535
 40
0.003
 41
0.003
  0
LWPOLYLINE
  5
49E
100
AcDbEntity
  8
0
 62
   254
100
AcDbPolyline
 90
        2
 70
     0
 39
0.003
 10
1.297413
 20
0.91511
 40
0.003
 41
0.003
 10
1.942087
 20
0.533236
 40
0.003
 41
0.003
  0
LWPOLYLINE
  5
49F
100
AcDbEntity
  8
0
 62
   254
100
AcDbPolyline
 90
        2
 70
     0
 39
0.003
 10
1.942087
 20
0.533236
 40
0.003
 41
0.003
 10
1.96722
 20
0.546996
 40
0.003
 41
0.003
  0
LWPOLYLINE
  5
4A0
100
AcDbEntity
  8
0
 62
   254
100
AcDbPolyline
 90
        2
 70
     0
 39
0.003
 10
1.96722
 20
0.546996
 40
0.003
 41
0.003
 10
1.322547
 20
0.92887
 40
0.003
 41
0.003
  0
LWPOLYLINE
  5
4A1
100
AcDbEntity
  8
0
 62
   254
100
AcDbPolyline
 90
        2
 70
     0
 39
0.003
 10
1.322547
 20
0.92887
 40
0.003
 41
0.003
 10
1.297413
 20
0.91511
 40
0.003
 41
0.003
  0
LWPOLYLINE
  5
4A2
100
AcDbEntity
  8
0
 62
   254
100
AcDbPolyline
 90
        2
 70
     0
 39
0.003
 10
1.322547
 20
0.92887
 40
0.003
 41
0.003
 10
1.96722
 20
0.546996
 40
0.003
 41
0.003
  0
LWPOLYLINE
  5
4A3
100
AcDbEntity
  8
0
 62
   254
100
AcDbPolyline
 90
        2
 70
     0
 39
0.003
 10
1.96722
 20
0.546996
 40
0.003
 41
0.003
 10
1.991465
 20
0.561992
 40
0.003
 41
0.003
  0
LWPOLYLINE
  5
4A4
100
AcDbEntity
  8
0
 62
   254
100
AcDbPolyline
 90
        2
 70
     0
 39
0.003
 10
1.991465
 20
0.561992
 40
0.003
 41
0.003
 10
1.346791
 20
0.943866
 40
0.003
 41
0.003
  0
LWPOLYLINE
  5
4A5
100
AcDbEntity
  8
0
 62
   254
100
AcDbPolyline
 90
        2
 70
     0
 39
0.003
 10
1.346791
 20
0.943866
 40
0.003
 41
0.003
 10
1.322547
 20
0.92887
 40
0.003
 41
0.003
  0
LWPOLYLINE
  5
4A6
100
AcDbEntity
  8
0
 62
   254
100
AcDbPolyline
 90
        2
 70
     0
 39
0.003
 10
1.346791
 20
0.943866
 40
0.003
 41
0.003
 10
1.991465
 20
0.561992
 40
0.003
 41
0.003
  0
LWPOLYLINE
  5
4A7
100
AcDbEntity
  8
0
 62
   254
100
AcDbPolyline
 90
        2
 70
     0
 39
0.003
 10
1.991465
 20
0.561992
 40
0.003
 41
0.003
 10
2.014717
 20
0.578287
 40
0.003
 41
0.003
  0
LWPOLYLINE
  5
4A8
100
AcDbEntity
  8
0
 62
   254
100
AcDbPolyline
 90
        2
 70
     0
 39
0.003
 10
2.014717
 20
0.578287
 40
0.003
 41
0.003
 10
1.370043
 20
0.960161
 40
0.003
 41
0.003
  0
LWPOLYLINE
  5
4A9
100
AcDbEntity
  8
0
 62
   254
100
AcDbPolyline
 90
        2
 70
     0
 39
0.003
 10
1.370043
 20
0.960161
 40
0.003
 41
0.003
 10
1.346791
 20
0.943866
 40
0.003
 41
0.003
  0
LWPOLYLINE
  5
4AA
100
AcDbEntity
  8
0
 62
   254
100
AcDbPolyline
 90
        2
 70
     0
 39
0.003
 10
1.370043
 20
0.960161
 40
0.003
 41
0.003
 10
2.014717
 20
0.578287
 40
0.003
 41
0.003
  0
LWPOLYLINE
  5
4AB
100
AcDbEntity
  8
0
 62
   254
100
AcDbPolyline
 90
        2
 70
     0
 39
0.003
 10
2.014717
 20
0.578287
 40
0.003
 41
0.003
 10
2.03685
 20
0.595933
 40
0.003
 41
0.003
  0
LWPOLYLINE
  5
4AC
100
AcDbEntity
  8
0
 62
   254
100
AcDbPolyline
 90
        2
 70
     0
 39
0.003
 10
2.03685
 20
0.595933
 40
0.003
 41
0.003
 10
1.392177
 20
0.977807
 40
0.003
 41
0.003
  0
LWPOLYLINE
  5
4AD
100
AcDbEntity
  8
0
 62
   254
100
AcDbPolyline
 90
        2
 70
     0
 39
0.003
 10
1.392177
 20
0.977807
 40
0.003
 41
0.003
 10
1.370043
 20
0.960161
 40
0.003
 41
0.003
  0
LWPOLYLINE
  5
4AE
100
AcDbEntity
  8
0
 62
   254
100
AcDbPolyline
 90
        2
 70
     0
 39
0.003
 10
1.392177
 20
0.977807
 40
0.003
 41
0.003
 10
2.03685
 20
0.595933
 40
0.003
 41
0.003
  0
LWPOLYLINE
  5
4AF
100
AcDbEntity
  8
0
 62
   254
100
AcDbPolyline
 90
        2
 70
     0
 39
0.003
 10
2.03685
 20
0.595933
 40
0.003
 41
0.003
 10
2.05776
 20
0.614996
 40
0.003
 41
0.003
  0
LWPOLYLINE
  5
4B0
100
AcDbEntity
  8
0
 62
   254
100
AcDbPolyline
 90
        2
 70
     0
 39
0.003
 10
2.05776
 20
0.614996
 40
0.003
 41
0.003
 10
1.413087
 20
0.99687
 40
0.003
 41
0.003
  0
LWPOLYLINE
  5
4B1
100
AcDbEntity
  8
0
 62
   254
100
AcDbPolyline
 90
        2
 70
     0
 39
0.003
 10
1.413087
 20
0.99687
 40
0.003
 41
0.003
 10
1.392177
 20
0.977807
 40
0.003
 41
0.003
  0
LWPOLYLINE
  5
4B2
100
AcDbEntity
  8
0
 62
   254
100
AcDbPolyline
 90
        2
 70
     0
 39
0.003
 10
1.413087
 20
0.99687
 40
0.003
 41
0.003
 10
2.05776
 20
0.614996
 40
0.003
 41
0.003
  0
LWPOLYLINE
  5
4B3
100
AcDbEntity
  8
0
 62
   254
100
AcDbPolyline
 90
        2
 70
     0
 39
0.003
 10
2.05776
 20
0.614996
 40
0.003
 41
0.003
 10
2.077323
 20
0.635531
 40
0.003
 41
0.003
  0
LWPOLYLINE
  5
4B4
100
AcDbEntity
  8
0
 62
   254
100
AcDbPolyline
 90
        2
 70
     0
 39
0.003
 10
2.077323
 20
0.635531
 40
0.003
 41
0.003
 10
1.43265
 20
1.017406
 40
0.003
 41
0.003
  0
LWPOLYLINE
  5
4B5
100
AcDbEntity
  8
0
 62
   254
100
AcDbPolyline
 90
        2
 70
     0
 39
0.003
 10
1.43265
 20
1.017406
 40
0.003
 41
0.003
 10
1.413087
 20
0.99687
 40
0.003
 41
0.003
  0
LWPOLYLINE
  5
4B6
100
AcDbEntity
  8
0
 62
   254
100
AcDbPolyline
 90
        2
 70
     0
 39
0.003
 10
1.43265
 20
1.017406
 40
0.003
 41
0.003
 10
2.077323
 20
0.635531
 40
0.003
 41
0.003
  0
LWPOLYLINE
  5
4B7
100
AcDbEntity
  8
0
 62
   254
100
AcDbPolyline
 90
        2
 70
     0
 39
0.003
 10
2.077323
 20
0.635531
 40
0.003
 41
0.003
 10
2.095433
 20
0.657602
 40
0.003
 41
0.003
  0
LWPOLYLINE
  5
4B8
100
AcDbEntity
  8
0
 62
   254
100
AcDbPolyline
 90
        2
 70
     0
 39
0.003
 10
2.095433
 20
0.657602
 40
0.003
 41
0.003
 10
1.45076
 20
1.039476
 40
0.003
 41
0.003
  0
LWPOLYLINE
  5
4B9
100
AcDbEntity
  8
0
 62
   254
100
AcDbPolyline
 90
        2
 70
     0
 39
0.003
 10
1.45076
 20
1.039476
 40
0.003
 41
0.003
 10
1.43265
 20
1.017406
 40
0.003
 41
0.003
  0
LWPOLYLINE
  5
4BA
100
AcDbEntity
  8
0
 62
   254
100
AcDbPolyline
 90
        2
 70
     0
 39
0.003
 10
1.45076
 20
1.039476
 40
0.003
 41
0.003
 10
2.095433
 20
0.657602
 40
0.003
 41
0.003
  0
LWPOLYLINE
  5
4BB
100
AcDbEntity
  8
0
 62
   254
100
AcDbPolyline
 90
        2
 70
     0
 39
0.003
 10
2.095433
 20
0.657602
 40
0.003
 41
0.003
 10
2.111961
 20
0.681252
 40
0.003
 41
0.003
  0
LWPOLYLINE
  5
4BC
100
AcDbEntity
  8
0
 62
   254
100
AcDbPolyline
 90
        2
 70
     0
 39
0.003
 10
2.111961
 20
0.681252
 40
0.003
 41
0.003
 10
1.467287
 20
1.063126
 40
0.003
 41
0.003
  0
LWPOLYLINE
  5
4BD
100
AcDbEntity
  8
0
 62
   254
100
AcDbPolyline
 90
        2
 70
     0
 39
0.003
 10
1.467287
 20
1.063126
 40
0.003
 41
0.003
 10
1.45076
 20
1.039476
 40
0.003
 41
0.003
  0
LWPOLYLINE
  5
4BE
100
AcDbEntity
  8
0
 62
   254
100
AcDbPolyline
 90
        2
 70
     0
 39
0.003
 10
1.467287
 20
1.063126
 40
0.003
 41
0.003
 10
2.111961
 20
0.681252
 40
0.003
 41
0.003
  0
LWPOLYLINE
  5
4BF
100
AcDbEntity
  8
0
 62
   254
100
AcDbPolyline
 90
        2
 70
     0
 39
0.003
 10
2.111961
 20
0.681252
 40
0.003
 41
0.003
 10
2.126807
 20
0.706559
 40
0.003
 41
0.003
  0
LWPOLYLINE
  5
4C0
100
AcDbEntity
  8
0
 62
   254
100
AcDbPolyline
 90
        2
 70
     0
 39
0.003
 10
2.126807
 20
0.706559
 40
0.003
 41
0.003
 10
1.482134
 20
1.088433
 40
0.003
 41
0.003
  0
LWPOLYLINE
  5
4C1
100
AcDbEntity
  8
0
 62
   254
100
AcDbPolyline
 90
        2
 70
     0
 39
0.003
 10
1.482134
 20
1.088433
 40
0.003
 41
0.003
 10
1.467287
 20
1.063126
 40
0.003
 41
0.003
  0
LWPOLYLINE
  5
4C2
100
AcDbEntity
  8
0
 62
   254
100
AcDbPolyline
 90
        2
 70
     0
 39
0.003
 10
1.482134
 20
1.088433
 40
0.003
 41
0.003
 10
2.126807
 20
0.706559
 40
0.003
 41
0.003
  0
LWPOLYLINE
  5
4C3
100
AcDbEntity
  8
0
 62
   254
100
AcDbPolyline
 90
        2
 70
     0
 39
0.003
 10
2.126807
 20
0.706559
 40
0.003
 41
0.003
 10
2.13985
 20
0.733571
 40
0.003
 41
0.003
  0
LWPOLYLINE
  5
4C4
100
AcDbEntity
  8
0
 62
   254
100
AcDbPolyline
 90
        2
 70
     0
 39
0.003
 10
2.13985
 20
0.733571
 40
0.003
 41
0.003
 10
1.495177
 20
1.115445
 40
0.003
 41
0.003
  0
LWPOLYLINE
  5
4C5
100
AcDbEntity
  8
0
 62
   254
100
AcDbPolyline
 90
        2
 70
     0
 39
0.003
 10
1.495177
 20
1.115445
 40
0.003
 41
0.003
 10
1.482134
 20
1.088433
 40
0.003
 41
0.003
  0
LWPOLYLINE
  5
4C6
100
AcDbEntity
  8
0
 62
   254
100
AcDbPolyline
 90
        2
 70
     0
 39
0.003
 10
1.495177
 20
1.115445
 40
0.003
 41
0.003
 10
2.13985
 20
0.733571
 40
0.003
 41
0.003
  0
LWPOLYLINE
  5
4C7
100
AcDbEntity
  8
0
 62
   254
100
AcDbPolyline
 90
        2
 70
     0
 39
0.003
 10
2.13985
 20
0.733571
 40
0.003
 41
0.003
 10
2.15098
 20
0.76235
 40
0.003
 41
0.003
  0
LWPOLYLINE
  5
4C8
100
AcDbEntity
  8
0
 62
   254
100
AcDbPolyline
 90
        2
 70
     0
 39
0.003
 10
2.15098
 20
0.76235
 40
0.003
 41
0.003
 10
1.506307
 20
1.144224
 40
0.003
 41
0.003
  0
LWPOLYLINE
  5
4C9
100
AcDbEntity
  8
0
 62
   254
100
AcDbPolyline
 90
        2
 70
     0
 39
0.003
 10
1.506307
 20
1.144224
 40
0.003
 41
0.003
 10
1.495177
 20
1.115445
 40
0.003
 41
0.003
  0
LWPOLYLINE
  5
4CA
100
AcDbEntity
  8
0
 62
   254
100
AcDbPolyline
 90
        2
 70
     0
 39
0.003
 10
1.506307
 20
1.144224
 40
0.003
 41
0.003
 10
2.15098
 20
0.76235
 40
0.003
 41
0.003
  0
LWPOLYLINE
  5
4CB
100
AcDbEntity
  8
0
 62
   254
100
AcDbPolyline
 90
        2
 70
     0
 39
0.003
 10
2.15098
 20
0.76235
 40
0.003
 41
0.003
 10
2.160071
 20
0.792949
 40
0.003
 41
0.003
  0
LWPOLYLINE
  5
4CC
100
AcDbEntity
  8
0
 62
   254
100
AcDbPolyline
 90
        2
 70
     0
 39
0.003
 10
2.160071
 20
0.792949
 40
0.003
 41
0.003
 10
1.515398
 20
1.174823
 40
0.003
 41
0.003
  0
LWPOLYLINE
  5
4CD
100
AcDbEntity
  8
0
 62
   254
100
AcDbPolyline
 90
        2
 70
     0
 39
0.003
 10
1.515398
 20
1.174823
 40
0.003
 41
0.003
 10
1.506307
 20
1.144224
 40
0.003
 41
0.003
  0
LWPOLYLINE
  5
4CE
100
AcDbEntity
  8
0
 62
   254
100
AcDbPolyline
 90
        2
 70
     0
 39
0.003
 10
1.515398
 20
1.174823
 40
0.003
 41
0.003
 10
2.160071
 20
0.792949
 40
0.003
 41
0.003
  0
LWPOLYLINE
  5
4CF
100
AcDbEntity
  8
0
 62
   254
100
AcDbPolyline
 90
        2
 70
     0
 39
0.003
 10
2.160071
 20
0.792949
 40
0.003
 41
0.003
 10
2.167024
 20
0.825433
 40
0.003
 41
0.003
  0
LWPOLYLINE
  5
4D0
100
AcDbEntity
  8
0
 62
   254
100
AcDbPolyline
 90
        2
 70
     0
 39
0.003
 10
2.167024
 20
0.825433
 40
0.003
 41
0.003
 10
1.52235
 20
1.207307
 40
0.003
 41
0.003
  0
LWPOLYLINE
  5
4D1
100
AcDbEntity
  8
0
 62
   254
100
AcDbPolyline
 90
        2
 70
     0
 39
0.003
 10
1.52235
 20
1.207307
 40
0.003
 41
0.003
 10
1.515398
 20
1.174823
 40
0.003
 41
0.003
  0
LWPOLYLINE
  5
4D2
100
AcDbEntity
  8
0
 62
   254
100
AcDbPolyline
 90
        2
 70
     0
 39
0.003
 10
1.52235
 20
1.207307
 40
0.003
 41
0.003
 10
2.167024
 20
0.825433
 40
0.003
 41
0.003
  0
LWPOLYLINE
  5
4D3
100
AcDbEntity
  8
0
 62
   254
100
AcDbPolyline
 90
        2
 70
     0
 39
0.003
 10
2.167024
 20
0.825433
 40
0.003
 41
0.003
 10
2.171713
 20
0.859858
 40
0.003
 41
0.003
  0
LWPOLYLINE
  5
4D4
100
AcDbEntity
  8
0
 62
   254
100
AcDbPolyline
 90
        2
 70
     0
 39
0.003
 10
2.171713
 20
0.859858
 40
0.003
 41
0.003
 10
1.527039
 20
1.241732
 40
0.003
 41
0.003
  0
LWPOLYLINE
  5
4D5
100
AcDbEntity
  8
0
 62
   254
100
AcDbPolyline
 90
        2
 70
     0
 39
0.003
 10
1.527039
 20
1.241732
 40
0.003
 41
0.003
 10
1.52235
 20
1.207307
 40
0.003
 41
0.003
  0
LWPOLYLINE
  5
4D6
100
AcDbEntity
  8
0
 62
   254
100
AcDbPolyline
 90
        2
 70
     0
 39
0.003
 10
1.527039
 20
1.241732
 40
0.003
 41
0.003
 10
2.171713
 20
0.859858
 40
0.003
 41
0.003
  0
LWPOLYLINE
  5
4D7
100
AcDbEntity
  8
0
 62
   254
100
AcDbPolyline
 90
        2
 70
     0
 39
0.003
 10
2.171713
 20
0.859858
 40
0.003
 41
0.003
 10
2.174028
 20
0.896291
 40
0.003
 41
0.003
  0
LWPOLYLINE
  5
4D8
100
AcDbEntity
  8
0
 62
   254
100
AcDbPolyline
 90
        2
 70
     0
 39
0.003
 10
2.174028
 20
0.896291
 40
0.003
 41
0.003
 10
1.529354
 20
1.278165
 40
0.003
 41
0.003
  0
LWPOLYLINE
  5
4D9
100
AcDbEntity
  8
0
 62
   254
100
AcDbPolyline
 90
        2
 70
     0
 39
0.003
 10
1.529354
 20
1.278165
 40
0.003
 41
0.003
 10
1.527039
 20
1.241732
 40
0.003
 41
0.003
  0
LWPOLYLINE
  5
4DA
100
AcDbEntity
  8
0
 62
     0
100
AcDbPolyline
 90
        2
 70
     0
 39
0.003
 10
0.846154
 20
0.813874
 40
0.003
 41
0.003
 10
1.490827
 20
0.432
 40
0.003
 41
0.003
  0
LWPOLYLINE
  5
4DB
100
AcDbEntity
  8
0
 62
     0
100
AcDbPolyline
 90
        2
 70
     0
 39
0.003
 10
1.490827
 20
0.432
 40
0.003
 41
0.003
 10
1.513421
 20
0.433669
 40
0.003
 41
0.003
  0
LWPOLYLINE
  5
4DC
100
AcDbEntity
  8
0
 62
     0
100
AcDbPolyline
 90
        2
 70
     0
 39
0.003
 10
1.513421
 20
0.433669
 40
0.003
 41
0.003
 10
1.537087
 20
0.435587
 40
0.003
 41
0.003
  0
LWPOLYLINE
  5
4DD
100
AcDbEntity
  8
0
 62
     0
100
AcDbPolyline
 90
        2
 70
     0
 39
0.003
 10
1.537087
 20
0.435587
 40
0.003
 41
0.003
 10
1.561701
 20
0.437803
 40
0.003
 41
0.003
  0
LWPOLYLINE
  5
4DE
100
AcDbEntity
  8
0
 62
     0
100
AcDbPolyline
 90
        2
 70
     0
 39
0.003
 10
1.561701
 20
0.437803
 40
0.003
 41
0.003
 10
1.587161
 20
0.440386
 40
0.003
 41
0.003
  0
LWPOLYLINE
  5
4DF
100
AcDbEntity
  8
0
 62
     0
100
AcDbPolyline
 90
        2
 70
     0
 39
0.003
 10
1.587161
 20
0.440386
 40
0.003
 41
0.003
 10
1.613335
 20
0.443378
 40
0.003
 41
0.003
  0
LWPOLYLINE
  5
4E0
100
AcDbEntity
  8
0
 62
     0
100
AcDbPolyline
 90
        2
 70
     0
 39
0.003
 10
1.613335
 20
0.443378
 40
0.003
 41
0.003
 10
1.640126
 20
0.44685
 40
0.003
 41
0.003
  0
LWPOLYLINE
  5
4E1
100
AcDbEntity
  8
0
 62
     0
100
AcDbPolyline
 90
        2
 70
     0
 39
0.003
 10
1.640126
 20
0.44685
 40
0.003
 41
0.003
 10
1.667402
 20
0.450854
 40
0.003
 41
0.003
  0
LWPOLYLINE
  5
4E2
100
AcDbEntity
  8
0
 62
     0
100
AcDbPolyline
 90
        2
 70
     0
 39
0.003
 10
1.667402
 20
0.450854
 40
0.003
 41
0.003
 10
1.695067
 20
0.455461
 40
0.003
 41
0.003
  0
LWPOLYLINE
  5
4E3
100
AcDbEntity
  8
0
 62
     0
100
AcDbPolyline
 90
        2
 70
     0
 39
0.003
 10
1.695067
 20
0.455461
 40
0.003
 41
0.003
 10
1.722984
 20
0.460709
 40
0.003
 41
0.003
  0
LWPOLYLINE
  5
4E4
100
AcDbEntity
  8
0
 62
     0
100
AcDbPolyline
 90
        2
 70
     0
 39
0.003
 10
1.722984
 20
0.460709
 40
0.003
 41
0.003
 10
1.751055
 20
0.466673
 40
0.003
 41
0.003
  0
LWPOLYLINE
  5
4E5
100
AcDbEntity
  8
0
 62
     0
100
AcDbPolyline
 90
        2
 70
     0
 39
0.003
 10
1.751055
 20
0.466673
 40
0.003
 41
0.003
 10
1.779161
 20
0.473402
 40
0.003
 41
0.003
  0
LWPOLYLINE
  5
4E6
100
AcDbEntity
  8
0
 62
     0
100
AcDbPolyline
 90
        2
 70
     0
 39
0.003
 10
1.779161
 20
0.473402
 40
0.003
 41
0.003
 10
1.807189
 20
0.480965
 40
0.003
 41
0.003
  0
LWPOLYLINE
  5
4E7
100
AcDbEntity
  8
0
 62
     0
100
AcDbPolyline
 90
        2
 70
     0
 39
0.003
 10
1.807189
 20
0.480965
 40
0.003
 41
0.003
 10
1.835012
 20
0.489409
 40
0.003
 41
0.003
  0
LWPOLYLINE
  5
4E8
100
AcDbEntity
  8
0
 62
     0
100
AcDbPolyline
 90
        2
 70
     0
 39
0.003
 10
1.835012
 20
0.489409
 40
0.003
 41
0.003
 10
1.862535
 20
0.498803
 40
0.003
 41
0.003
  0
LWPOLYLINE
  5
4E9
100
AcDbEntity
  8
0
 62
     0
100
AcDbPolyline
 90
        2
 70
     0
 39
0.003
 10
1.862535
 20
0.498803
 40
0.003
 41
0.003
 10
1.889634
 20
0.509197
 40
0.003
 41
0.003
  0
LWPOLYLINE
  5
4EA
100
AcDbEntity
  8
0
 62
     0
100
AcDbPolyline
 90
        2
 70
     0
 39
0.003
 10
1.889634
 20
0.509197
 40
0.003
 41
0.003
 10
1.916193
 20
0.520661
 40
0.003
 41
0.003
  0
LWPOLYLINE
  5
4EB
100
AcDbEntity
  8
0
 62
     0
100
AcDbPolyline
 90
        2
 70
     0
 39
0.003
 10
1.916193
 20
0.520661
 40
0.003
 41
0.003
 10
1.942087
 20
0.533236
 40
0.003
 41
0.003
  0
LWPOLYLINE
  5
4EC
100
AcDbEntity
  8
0
 62
     0
100
AcDbPolyline
 90
        2
 70
     0
 39
0.003
 10
1.942087
 20
0.533236
 40
0.003
 41
0.003
 10
1.96722
 20
0.546996
 40
0.003
 41
0.003
  0
LWPOLYLINE
  5
4ED
100
AcDbEntity
  8
0
 62
     0
100
AcDbPolyline
 90
        2
 70
     0
 39
0.003
 10
1.96722
 20
0.546996
 40
0.003
 41
0.003
 10
1.991465
 20
0.561992
 40
0.003
 41
0.003
  0
LWPOLYLINE
  5
4EE
100
AcDbEntity
  8
0
 62
     0
100
AcDbPolyline
 90
        2
 70
     0
 39
0.003
 10
1.991465
 20
0.561992
 40
0.003
 41
0.003
 10
2.014717
 20
0.578287
 40
0.003
 41
0.003
  0
LWPOLYLINE
  5
4EF
100
AcDbEntity
  8
0
 62
     0
100
AcDbPolyline
 90
        2
 70
     0
 39
0.003
 10
2.014717
 20
0.578287
 40
0.003
 41
0.003
 10
2.03685
 20
0.595933
 40
0.003
 41
0.003
  0
LWPOLYLINE
  5
4F0
100
AcDbEntity
  8
0
 62
     0
100
AcDbPolyline
 90
        2
 70
     0
 39
0.003
 10
2.03685
 20
0.595933
 40
0.003
 41
0.003
 10
2.05776
 20
0.614996
 40
0.003
 41
0.003
  0
LWPOLYLINE
  5
4F1
100
AcDbEntity
  8
0
 62
     0
100
AcDbPolyline
 90
        2
 70
     0
 39
0.003
 10
2.05776
 20
0.614996
 40
0.003
 41
0.003
 10
2.077323
 20
0.635531
 40
0.003
 41
0.003
  0
LWPOLYLINE
  5
4F2
100
AcDbEntity
  8
0
 62
     0
100
AcDbPolyline
 90
        2
 70
     0
 39
0.003
 10
2.077323
 20
0.635531
 40
0.003
 41
0.003
 10
2.095433
 20
0.657602
 40
0.003
 41
0.003
  0
LWPOLYLINE
  5
4F3
100
AcDbEntity
  8
0
 62
     0
100
AcDbPolyline
 90
        2
 70
     0
 39
0.003
 10
2.095433
 20
0.657602
 40
0.003
 41
0.003
 10
2.111961
 20
0.681252
 40
0.003
 41
0.003
  0
LWPOLYLINE
  5
4F4
100
AcDbEntity
  8
0
 62
     0
100
AcDbPolyline
 90
        2
 70
     0
 39
0.003
 10
2.111961
 20
0.681252
 40
0.003
 41
0.003
 10
2.126807
 20
0.706559
 40
0.003
 41
0.003
  0
LWPOLYLINE
  5
4F5
100
AcDbEntity
  8
0
 62
     0
100
AcDbPolyline
 90
        2
 70
     0
 39
0.003
 10
2.126807
 20
0.706559
 40
0.003
 41
0.003
 10
2.13985
 20
0.733571
 40
0.003
 41
0.003
  0
LWPOLYLINE
  5
4F6
100
AcDbEntity
  8
0
 62
     0
100
AcDbPolyline
 90
        2
 70
     0
 39
0.003
 10
2.13985
 20
0.733571
 40
0.003
 41
0.003
 10
2.15098
 20
0.76235
 40
0.003
 41
0.003
  0
LWPOLYLINE
  5
4F7
100
AcDbEntity
  8
0
 62
     0
100
AcDbPolyline
 90
        2
 70
     0
 39
0.003
 10
2.15098
 20
0.76235
 40
0.003
 41
0.003
 10
2.160071
 20
0.792949
 40
0.003
 41
0.003
  0
LWPOLYLINE
  5
4F8
100
AcDbEntity
  8
0
 62
     0
100
AcDbPolyline
 90
        2
 70
     0
 39
0.003
 10
2.160071
 20
0.792949
 40
0.003
 41
0.003
 10
2.167024
 20
0.825433
 40
0.003
 41
0.003
  0
LWPOLYLINE
  5
4F9
100
AcDbEntity
  8
0
 62
     0
100
AcDbPolyline
 90
        2
 70
     0
 39
0.003
 10
2.167024
 20
0.825433
 40
0.003
 41
0.003
 10
2.171713
 20
0.859858
 40
0.003
 41
0.003
  0
LWPOLYLINE
  5
4FA
100
AcDbEntity
  8
0
 62
     0
100
AcDbPolyline
 90
        2
 70
     0
 39
0.003
 10
2.171713
 20
0.859858
 40
0.003
 41
0.003
 10
2.174028
 20
0.896291
 40
0.003
 41
0.003
  0
LWPOLYLINE
  5
4FB
100
AcDbEntity
  8
0
 62
     0
100
AcDbPolyline
 90
        2
 70
     0
 39
0.003
 10
2.174028
 20
0.896291
 40
0.003
 41
0.003
 10
1.529354
 20
1.278165
 40
0.003
 41
0.003
  0
LWPOLYLINE
  5
4FC
100
AcDbEntity
  8
0
 62
     0
100
AcDbPolyline
 90
        2
 70
     0
 39
0.003
 10
1.529354
 20
1.278165
 40
0.003
 41
0.003
 10
1.527039
 20
1.241732
 40
0.003
 41
0.003
  0
LWPOLYLINE
  5
4FD
100
AcDbEntity
  8
0
 62
     0
100
AcDbPolyline
 90
        2
 70
     0
 39
0.003
 10
1.527039
 20
1.241732
 40
0.003
 41
0.003
 10
1.52235
 20
1.207307
 40
0.003
 41
0.003
  0
LWPOLYLINE
  5
4FE
100
AcDbEntity
  8
0
 62
     0
100
AcDbPolyline
 90
        2
 70
     0
 39
0.003
 10
1.52235
 20
1.207307
 40
0.003
 41
0.003
 10
1.515398
 20
1.174823
 40
0.003
 41
0.003
  0
LWPOLYLINE
  5
4FF
100
AcDbEntity
  8
0
 62
     0
100
AcDbPolyline
 90
        2
 70
     0
 39
0.003
 10
1.515398
 20
1.174823
 40
0.003
 41
0.003
 10
1.506307
 20
1.144224
 40
0.003
 41
0.003
  0
LWPOLYLINE
  5
500
100
AcDbEntity
  8
0
 62
     0
100
AcDbPolyline
 90
        2
 70
     0
 39
0.003
 10
1.506307
 20
1.144224
 40
0.003
 41
0.003
 10
1.495177
 20
1.115445
 40
0.003
 41
0.003
  0
LWPOLYLINE
  5
501
100
AcDbEntity
  8
0
 62
     0
100
AcDbPolyline
 90
        2
 70
     0
 39
0.003
 10
1.495177
 20
1.115445
 40
0.003
 41
0.003
 10
1.482134
 20
1.088433
 40
0.003
 41
0.003
  0
LWPOLYLINE
  5
502
100
AcDbEntity
  8
0
 62
     0
100
AcDbPolyline
 90
        2
 70
     0
 39
0.003
 10
1.482134
 20
1.088433
 40
0.003
 41
0.003
 10
1.467287
 20
1.063126
 40
0.003
 41
0.003
  0
LWPOLYLINE
  5
503
100
AcDbEntity
  8
0
 62
     0
100
AcDbPolyline
 90
        2
 70
     0
 39
0.003
 10
1.467287
 20
1.063126
 40
0.003
 41
0.003
 10
1.45076
 20
1.039476
 40
0.003
 41
0.003
  0
LWPOLYLINE
  5
504
100
AcDbEntity
  8
0
 62
     0
100
AcDbPolyline
 90
        2
 70
     0
 39
0.003
 10
1.45076
 20
1.039476
 40
0.003
 41
0.003
 10
1.43265
 20
1.017406
 40
0.003
 41
0.003
  0
LWPOLYLINE
  5
505
100
AcDbEntity
  8
0
 62
     0
100
AcDbPolyline
 90
        2
 70
     0
 39
0.003
 10
1.43265
 20
1.017406
 40
0.003
 41
0.003
 10
1.413087
 20
0.99687
 40
0.003
 41
0.003
  0
LWPOLYLINE
  5
506
100
AcDbEntity
  8
0
 62
     0
100
AcDbPolyline
 90
        2
 70
     0
 39
0.003
 10
1.413087
 20
0.99687
 40
0.003
 41
0.003
 10
1.392177
 20
0.977807
 40
0.003
 41
0.003
  0
LWPOLYLINE
  5
507
100
AcDbEntity
  8
0
 62
     0
100
AcDbPolyline
 90
        2
 70
     0
 39
0.003
 10
1.392177
 20
0.977807
 40
0.003
 41
0.003
 10
1.370043
 20
0.960161
 40
0.003
 41
0.003
  0
LWPOLYLINE
  5
508
100
AcDbEntity
  8
0
 62
     0
100
AcDbPolyline
 90
        2
 70
     0
 39
0.003
 10
1.370043
 20
0.960161
 40
0.003
 41
0.003
 10
1.346791
 20
0.943866
 40
0.003
 41
0.003
  0
LWPOLYLINE
  5
509
100
AcDbEntity
  8
0
 62
     0
100
AcDbPolyline
 90
        2
 70
     0
 39
0.003
 10
1.346791
 20
0.943866
 40
0.003
 41
0.003
 10
1.322547
 20
0.92887
 40
0.003
 41
0.003
  0
LWPOLYLINE
  5
50A
100
AcDbEntity
  8
0
 62
     0
100
AcDbPolyline
 90
        2
 70
     0
 39
0.003
 10
1.322547
 20
0.92887
 40
0.003
 41
0.003
 10
1.297413
 20
0.91511
 40
0.003
 41
0.003
  0
LWPOLYLINE
  5
50B
100
AcDbEntity
  8
0
 62
     0
100
AcDbPolyline
 90
        2
 70
     0
 39
0.003
 10
1.297413
 20
0.91511
 40
0.003
 41
0.003
 10
1.27152
 20
0.902535
 40
0.003
 41
0.003
  0
LWPOLYLINE
  5
50C
100
AcDbEntity
  8
0
 62
     0
100
AcDbPolyline
 90
        2
 70
     0
 39
0.003
 10
1.27152
 20
0.902535
 40
0.003
 41
0.003
 10
1.244961
 20
0.891071
 40
0.003
 41
0.003
  0
LWPOLYLINE
  5
50D
100
AcDbEntity
  8
0
 62
     0
100
AcDbPolyline
 90
        2
 70
     0
 39
0.003
 10
1.244961
 20
0.891071
 40
0.003
 41
0.003
 10
1.217862
 20
0.880677
 40
0.003
 41
0.003
  0
LWPOLYLINE
  5
50E
100
AcDbEntity
  8
0
 62
     0
100
AcDbPolyline
 90
        2
 70
     0
 39
0.003
 10
1.217862
 20
0.880677
 40
0.003
 41
0.003
 10
1.190339
 20
0.871283
 40
0.003
 41
0.003
  0
LWPOLYLINE
  5
50F
100
AcDbEntity
  8
0
 62
     0
100
AcDbPolyline
 90
        2
 70
     0
 39
0.003
 10
1.190339
 20
0.871283
 40
0.003
 41
0.003
 10
1.162516
 20
0.862839
 40
0.003
 41
0.003
  0
LWPOLYLINE
  5
510
100
AcDbEntity
  8
0
 62
     0
100
AcDbPolyline
 90
        2
 70
     0
 39
0.003
 10
1.162516
 20
0.862839
 40
0.003
 41
0.003
 10
1.134488
 20
0.855276
 40
0.003
 41
0.003
  0
LWPOLYLINE
  5
511
100
AcDbEntity
  8
0
 62
     0
100
AcDbPolyline
 90
        2
 70
     0
 39
0.003
 10
1.134488
 20
0.855276
 40
0.003
 41
0.003
 10
1.106382
 20
0.848547
 40
0.003
 41
0.003
  0
LWPOLYLINE
  5
512
100
AcDbEntity
  8
0
 62
     0
100
AcDbPolyline
 90
        2
 70
     0
 39
0.003
 10
1.106382
 20
0.848547
 40
0.003
 41
0.003
 10
1.078311
 20
0.842583
 40
0.003
 41
0.003
  0
LWPOLYLINE
  5
513
100
AcDbEntity
  8
0
 62
     0
100
AcDbPolyline
 90
        2
 70
     0
 39
0.003
 10
1.078311
 20
0.842583
 40
0.003
 41
0.003
 10
1.050394
 20
0.837335
 40
0.003
 41
0.003
  0
LWPOLYLINE
  5
514
100
AcDbEntity
  8
0
 62
     0
100
AcDbPolyline
 90
        2
 70
     0
 39
0.003
 10
1.050394
 20
0.837335
 40
0.003
 41
0.003
 10
1.022728
 20
0.832728
 40
0.003
 41
0.003
  0
LWPOLYLINE
  5
515
100
AcDbEntity
  8
0
 62
     0
100
AcDbPolyline
 90
        2
 70
     0
 39
0.003
 10
1.022728
 20
0.832728
 40
0.003
 41
0.003
 10
0.995453
 20
0.828724
 40
0.003
 41
0.003
  0
LWPOLYLINE
  5
516
100
AcDbEntity
  8
0
 62
     0
100
AcDbPolyline
 90
        2
 70
     0
 39
0.003
 10
0.995453
 20
0.828724
 40
0.003
 41
0.003
 10
0.968661
 20
0.825252
 40
0.003
 41
0.003
  0
LWPOLYLINE
  5
517
100
AcDbEntity
  8
0
 62
     0
100
AcDbPolyline
 90
        2
 70
     0
 39
0.003
 10
0.968661
 20
0.825252
 40
0.003
 41
0.003
 10
0.942488
 20
0.82226
 40
0.003
 41
0.003
  0
LWPOLYLINE
  5
518
100
AcDbEntity
  8
0
 62
     0
100
AcDbPolyline
 90
        2
 70
     0
 39
0.003
 10
0.942488
 20
0.82226
 40
0.003
 41
0.003
 10
0.917028
 20
0.819677
 40
0.003
 41
0.003
  0
LWPOLYLINE
  5
519
100
AcDbEntity
  8
0
 62
     0
100
AcDbPolyline
 90
        2
 70
     0
 39
0.003
 10
0.917028
 20
0.819677
 40
0.003
 41
0.003
 10
0.892413
 20
0.817461
 40
0.003
 41
0.003
  0
LWPOLYLINE
  5
51A
100
AcDbEntity
  8
0
 62
     0
100
AcDbPolyline
 90
        2
 70
     0
 39
0.003
 10
0.892413
 20
0.817461
 40
0.003
 41
0.003
 10
0.868748
 20
0.815543
 40
0.003
 41
0.003
  0
LWPOLYLINE
  5
51B
100
AcDbEntity
  8
0
 62
     0
100
AcDbPolyline
 90
        2
 70
     0
 39
0.003
 10
0.868748
 20
0.815543
 40
0.003
 41
0.003
 10
0.846154
 20
0.813874
 40
0.003
 41
0.003
  0
LWPOLYLINE
  5
51C
100
AcDbEntity
  8
0
 62
   254
100
AcDbPolyline
 90
        2
 70
     0
 39
0.003
 10
1.529354
 20
1.278165
 40
0.003
 41
0.003
 10
2.174028
 20
0.896291
 40
0.003
 41
0.003
  0
LWPOLYLINE
  5
51D
100
AcDbEntity
  8
0
 62
   254
100
AcDbPolyline
 90
        2
 70
     0
 39
0.003
 10
2.174028
 20
0.896291
 40
0.003
 41
0.003
 10
2.528087
 20
0.95515
 40
0.003
 41
0.003
  0
LWPOLYLINE
  5
51E
100
AcDbEntity
  8
0
 62
   254
100
AcDbPolyline
 90
        2
 70
     0
 39
0.003
 10
2.528087
 20
0.95515
 40
0.003
 41
0.003
 10
1.883413
 20
1.337024
 40
0.003
 41
0.003
  0
LWPOLYLINE
  5
51F
100
AcDbEntity
  8
0
 62
   254
100
AcDbPolyline
 90
        2
 70
     0
 39
0.003
 10
1.883413
 20
1.337024
 40
0.003
 41
0.003
 10
1.529354
 20
1.278165
 40
0.003
 41
0.003
  0
LWPOLYLINE
  5
520
100
AcDbEntity
  8
0
 62
     0
100
AcDbPolyline
 90
        2
 70
     0
 39
0.003
 10
1.529354
 20
1.278165
 40
0.003
 41
0.003
 10
2.174028
 20
0.896291
 40
0.003
 41
0.003
  0
LWPOLYLINE
  5
521
100
AcDbEntity
  8
0
 62
     0
100
AcDbPolyline
 90
        2
 70
     0
 39
0.003
 10
2.174028
 20
0.896291
 40
0.003
 41
0.003
 10
2.528087
 20
0.95515
 40
0.003
 41
0.003
  0
LWPOLYLINE
  5
522
100
AcDbEntity
  8
0
 62
     0
100
AcDbPolyline
 90
        2
 70
     0
 39
0.003
 10
2.528087
 20
0.95515
 40
0.003
 41
0.003
 10
1.883413
 20
1.337024
 40
0.003
 41
0.003
  0
LWPOLYLINE
  5
523
100
AcDbEntity
  8
0
 62
     0
100
AcDbPolyline
 90
        2
 70
     0
 39
0.003
 10
1.883413
 20
1.337024
 40
0.003
 41
0.003
 10
1.529354
 20
1.278165
 40
0.003
 41
0.003
  0
LWPOLYLINE
  5
524
100
AcDbEntity
  8
0
 62
   254
100
AcDbPolyline
 90
        2
 70
     0
 39
0.003
 10
1.883413
 20
1.337024
 40
0.003
 41
0.003
 10
2.528087
 20
0.95515
 40
0.003
 41
0.003
  0
LWPOLYLINE
  5
525
100
AcDbEntity
  8
0
 62
   254
100
AcDbPolyline
 90
        2
 70
     0
 39
0.003
 10
2.528087
 20
0.95515
 40
0.003
 41
0.003
 10
2.528984
 20
1.342409
 40
0.003
 41
0.003
  0
LWPOLYLINE
  5
526
100
AcDbEntity
  8
0
 62
   254
100
AcDbPolyline
 90
        2
 70
     0
 39
0.003
 10
2.528984
 20
1.342409
 40
0.003
 41
0.003
 10
1.884311
 20
1.724283
 40
0.003
 41
0.003
  0
LWPOLYLINE
  5
527
100
AcDbEntity
  8
0
 62
   254
100
AcDbPolyline
 90
        2
 70
     0
 39
0.003
 10
1.884311
 20
1.724283
 40
0.003
 41
0.003
 10
1.883413
 20
1.337024
 40
0.003
 41
0.003
  0
LWPOLYLINE
  5
528
100
AcDbEntity
  8
0
 62
     0
100
AcDbPolyline
 90
        2
 70
     0
 39
0.003
 10
1.883413
 20
1.337024
 40
0.003
 41
0.003
 10
2.528087
 20
0.95515
 40
0.003
 41
0.003
  0
LWPOLYLINE
  5
529
100
AcDbEntity
  8
0
 62
     0
100
AcDbPolyline
 90
        2
 70
     0
 39
0.003
 10
2.528087
 20
0.95515
 40
0.003
 41
0.003
 10
2.528984
 20
1.342409
 40
0.003
 41
0.003
  0
LWPOLYLINE
  5
52A
100
AcDbEntity
  8
0
 62
     0
100
AcDbPolyline
 90
        2
 70
     0
 39
0.003
 10
2.528984
 20
1.342409
 40
0.003
 41
0.003
 10
1.884311
 20
1.724283
 40
0.003
 41
0.003
  0
LWPOLYLINE
  5
52B
100
AcDbEntity
  8
0
 62
     0
100
AcDbPolyline
 90
        2
 70
     0
 39
0.003
 10
1.884311
 20
1.724283
 40
0.003
 41
0.003
 10
1.883413
 20
1.337024
 40
0.003
 41
0.003
  0
LWPOLYLINE
  5
52C
100
AcDbEntity
  8
0
 62
     7
100
AcDbPolyline
 90
        2
 70
     0
 39
0.003
 10
-2.083429
 20
-0.146272
 40
0.003
 41
0.003
 10
-2.138067
 20
-0.863449
 40
0.003
 41
0.003
  0
LWPOLYLINE
  5
52D
100
AcDbEntity
  8
0
 62
     7
100
AcDbPolyline
 90
        2
 70
     0
 39
0.003
 10
-2.138067
 20
-0.863449
 40
0.003
 41
0.003
 10
-1.636539
 20
-0.861276
 40
0.003
 41
0.003
  0
LWPOLYLINE
  5
52E
100
AcDbEntity
  8
0
 62
     7
100
AcDbPolyline
 90
        2
 70
     0
 39
0.003
 10
-1.636539
 20
-0.861276
 40
0.003
 41
0.003
 10
-1.577988
 20
-0.638543
 40
0.003
 41
0.003
  0
SPLINE
  5
52F
100
AcDbEntity
  8
0
 62
     7
100
AcDbSpline
210
0.0
220
0.0
230
1.0
 70
     0
 71
     3
 72
     0
 73
     0
 74
    32
 44
0.0000000001
 11
-1.577988188976378
 21
-0.6385433070866142
 31
0.0
 11
-1.4802244094488188
 21
-0.6326417322834645
 31
0.0
 11
-1.3896220472440945
 21
-0.6195905511811024
 31
0.0
 11
-1.305736220472441
 21
-0.6001456692913386
 31
0.0
 11
-1.2281496062992125
 21
-0.5750708661417323
 31
0.0
 11
-1.1564133858267716
 21
-0.5451102362204724
 31
0.0
 11
-1.0901141732283464
 21
-0.5110236220472441
 31
0.0
 11
-1.0288070866141732
 21
-0.4735708661417323
 31
0.0
 11
-0.9720787401574803
 21
-0.433507874015748
 31
0.0
 11
-0.9194724409448819
 21
-0.3915826771653543
 31
0.0
 11
-0.8705826771653543
 21
-0.3485590551181103
 31
0.0
 11
-0.8249685039370078
 21
-0.3051889763779528
 31
0.0
 11
-0.7822007874015748
 21
-0.2622362204724409
 31
0.0
 11
-0.7418385826771654
 21
-0.2204448818897638
 31
0.0
 11
-0.7034645669291338
 21
-0.1805826771653543
 31
0.0
 11
-0.6666417322834646
 21
-0.1433976377952756
 31
0.0
 11
-0.6309488188976378
 21
-0.1096535433070866
 31
0.0
 11
-0.5962716535433071
 21
-0.0764842519685039
 31
0.0
 11
-0.5621062992125985
 21
-0.0408385826771654
 31
0.0
 11
-0.5273661417322835
 21
-0.0031299212598425
 31
0.0
 11
-0.4909724409448819
 21
0.0362125984251968
 31
0.0
 11
-0.4518385826771654
 21
0.0767755905511811
 31
0.0
 11
-0.4088976377952756
 21
0.1181377952755906
 31
0.0
 11
-0.3610629921259843
 21
0.1598661417322835
 31
0.0
 11
-0.3072637795275591
 21
0.2015511811023622
 31
0.0
 11
-0.2464015748031496
 21
0.242751968503937
 31
0.0
 11
-0.1774133858267717
 21
0.2830629921259842
 31
0.0
 11
-0.0992125984251968
 21
0.3220551181102362
 31
0.0
 11
-0.0107283464566929
 21
0.3593110236220473
 31
0.0
 11
0.0891259842519685
 21
0.3943976377952756
 31
0.0
 11
0.2014330708661417
 21
0.4269015748031496
 31
0.0
 11
0.3272716535433071
 21
0.4563897637795276
 31
0.0
  0
LWPOLYLINE
  5
530
100
AcDbEntity
  8
0
 62
     7
100
AcDbPolyline
 90
        2
 70
     0
 39
0.003
 10
0.327272
 20
0.45639
 40
0.003
 41
0.003
 10
0.46772
 20
0.482457
 40
0.003
 41
0.003
  0
LWPOLYLINE
  5
531
100
AcDbEntity
  8
0
 62
     7
100
AcDbPolyline
 90
        2
 70
     0
 39
0.003
 10
0.46772
 20
0.482457
 40
0.003
 41
0.003
 10
0.478201
 20
0.605283
 40
0.003
 41
0.003
  0
LWPOLYLINE
  5
532
100
AcDbEntity
  8
0
 62
     7
100
AcDbPolyline
 90
        2
 70
     0
 39
0.003
 10
0.478201
 20
0.605283
 40
0.003
 41
0.003
 10
0.824846
 20
0.64528
 40
0.003
 41
0.003
  0
LWPOLYLINE
  5
533
100
AcDbEntity
  8
0
 62
     7
100
AcDbPolyline
 90
        2
 70
     0
 39
0.003
 10
0.824846
 20
0.64528
 40
0.003
 41
0.003
 10
0.846154
 20
0.813874
 40
0.003
 41
0.003
  0
SPLINE
  5
534
100
AcDbEntity
  8
0
 62
     7
100
AcDbSpline
210
0.0
220
0.0
230
1.0
 70
     0
 71
     3
 72
     0
 73
     0
 74
    16
 44
0.0000000001
 11
0.8461535433070866
 21
0.8138740157480315
 31
0.0
 11
0.8924133858267717
 21
0.8174606299212599
 31
0.0
 11
0.942488188976378
 21
0.8222598425196851
 31
0.0
 11
0.9954527559055119
 21
0.8287244094488189
 31
0.0
 11
1.0503937007874016
 21
0.8373346456692914
 31
0.0
 11
1.1063818897637796
 21
0.8485472440944882
 31
0.0
 11
1.162515748031496
 21
0.8628385826771654
 31
0.0
 11
1.2178622047244094
 21
0.8806771653543307
 31
0.0
 11
1.2715196850393702
 21
0.9025354330708661
 31
0.0
 11
1.3225472440944881
 21
0.9288700787401575
 31
0.0
 11
1.3700433070866143
 21
0.9601614173228347
 31
0.0
 11
1.4130866141732283
 21
0.9968700787401574
 31
0.0
 11
1.450759842519685
 21
1.0394763779527558
 31
0.0
 11
1.4821338582677166
 21
1.0884330708661418
 31
0.0
 11
1.5063070866141732
 21
1.144224409448819
 31
0.0
 11
1.5223503937007874
 21
1.2073070866141733
 31
0.0
  0
LWPOLYLINE
  5
535
100
AcDbEntity
  8
0
 62
     7
100
AcDbPolyline
 90
        2
 70
     0
 39
0.003
 10
1.52235
 20
1.207307
 40
0.003
 41
0.003
 10
1.529354
 20
1.278165
 40
0.003
 41
0.003
  0
LWPOLYLINE
  5
536
100
AcDbEntity
  8
0
 62
     7
100
AcDbPolyline
 90
        2
 70
     0
 39
0.003
 10
1.529354
 20
1.278165
 40
0.003
 41
0.003
 10
1.883413
 20
1.337024
 40
0.003
 41
0.003
  0
LWPOLYLINE
  5
537
100
AcDbEntity
  8
0
 62
     7
100
AcDbPolyline
 90
        2
 70
     0
 39
0.003
 10
1.883413
 20
1.337024
 40
0.003
 41
0.003
 10
1.884311
 20
1.724283
 40
0.003
 41
0.003
  0
LWPOLYLINE
  5
538
100
AcDbEntity
  8
0
 62
     7
100
AcDbPolyline
 90
        2
 70
     0
 39
0.003
 10
1.884311
 20
1.724283
 40
0.003
 41
0.003
 10
0.929504
 20
1.661346
 40
0.003
 41
0.003
  0
LWPOLYLINE
  5
539
100
AcDbEntity
  8
0
 62
     7
100
AcDbPolyline
 90
        2
 70
     0
 39
0.003
 10
0.929504
 20
1.661346
 40
0.003
 41
0.003
 10
-2.083429
 20
-0.146272
 40
0.003
 41
0.003
  0
MTEXT
  5
53A
100
AcDbEntity
  8
0
 62
     0
100
AcDbMText
 10
-0.971035
 20
-0.761319
 30
0.0
 40
0.166665
 41
0.0
 71
     1
 72
     1
  1
{\fBookman Old Style|b0|i0|c0|p32;BA  1443}
 73
     1
 44
1.0
  0
MTEXT
  5
53B
100
AcDbEntity
  8
0
 62
     0
100
AcDbMText
 10
-0.971035
 20
-0.948819
 30
0.0
 40
0.166665
 41
0.0
 71
     1
 72
     1
  1
{\fBookman Old Style|b0|i0|c0|p32;7/8" x 4-3/4"}
 73
     1
 44
1.0
  0
ENDSEC
  0
SECTION
  2
OBJECTS
  0
DICTIONARY
  5
19
100
AcDbDictionary
280
     0
281
     1
  3
ACAD_GROUP
350
1A
  3
ACAD_MLINESTYLE
350
1B
  3
ACAD_LAYOUT
350
1E
  3
ACAD_PLOTSETTINGS
350
22
  3
ACAD_PLOTSTYLENAME
350
1F
  3
ACAD_WIPEOUT_VARS
350
23
  0
DICTIONARY
  5
1A
102
{ACAD_REACTORS
330
19
102
}
100
AcDbDictionary
280
     0
281
     1
  0
DICTIONARY
  5
1B
102
{ACAD_REACTORS
330
19
102
}
100
AcDbDictionary
280
     0
281
     1
  3
Standard
350
1C
  0
MLINESTYLE
  5
1C
102
{ACAD_REACTORS
330
1B
102
}
100
AcDbMlineStyle
  2
Standard
 70
     0
  3

 62
     0
 51
90.0
 52
90.0
 71
     2
 49
0.5
 62
   256
  6
BYLAYER
 49
-0.5
 62
   256
  6
BYLAYER
  0
ACDBDICTIONARYWDFLT
  5
1F
102
{ACAD_REACTORS
330
19
102
}
100
AcDbDictionary
281
     1
  3
Normal
350
1D
100
AcDbDictionaryWithDefault
340
1D
  0
ACDBPLACEHOLDER
  5
1D
102
{ACAD_REACTORS
330
1F
102
}
  0
LAYOUT
  5
20
102
{ACAD_REACTORS
330
1E
102
}
100
AcDbPlotSettings
  1

  2

  4

  6

 40
0.0
 41
0.0
 42
0.0
 43
0.0
 44
0.0
 45
0.0
 46
0.0
 47
0.0
 48
0.0
 49
0.0
140
0.0
141
0.0
142
1.0
143
1.0
 70
  1024
 72
     0
 73
     0
 74
     0
  7

 75
     0
147
1.0
148
0.0
149
0.0
100
AcDbLayout
  1
Model
 70
     0
 71
     0
 10
0.0
 20
0.0
 11
0.0
 21
0.0
 12
0.0
 22
0.0
 32
0.0
 14
0.0
 24
0.0
 34
0.0
 15
0.0
 25
0.0
 35
0.0
146
0.0
 13
0.0
 23
0.0
 33
0.0
 16
0.0
 26
0.0
 36
0.0
 17
0.0
 27
0.0
 37
0.0
 76
     0
330
A
331
0
345
0
346
0
  0
LAYOUT
  5
21
102
{ACAD_REACTORS
330
1E
102
}
100
AcDbPlotSettings
  1

  2

  4

  6

 40
0.0
 41
0.0
 42
0.0
 43
0.0
 44
0.0
 45
0.0
 46
0.0
 47
0.0
 48
0.0
 49
0.0
140
0.0
141
0.0
142
1.0
143
1.0
 70
     0
 72
     0
 73
     0
 74
     0
  7

 75
     0
147
1.0
148
0.0
149
0.0
100
AcDbLayout
  1
Layout1
 70
     0
 71
     0
 10
0.0
 20
0.0
 11
0.0
 21
0.0
 12
0.0
 22
0.0
 32
0.0
 14
0.0
 24
0.0
 34
0.0
 15
0.0
 25
0.0
 35
0.0
146
0.0
 13
0.0
 23
0.0
 33
0.0
 16
0.0
 26
0.0
 36
0.0
 17
0.0
 27
0.0
 37
0.0
 76
     0
330
B
331
0
345
0
346
0
  0
DICTIONARY
  5
1E
102
{ACAD_REACTORS
330
19
102
}
100
AcDbDictionary
280
     0
281
     1
  3
Layout1
350
21
  3
Model
350
20
  0
DICTIONARY
  5
22
102
{ACAD_REACTORS
330
19
102
}
100
AcDbDictionary
280
     0
281
     1
  0
WIPEOUTVARIABLES
  5
23
100
AcDbWipeoutVariables
 70
     1
  0
ENDSEC
  0
EOF
