  0
SECTION
  2
HEADER
  9
$ACADVER
  1
AC1015
  9
$ACADMAINTVER
 70
     6
  9
$DWGCODEPAGE
  3
DOS850
  9
$INSBASE
 10
0.0
 20
0.0
 30
0.0
  9
$EXTMIN
 10
1.000000E+20
 20
1.000000E+20
 30
1.000000E+20
  9
$EXTMAX
 10
-1.000000E+20
 20
-1.000000E+20
 30
-1.000000E+20
  9
$LIMMIN
 10
0.0
 20
0.0
  9
$LIMMAX
 10
0.0
 20
0.0
  9
$ORTHOMODE
 70
     0
  9
$REGENMODE
 70
     1
  9
$FILLMODE
 70
     1
  9
$QTEXTMODE
 70
     0
  9
$MIRRTEXT
 70
     1
  9
$LTSCALE
 40
1.0
  9
$ATTMODE
 70
     1
  9
$TEXTSIZE
 40
0.2
  9
$TRACEWID
 40
0.05
  9
$TEXTSTYLE
  7
Standard
  9
$CLAYER
  8
0
  9
$CELTYPE
  6
Continuous
  9
$CECOLOR
 62
   256
  9
$CELTSCALE
 40
1.0
  9
$DISPSILH
 70
     0
  9
$DIMSCALE
 40
1.0
  9
$DIMASZ
 40
0.18
  9
$DIMEXO
 40
0.0625
  9
$DIMDLI
 40
0.38
  9
$DIMRND
 40
0.0
  9
$DIMDLE
 40
0.0
  9
$DIMEXE
 40
0.18
  9
$DIMTP
 40
0.0
  9
$DIMTM
 40
0.0
  9
$DIMTXT
 40
0.18
  9
$DIMCEN
 40
0.09
  9
$DIMTSZ
 40
0.0
  9
$DIMTOL
 70
     0
  9
$DIMLIM
 70
     0
  9
$DIMTIH
 70
     1
  9
$DIMTOH
 70
     1
  9
$DIMSE1
 70
     0
  9
$DIMSE2
 70
     0
  9
$DIMTAD
 70
     0
  9
$DIMZIN
 70
     0
  9
$DIMBLK
  1

  9
$DIMASO
 70
     1
  9
$DIMSHO
 70
     1
  9
$DIMPOST
  1

  9
$DIMAPOST
  1

  9
$DIMALT
 70
     0
  9
$DIMALTD
 70
     2
  9
$DIMALTF
 40
25.4
  9
$DIMLFAC
 40
1.0
  9
$DIMTOFL
 70
     0
  9
$DIMTVP
 40
0.0
  9
$DIMTIX
 70
     0
  9
$DIMSOXD
 70
     0
  9
$DIMSAH
 70
     0
  9
$DIMBLK1
  1

  9
$DIMBLK2
  1

  9
$DIMSTYLE
  2
Standard
  9
$DIMCLRD
 70
     0
  9
$DIMCLRE
 70
     0
  9
$DIMCLRT
 70
     0
  9
$DIMTFAC
 40
1.0
  9
$DIMGAP
 40
0.09
  9
$DIMJUST
 70
     0
  9
$DIMSD1
 70
     0
  9
$DIMSD2
 70
     0
  9
$DIMTOLJ
 70
     1
  9
$DIMTZIN
 70
     0
  9
$DIMALTZ
 70
     0
  9
$DIMALTTZ
 70
     0
  9
$DIMUPT
 70
     0
  9
$DIMDEC
 70
     4
  9
$DIMTDEC
 70
     4
  9
$DIMALTU
 70
     2
  9
$DIMALTTD
 70
     2
  9
$DIMTXSTY
  7
Standard
  9
$DIMAUNIT
 70
     0
  9
$DIMADEC
 70
     0
  9
$DIMALTRND
 40
0.0
  9
$DIMAZIN
 70
     0
  9
$DIMDSEP
 70
     0
  9
$DIMATFIT
 70
     3
  9
$DIMFRAC
 70
     0
  9
$DIMLDRBLK
  1

  9
$DIMLUNIT
 70
     2
  9
$DIMLWD
 70
     0
  9
$DIMLWE
 70
     0
  9
$DIMTMOVE
 70
     0
  9
$LUNITS
 70
     2
  9
$LUPREC
 70
     4
  9
$SKETCHINC
 40
0.1
  9
$FILLETRAD
 40
0.0
  9
$AUNITS
 70
     0
  9
$AUPREC
 70
     0
  9
$MENU
  1
acad
  9
$ELEVATION
 40
0.0
  9
$PELEVATION
 40
0.0
  9
$THICKNESS
 40
0.0
  9
$LIMCHECK
 70
     0
  9
$CHAMFERA
 40
0.0
  9
$CHAMFERB
 40
0.0
  9
$CHAMFERC
 40
0.0
  9
$CHAMFERD
 40
0.0
  9
$SKPOLY
 70
     0
  9
$TDCREATE
 40
0.000000000
  9
$TDUCREATE
 40
0.000000000
  9
$TDUPDATE
 40
0.000000000
  9
$TDUUPDATE
 40
0.000000000
  9
$TDINDWG
 40
0.0000000000
  9
$TDUSRTIMER
 40
0.0000000000
  9
$USRTIMER
 70
     1
  9
$ANGBASE
 50
0.0
  9
$ANGDIR
 70
     0
  9
$PDMODE
 70
     0
  9
$PDSIZE
 40
0.0
  9
$PLINEWID
 40
0.0
  9
$SPLFRAME
 70
     0
  9
$SPLINETYPE
 70
     6
  9
$SPLINESEGS
 70
     8
  9
$HANDSEED
  5
348
  9
$SURFTAB1
 70
     6
  9
$SURFTAB2
 70
     6
  9
$SURFTYPE
 70
     6
  9
$SURFU
 70
     6
  9
$SURFV
 70
     6
  9
$UCSBASE
  2

  9
$UCSNAME
  2

  9
$UCSORG
 10
0.0
 20
0.0
 30
0.0
  9
$UCSXDIR
 10
1.0
 20
0.0
 30
0.0
  9
$UCSYDIR
 10
0.0
 20
1.0
 30
0.0
  9
$UCSORTHOREF
  2

  9
$UCSORTHOVIEW
 70
     0
  9
$UCSORGTOP
 10
0.0
 20
0.0
 30
0.0
  9
$UCSORGBOTTOM
 10
0.0
 20
0.0
 30
0.0
  9
$UCSORGLEFT
 10
0.0
 20
0.0
 30
0.0
  9
$UCSORGRIGHT
 10
0.0
 20
0.0
 30
0.0
  9
$UCSORGFRONT
 10
0.0
 20
0.0
 30
0.0
  9
$UCSORGBACK
 10
0.0
 20
0.0
 30
0.0
  9
$PUCSBASE
  2

  9
$PUCSNAME
  2

  9
$PUCSORG
 10
0.0
 20
0.0
 30
0.0
  9
$PUCSXDIR
 10
1.0
 20
0.0
 30
0.0
  9
$PUCSYDIR
 10
0.0
 20
1.0
 30
0.0
  9
$PUCSORTHOREF
  2

  9
$PUCSORTHOVIEW
 70
     0
  9
$PUCSORGTOP
 10
0.0
 20
0.0
 30
0.0
  9
$PUCSORGBOTTOM
 10
0.0
 20
0.0
 30
0.0
  9
$PUCSORGLEFT
 10
0.0
 20
0.0
 30
0.0
  9
$PUCSORGRIGHT
 10
0.0
 20
0.0
 30
0.0
  9
$PUCSORGFRONT
 10
0.0
 20
0.0
 30
0.0
  9
$PUCSORGBACK
 10
0.0
 20
0.0
 30
0.0
  9
$USERI1
 70
     0
  9
$USERI2
 70
     0
  9
$USERI3
 70
     0
  9
$USERI4
 70
     0
  9
$USERI5
 70
     0
  9
$USERR1
 40
0.0
  9
$USERR2
 40
0.0
  9
$USERR3
 40
0.0
  9
$USERR4
 40
0.0
  9
$USERR5
 40
0.0
  9
$WORLDVIEW
 70
     1
  9
$SHADEDGE
 70
     3
  9
$SHADEDIF
 70
    70
  9
$TILEMODE
 70
     1
  9
$MAXACTVP
 70
    16
  9
$PINSBASE
 10
0.0
 20
0.0
 30
0.0
  9
$PLIMCHECK
 70
     0
  9
$PEXTMIN
 10
1.000000E+20
 20
1.000000E+20
 30
1.000000E+20
  9
$PEXTMAX
 10
-1.000000E+20
 20
-1.000000E+20
 30
-1.000000E+20
  9
$PLIMMIN
 10
0.0
 20
0.0
  9
$PLIMMAX
 10
12.0
 20
9.0
  9
$UNITMODE
 70
     0
  9
$VISRETAIN
 70
     0
  9
$PLINEGEN
 70
     1
  9
$PSLTSCALE
 70
     0
  9
$TREEDEPTH
 70
  3020
  9
$CMLSTYLE
  2
Standard
  9
$CMLJUST
 70
     0
  9
$CMLSCALE
 40
1.0
  9
$PROXYGRAPHICS
 70
     0
  9
$MEASUREMENT
 70
     0
  9
$CELWEIGHT
370
     0
  9
$ENDCAPS
280
     0
  9
$JOINSTYLE
280
     0
  9
$LWDISPLAY
290
     0
  9
$INSUNITS
 70
     0
  9
$HYPERLINKBASE
  1

  9
$XEDIT
290
     1
  9
$CEPSNTYPE
380
     0
  9
$PSTYLEMODE
290
     1
  9
$FINGERPRINTGUID
  2

  9
$VERSIONGUID
  2

  9
$EXTNAMES
290
     1
  9
$PSVPSCALE
 40
0.0
  0
ENDSEC
  0
SECTION
  2
CLASSES
  0
CLASS
  1
LWPOLYLINE
  2
AcDbPolyline
  3
AutoCAD 2000
 90
        0
280
     0
281
     1
  0
CLASS
  1
IMAGE
  2
AcDbRasterImage
  3
ISM
 90
    32895
280
     0
281
     1
  0
CLASS
  1
OLE2FRAME
  2
AcDbOle2Frame
  3
AutoCAD 2000
 90
    32768
280
     0
281
     1
  0
CLASS
  1
HATCH
  2
AcDbHatch
  3
AutoCAD 2000
 90
    32768
280
     0
281
     1
  0
CLASS
  1
DICTIONARYVAR
  2
AcDbDictionaryVar
  3
AutoCAD 2000
 90
    32768
280
     0
281
     0
  0
CLASS
  1
RASTERVARIABLES
  2
AcDbRasterVariables
  3
ISM
 90
    32768
280
     0
281
     0
  0
CLASS
  1
IMAGEDEF
  2
AcDbRasterImageDef
  3
ISM
 90
    32768
280
     0
281
     0
  0
CLASS
  1
IMAGEDEF_REACTOR
  2
AcDbRasterImageDefReactor
  3
ISM
 90
    32769
280
     0
281
     0
  0
CLASS
  1
IDBUFFER
  2
AcDbIdBuffer
  3
AutoCAD 2000
 90
    32768
280
     0
281
     0
  0
CLASS
  1
SPATIAL_FILTER
  2
AcDbSpatialFilter
  3
AutoCAD 2000
 90
    32768
280
     0
281
     0
  0
CLASS
  1
XRECORD
  2
AcDbXrecord
  3
AutoCAD 2000
 90
    32768
280
     0
281
     0
  0
CLASS
  1
SORTENTSTABLE
  2
AcDbSortentsTable
  3
AutoCAD 2000
 90
    32768
280
     0
281
     0
  0
CLASS
  1
LAYER_INDEX
  2
AcDbLayerIndex
  3
AutoCAD 2000
 90
    32768
280
     0
281
     0
  0
CLASS
  1
SPATIAL_INDEX
  2
AcDbSpatialIndex
  3
AutoCAD 2000
 90
    32768
280
     0
281
     0
  0
CLASS
  1
OBJECT_PTR
  2
CAseDLPNTableRecord
  3
"ASE-LPNTableRecord"
 90
    32769
280
     0
281
     0
  0
CLASS
  1
LAYOUT
  2
AcDbLayout
  3
AutoCAD 2000
 90
        0
280
     0
281
     0
  0
CLASS
  1
PLOTSETTINGS
  2
AcDbPlotSettings
  3
AutoCAD 2000
 90
    32768
280
     0
281
     0
  0
CLASS
  1
ACDBDICTIONARYWDFLT
  2
AcDbDictionaryWithDefault
  3
AutoCAD 2000
 90
        0
280
     0
281
     0
  0
CLASS
  1
ACDBPLACEHOLDER
  2
AcDbPlaceHolder
  3
AutoCAD 2000
 90
        0
280
     0
281
     0
  0
CLASS
  1
VBA_PROJECT
  2
AcDbVbaProject
  3
acadvba
 90
    32768
280
     0
281
     0
  0
CLASS
  1
WIPEOUT
  2
AcDbWipeout
  3
WipeOut|AutoCAD Express Tool|expresstools@autodesk.com
 90
    32895
280
     0
281
     1
  0
CLASS
  1
WIPEOUTVARIABLES
  2
AcDbWipeoutVariables
  3
WipeOut|AutoCAD Express Tool|expresstools@autodesk.com
 90
        0
280
     0
281
     0
  0
CLASS
  1
RTEXT
  2
RText
  3
RText|AutoCAD Express Tool|expresstools@autodesk.com
 90
    32768
280
     0
281
     1
  0
CLASS
  1
ARCALIGNEDTEXT
  2
AcDbArcAlignedText
  3
ATEXT|AutoCAD Express Tool|expresstools@autodesk.com
 90
    32768
280
     0
281
     1
  0
ENDSEC
  0
SECTION
  2
TABLES
  0
TABLE
  2
VPORT
  5
7
100
AcDbSymbolTable
 70
     1
  0
VPORT
  5
15
100
AcDbSymbolTableRecord
100
AcDbViewportTableRecord
  2
*ACTIVE
 70
     0
 10
0.0
 20
0.0
 11
1.0
 21
1.0
 12
6.591288
 22
4.579184
 13
0.0
 23
0.0
 14
1.0
 24
1.0
 15
0.0
 25
0.0
 16
0.0
 26
0.0
 36
1.0
 17
0.0
 27
0.0
 37
0.0
 40
9.158369
 41
0.688564
 42
50.0
 43
0.0
 44
0.0
 50
0.0
 51
0.0
 71
     0
 72
   100
 73
     1
 74
     1
 75
     0
 76
     0
 77
     0
 78
     0
281
     0
 65
     0
110
0.0
120
0.0
130
0.0
111
1.0
121
0.0
131
0.0
112
0.0
122
1.0
132
0.0
345
0
346
0
 79
     0
146
0.0
  0
ENDTAB
  0
TABLE
  2
LTYPE
  5
4
100
AcDbSymbolTable
 70
     3
  0
LTYPE
  5
11
100
AcDbSymbolTableRecord
100
AcDbLinetypeTableRecord
  2
ByBlock
 70
    64
  3

 72
    65
 73
     0
 40
0.0
  0
LTYPE
  5
12
100
AcDbSymbolTableRecord
100
AcDbLinetypeTableRecord
  2
ByLayer
 70
    64
  3

 72
    65
 73
     0
 40
0.0
  0
LTYPE
  5
13
100
AcDbSymbolTableRecord
100
AcDbLinetypeTableRecord
  2
Continuous
 70
    64
  3
Solid line
 72
    65
 73
     0
 40
0.0
  0
ENDTAB
  0
TABLE
  2
LAYER
  5
2
100
AcDbSymbolTable
 70
     1
  0
LAYER
  5
14
100
AcDbSymbolTableRecord
100
AcDbLayerTableRecord
  2
0
 70
     0
 62
     7
  6
Continuous
290
     1
370
    -3
390
1D
  0
ENDTAB
  0
TABLE
  2
STYLE
  5
3
100
AcDbSymbolTable
 70
     1
  0
STYLE
  5
17
100
AcDbSymbolTableRecord
100
AcDbTextStyleTableRecord
  2
Standard
 70
     0
 40
0.0
 41
1.0
 50
0.0
 71
     0
 42
0.0
  3
txt
  4

  0
ENDTAB
  0
TABLE
  2
VIEW
  5
5
100
AcDbSymbolTable
 70
     0
  0
ENDTAB
  0
TABLE
  2
UCS
  5
6
100
AcDbSymbolTable
 70
     0
  0
ENDTAB
  0
TABLE
  2
APPID
  5
8
100
AcDbSymbolTable
 70
     1
  0
APPID
  5
16
100
AcDbSymbolTableRecord
100
AcDbRegAppTableRecord
  2
ACAD
 70
     0
  0
ENDTAB
  0
TABLE
  2
DIMSTYLE
  5
9
100
AcDbSymbolTable
 70
     1
100
AcDbDimStyleTable
 71
     0
  0
DIMSTYLE
105
18
100
AcDbSymbolTableRecord
100
AcDbDimStyleTableRecord
  2
Standard
 70
     0
  3

  4

 40
1.0
 41
0.18
 42
0.0625
 43
0.38
 44
0.18
 45
0.0
 46
0.0
 47
0.0
 48
0.0
 71
     0
 72
     0
 73
     1
 74
     1
 75
     0
 76
     0
 77
     0
 78
     0
 79
     0
140
0.18
141
0.09
142
0.0
143
25.4
144
1.0
145
0.0
146
1.0
147
0.09
148
0.0
170
     0
171
     2
172
     0
173
     0
174
     0
175
     0
176
     0
177
     0
178
     0
179
     0
271
     4
272
     4
273
     2
274
     2
275
     0
276
     0
277
     2
278
    46
279
     0
280
     0
281
     0
282
     0
283
     1
284
     0
285
     0
286
     0
288
     0
340
17
341
0
342
0
343
0
344
0
371
    -2
372
    -2
  0
ENDTAB
  0
TABLE
  2
BLOCK_RECORD
  5
1
100
AcDbSymbolTable
 70
     0
  0
BLOCK_RECORD
  5
A
100
AcDbSymbolTableRecord
100
AcDbBlockTableRecord
  2
*MODEL_SPACE
340
20
  0
BLOCK_RECORD
  5
B
100
AcDbSymbolTableRecord
100
AcDbBlockTableRecord
  2
*PAPER_SPACE
340
21
  0
ENDTAB
  0
ENDSEC
  0
SECTION
  2
BLOCKS
  0
BLOCK
  5
D
100
AcDbEntity
  8
0
100
AcDbBlockBegin
  2
*MODEL_SPACE
 70
     0
 10
0.0
 20
0.0
 30
0.0
  3
*MODEL_SPACE
  1

  0
ENDBLK
  5
E
100
AcDbEntity
  8
0
100
AcDbBlockEnd
  0
BLOCK
  5
F
100
AcDbEntity
 67
     1
  8
0
100
AcDbBlockBegin
  2
*PAPER_SPACE
 70
     0
 10
0.0
 20
0.0
 30
0.0
  3
*PAPER_SPACE
  1

  0
ENDBLK
  5
10
100
AcDbEntity
 67
     1
  8
0
100
AcDbBlockEnd
  0
ENDSEC
  0
SECTION
  2
ENTITIES
  0
LWPOLYLINE
  5
24
100
AcDbEntity
  8
0
 62
     0
100
AcDbPolyline
 90
        2
 70
     0
 39
0.003
 10
-1.205701
 20
2.665189
 40
0.003
 41
0.003
 10
-1.780894
 20
3.303075
 40
0.003
 41
0.003
  0
LWPOLYLINE
  5
25
100
AcDbEntity
  8
0
 62
     0
100
AcDbPolyline
 90
        2
 70
     0
 39
0.003
 10
-1.780894
 20
3.303075
 40
0.003
 41
0.003
 10
-1.51613
 20
3.541819
 40
0.003
 41
0.003
  0
SPLINE
  5
26
100
AcDbEntity
  8
0
 62
     0
100
AcDbSpline
210
0.0
220
0.0
230
1.0
 70
     0
 71
     3
 72
     0
 73
     0
 74
    32
 44
0.0000000001
 11
-1.5161299212598425
 21
3.5418188976377953
 31
0.0
 11
-1.4063700787401574
 21
3.4435590551181101
 31
0.0
 11
-1.2972677165354332
 21
3.3697047244094489
 31
0.0
 11
-1.1891653543307086
 21
3.3178070866141733
 31
0.0
 11
-1.0824212598425196
 21
3.2854370078740156
 31
0.0
 11
-0.9773740157480315
 21
3.2701456692913387
 31
0.0
 11
-0.8743858267716536
 21
3.2695118110236221
 31
0.0
 11
-0.7737992125984252
 21
3.2810826771653545
 31
0.0
 11
-0.6759724409448819
 21
3.3024409448818899
 31
0.0
 11
-0.5812440944881889
 21
3.3311299212598424
 31
0.0
 11
-0.4899724409448819
 21
3.3647244094488187
 31
0.0
 11
-0.402503937007874
 21
3.400787401574803
 31
0.0
 11
-0.3192007874015748
 21
3.4368818897637796
 31
0.0
 11
-0.2403897637795276
 21
3.4705629921259842
 31
0.0
 11
-0.1664448818897638
 21
3.4994094488188976
 31
0.0
 11
-0.0977047244094488
 21
3.5209724409448819
 31
0.0
 11
-0.0345275590551181
 21
3.5328228346456694
 31
0.0
 11
0.0256811023622047
 21
3.537251968503937
 31
0.0
 11
0.0855866141732283
 21
3.5382125984251966
 31
0.0
 11
0.1449566929133858
 21
3.5357007874015749
 31
0.0
 11
0.2035669291338583
 21
3.529732283464567
 31
0.0
 11
0.2611732283464567
 21
3.5202952755905512
 31
0.0
 11
0.3175551181102362
 21
3.5074133858267715
 31
0.0
 11
0.3724763779527559
 21
3.4910787401574801
 31
0.0
 11
0.4257165354330709
 21
3.4713031496062992
 31
0.0
 11
0.4770275590551181
 21
3.4480826771653543
 31
0.0
 11
0.5261929133858267
 21
3.4214370078740157
 31
0.0
 11
0.5729724409448819
 21
3.3913622047244094
 31
0.0
 11
0.6171496062992126
 21
3.3578700787401576
 31
0.0
 11
0.6584724409448819
 21
3.320956692913386
 31
0.0
 11
0.696732283464567
 21
3.2806338582677164
 31
0.0
 11
0.7316850393700788
 21
3.2369055118110235
 31
0.0
  0
LWPOLYLINE
  5
27
100
AcDbEntity
  8
0
 62
     0
100
AcDbPolyline
 90
        2
 70
     0
 39
0.003
 10
0.731685
 20
3.236906
 40
0.003
 41
0.003
 10
0.763106
 20
3.18978
 40
0.003
 41
0.003
  0
LWPOLYLINE
  5
28
100
AcDbEntity
  8
0
 62
     0
100
AcDbPolyline
 90
        2
 70
     0
 39
0.003
 10
0.763106
 20
3.18978
 40
0.003
 41
0.003
 10
0.186024
 20
2.666213
 40
0.003
 41
0.003
  0
LWPOLYLINE
  5
29
100
AcDbEntity
  8
0
 62
     0
100
AcDbPolyline
 90
        2
 70
     0
 39
0.003
 10
0.186024
 20
2.666213
 40
0.003
 41
0.003
 10
-1.205701
 20
2.665189
 40
0.003
 41
0.003
  0
MTEXT
  5
2A
100
AcDbEntity
  8
0
 62
     0
100
AcDbMText
 10
-1.595142
 20
2.770988
 30
0.0
 40
0.166665
 41
0.0
 71
     1
 72
     1
  1
{\fBookman Old Style|b0|i0|c0|p32;BA  1437}
 73
     1
 44
1.0
  0
MTEXT
  5
2B
100
AcDbEntity
  8
0
 62
     0
100
AcDbMText
 10
-1.595142
 20
2.583488
 30
0.0
 40
0.166665
 41
0.0
 71
     1
 72
     1
  1
{\fBookman Old Style|b0|i0|c0|p32;7/8" x 2-1/2"}
 73
     1
 44
1.0
  0
LWPOLYLINE
  5
2C
100
AcDbEntity
  8
0
 62
     9
100
AcDbPolyline
 90
        2
 70
     0
 39
0.003
 10
-1.728031
 20
-0.187118
 40
0.003
 41
0.003
 10
-1.080508
 20
-0.570079
 40
0.003
 41
0.003
  0
LWPOLYLINE
  5
2D
100
AcDbEntity
  8
0
 62
     9
100
AcDbPolyline
 90
        2
 70
     0
 39
0.003
 10
-1.080508
 20
-0.570079
 40
0.003
 41
0.003
 10
-0.724
 20
-0.568902
 40
0.003
 41
0.003
  0
LWPOLYLINE
  5
2E
100
AcDbEntity
  8
0
 62
     9
100
AcDbPolyline
 90
        2
 70
     0
 39
0.003
 10
-0.724
 20
-0.568902
 40
0.003
 41
0.003
 10
-1.371524
 20
-0.185941
 40
0.003
 41
0.003
  0
LWPOLYLINE
  5
2F
100
AcDbEntity
  8
0
 62
     9
100
AcDbPolyline
 90
        2
 70
     0
 39
0.003
 10
-1.371524
 20
-0.185941
 40
0.003
 41
0.003
 10
-1.728031
 20
-0.187118
 40
0.003
 41
0.003
  0
LWPOLYLINE
  5
30
100
AcDbEntity
  8
0
 62
     0
100
AcDbPolyline
 90
        2
 70
     0
 39
0.003
 10
-1.728031
 20
-0.187118
 40
0.003
 41
0.003
 10
-1.080508
 20
-0.570079
 40
0.003
 41
0.003
  0
LWPOLYLINE
  5
31
100
AcDbEntity
  8
0
 62
     0
100
AcDbPolyline
 90
        2
 70
     0
 39
0.003
 10
-1.080508
 20
-0.570079
 40
0.003
 41
0.003
 10
-0.724
 20
-0.568902
 40
0.003
 41
0.003
  0
LWPOLYLINE
  5
32
100
AcDbEntity
  8
0
 62
     0
100
AcDbPolyline
 90
        2
 70
     0
 39
0.003
 10
-0.724
 20
-0.568902
 40
0.003
 41
0.003
 10
-1.371524
 20
-0.185941
 40
0.003
 41
0.003
  0
LWPOLYLINE
  5
33
100
AcDbEntity
  8
0
 62
     0
100
AcDbPolyline
 90
        2
 70
     0
 39
0.003
 10
-1.371524
 20
-0.185941
 40
0.003
 41
0.003
 10
-1.728031
 20
-0.187118
 40
0.003
 41
0.003
  0
LWPOLYLINE
  5
34
100
AcDbEntity
  8
0
 62
   254
100
AcDbPolyline
 90
        2
 70
     0
 39
0.003
 10
-1.371524
 20
-0.185941
 40
0.003
 41
0.003
 10
-0.724
 20
-0.568902
 40
0.003
 41
0.003
  0
LWPOLYLINE
  5
35
100
AcDbEntity
  8
0
 62
   254
100
AcDbPolyline
 90
        2
 70
     0
 39
0.003
 10
-0.724
 20
-0.568902
 40
0.003
 41
0.003
 10
-0.718484
 20
-0.49324
 40
0.003
 41
0.003
  0
LWPOLYLINE
  5
36
100
AcDbEntity
  8
0
 62
   254
100
AcDbPolyline
 90
        2
 70
     0
 39
0.003
 10
-0.718484
 20
-0.49324
 40
0.003
 41
0.003
 10
-1.366008
 20
-0.11028
 40
0.003
 41
0.003
  0
LWPOLYLINE
  5
37
100
AcDbEntity
  8
0
 62
   254
100
AcDbPolyline
 90
        2
 70
     0
 39
0.003
 10
-1.366008
 20
-0.11028
 40
0.003
 41
0.003
 10
-1.371524
 20
-0.185941
 40
0.003
 41
0.003
  0
LWPOLYLINE
  5
38
100
AcDbEntity
  8
0
 62
   254
100
AcDbPolyline
 90
        2
 70
     0
 39
0.003
 10
-1.366008
 20
-0.11028
 40
0.003
 41
0.003
 10
-0.718484
 20
-0.49324
 40
0.003
 41
0.003
  0
LWPOLYLINE
  5
39
100
AcDbEntity
  8
0
 62
   254
100
AcDbPolyline
 90
        2
 70
     0
 39
0.003
 10
-0.718484
 20
-0.49324
 40
0.003
 41
0.003
 10
-0.708764
 20
-0.42239
 40
0.003
 41
0.003
  0
LWPOLYLINE
  5
3A
100
AcDbEntity
  8
0
 62
   254
100
AcDbPolyline
 90
        2
 70
     0
 39
0.003
 10
-0.708764
 20
-0.42239
 40
0.003
 41
0.003
 10
-1.356287
 20
-0.039429
 40
0.003
 41
0.003
  0
LWPOLYLINE
  5
3B
100
AcDbEntity
  8
0
 62
   254
100
AcDbPolyline
 90
        2
 70
     0
 39
0.003
 10
-1.356287
 20
-0.039429
 40
0.003
 41
0.003
 10
-1.366008
 20
-0.11028
 40
0.003
 41
0.003
  0
LWPOLYLINE
  5
3C
100
AcDbEntity
  8
0
 62
   254
100
AcDbPolyline
 90
        2
 70
     0
 39
0.003
 10
-1.356287
 20
-0.039429
 40
0.003
 41
0.003
 10
-0.708764
 20
-0.42239
 40
0.003
 41
0.003
  0
LWPOLYLINE
  5
3D
100
AcDbEntity
  8
0
 62
   254
100
AcDbPolyline
 90
        2
 70
     0
 39
0.003
 10
-0.708764
 20
-0.42239
 40
0.003
 41
0.003
 10
-0.695059
 20
-0.356169
 40
0.003
 41
0.003
  0
LWPOLYLINE
  5
3E
100
AcDbEntity
  8
0
 62
   254
100
AcDbPolyline
 90
        2
 70
     0
 39
0.003
 10
-0.695059
 20
-0.356169
 40
0.003
 41
0.003
 10
-1.342583
 20
0.026791
 40
0.003
 41
0.003
  0
LWPOLYLINE
  5
3F
100
AcDbEntity
  8
0
 62
   254
100
AcDbPolyline
 90
        2
 70
     0
 39
0.003
 10
-1.342583
 20
0.026791
 40
0.003
 41
0.003
 10
-1.356287
 20
-0.039429
 40
0.003
 41
0.003
  0
LWPOLYLINE
  5
40
100
AcDbEntity
  8
0
 62
   254
100
AcDbPolyline
 90
        2
 70
     0
 39
0.003
 10
-1.342583
 20
0.026791
 40
0.003
 41
0.003
 10
-0.695059
 20
-0.356169
 40
0.003
 41
0.003
  0
LWPOLYLINE
  5
41
100
AcDbEntity
  8
0
 62
   254
100
AcDbPolyline
 90
        2
 70
     0
 39
0.003
 10
-0.695059
 20
-0.356169
 40
0.003
 41
0.003
 10
-0.677618
 20
-0.29437
 40
0.003
 41
0.003
  0
LWPOLYLINE
  5
42
100
AcDbEntity
  8
0
 62
   254
100
AcDbPolyline
 90
        2
 70
     0
 39
0.003
 10
-0.677618
 20
-0.29437
 40
0.003
 41
0.003
 10
-1.325142
 20
0.088591
 40
0.003
 41
0.003
  0
LWPOLYLINE
  5
43
100
AcDbEntity
  8
0
 62
   254
100
AcDbPolyline
 90
        2
 70
     0
 39
0.003
 10
-1.325142
 20
0.088591
 40
0.003
 41
0.003
 10
-1.342583
 20
0.026791
 40
0.003
 41
0.003
  0
LWPOLYLINE
  5
44
100
AcDbEntity
  8
0
 62
   254
100
AcDbPolyline
 90
        2
 70
     0
 39
0.003
 10
-1.325142
 20
0.088591
 40
0.003
 41
0.003
 10
-0.677618
 20
-0.29437
 40
0.003
 41
0.003
  0
LWPOLYLINE
  5
45
100
AcDbEntity
  8
0
 62
   254
100
AcDbPolyline
 90
        2
 70
     0
 39
0.003
 10
-0.677618
 20
-0.29437
 40
0.003
 41
0.003
 10
-0.656665
 20
-0.236815
 40
0.003
 41
0.003
  0
LWPOLYLINE
  5
46
100
AcDbEntity
  8
0
 62
   254
100
AcDbPolyline
 90
        2
 70
     0
 39
0.003
 10
-0.656665
 20
-0.236815
 40
0.003
 41
0.003
 10
-1.304189
 20
0.146146
 40
0.003
 41
0.003
  0
LWPOLYLINE
  5
47
100
AcDbEntity
  8
0
 62
   254
100
AcDbPolyline
 90
        2
 70
     0
 39
0.003
 10
-1.304189
 20
0.146146
 40
0.003
 41
0.003
 10
-1.325142
 20
0.088591
 40
0.003
 41
0.003
  0
LWPOLYLINE
  5
48
100
AcDbEntity
  8
0
 62
   254
100
AcDbPolyline
 90
        2
 70
     0
 39
0.003
 10
-1.304189
 20
0.146146
 40
0.003
 41
0.003
 10
-0.656665
 20
-0.236815
 40
0.003
 41
0.003
  0
LWPOLYLINE
  5
49
100
AcDbEntity
  8
0
 62
   254
100
AcDbPolyline
 90
        2
 70
     0
 39
0.003
 10
-0.656665
 20
-0.236815
 40
0.003
 41
0.003
 10
-0.632453
 20
-0.183291
 40
0.003
 41
0.003
  0
LWPOLYLINE
  5
4A
100
AcDbEntity
  8
0
 62
   254
100
AcDbPolyline
 90
        2
 70
     0
 39
0.003
 10
-0.632453
 20
-0.183291
 40
0.003
 41
0.003
 10
-1.279976
 20
0.199669
 40
0.003
 41
0.003
  0
LWPOLYLINE
  5
4B
100
AcDbEntity
  8
0
 62
   254
100
AcDbPolyline
 90
        2
 70
     0
 39
0.003
 10
-1.279976
 20
0.199669
 40
0.003
 41
0.003
 10
-1.304189
 20
0.146146
 40
0.003
 41
0.003
  0
LWPOLYLINE
  5
4C
100
AcDbEntity
  8
0
 62
   254
100
AcDbPolyline
 90
        2
 70
     0
 39
0.003
 10
-1.279976
 20
0.199669
 40
0.003
 41
0.003
 10
-0.632453
 20
-0.183291
 40
0.003
 41
0.003
  0
LWPOLYLINE
  5
4D
100
AcDbEntity
  8
0
 62
   254
100
AcDbPolyline
 90
        2
 70
     0
 39
0.003
 10
-0.632453
 20
-0.183291
 40
0.003
 41
0.003
 10
-0.605205
 20
-0.13361
 40
0.003
 41
0.003
  0
LWPOLYLINE
  5
4E
100
AcDbEntity
  8
0
 62
   254
100
AcDbPolyline
 90
        2
 70
     0
 39
0.003
 10
-0.605205
 20
-0.13361
 40
0.003
 41
0.003
 10
-1.252728
 20
0.24935
 40
0.003
 41
0.003
  0
LWPOLYLINE
  5
4F
100
AcDbEntity
  8
0
 62
   254
100
AcDbPolyline
 90
        2
 70
     0
 39
0.003
 10
-1.252728
 20
0.24935
 40
0.003
 41
0.003
 10
-1.279976
 20
0.199669
 40
0.003
 41
0.003
  0
LWPOLYLINE
  5
50
100
AcDbEntity
  8
0
 62
   254
100
AcDbPolyline
 90
        2
 70
     0
 39
0.003
 10
-1.252728
 20
0.24935
 40
0.003
 41
0.003
 10
-0.605205
 20
-0.13361
 40
0.003
 41
0.003
  0
LWPOLYLINE
  5
51
100
AcDbEntity
  8
0
 62
   254
100
AcDbPolyline
 90
        2
 70
     0
 39
0.003
 10
-0.605205
 20
-0.13361
 40
0.003
 41
0.003
 10
-0.575173
 20
-0.087571
 40
0.003
 41
0.003
  0
LWPOLYLINE
  5
52
100
AcDbEntity
  8
0
 62
   254
100
AcDbPolyline
 90
        2
 70
     0
 39
0.003
 10
-0.575173
 20
-0.087571
 40
0.003
 41
0.003
 10
-1.222697
 20
0.29539
 40
0.003
 41
0.003
  0
LWPOLYLINE
  5
53
100
AcDbEntity
  8
0
 62
   254
100
AcDbPolyline
 90
        2
 70
     0
 39
0.003
 10
-1.222697
 20
0.29539
 40
0.003
 41
0.003
 10
-1.252728
 20
0.24935
 40
0.003
 41
0.003
  0
LWPOLYLINE
  5
54
100
AcDbEntity
  8
0
 62
   254
100
AcDbPolyline
 90
        2
 70
     0
 39
0.003
 10
-1.222697
 20
0.29539
 40
0.003
 41
0.003
 10
-0.575173
 20
-0.087571
 40
0.003
 41
0.003
  0
LWPOLYLINE
  5
55
100
AcDbEntity
  8
0
 62
   254
100
AcDbPolyline
 90
        2
 70
     0
 39
0.003
 10
-0.575173
 20
-0.087571
 40
0.003
 41
0.003
 10
-0.542575
 20
-0.044988
 40
0.003
 41
0.003
  0
LWPOLYLINE
  5
56
100
AcDbEntity
  8
0
 62
   254
100
AcDbPolyline
 90
        2
 70
     0
 39
0.003
 10
-0.542575
 20
-0.044988
 40
0.003
 41
0.003
 10
-1.190098
 20
0.337972
 40
0.003
 41
0.003
  0
LWPOLYLINE
  5
57
100
AcDbEntity
  8
0
 62
   254
100
AcDbPolyline
 90
        2
 70
     0
 39
0.003
 10
-1.190098
 20
0.337972
 40
0.003
 41
0.003
 10
-1.222697
 20
0.29539
 40
0.003
 41
0.003
  0
LWPOLYLINE
  5
58
100
AcDbEntity
  8
0
 62
   254
100
AcDbPolyline
 90
        2
 70
     0
 39
0.003
 10
-1.190098
 20
0.337972
 40
0.003
 41
0.003
 10
-0.542575
 20
-0.044988
 40
0.003
 41
0.003
  0
LWPOLYLINE
  5
59
100
AcDbEntity
  8
0
 62
   254
100
AcDbPolyline
 90
        2
 70
     0
 39
0.003
 10
-0.542575
 20
-0.044988
 40
0.003
 41
0.003
 10
-0.507665
 20
-0.005654
 40
0.003
 41
0.003
  0
LWPOLYLINE
  5
5A
100
AcDbEntity
  8
0
 62
   254
100
AcDbPolyline
 90
        2
 70
     0
 39
0.003
 10
-0.507665
 20
-0.005654
 40
0.003
 41
0.003
 10
-1.155189
 20
0.377307
 40
0.003
 41
0.003
  0
LWPOLYLINE
  5
5B
100
AcDbEntity
  8
0
 62
   254
100
AcDbPolyline
 90
        2
 70
     0
 39
0.003
 10
-1.155189
 20
0.377307
 40
0.003
 41
0.003
 10
-1.190098
 20
0.337972
 40
0.003
 41
0.003
  0
LWPOLYLINE
  5
5C
100
AcDbEntity
  8
0
 62
   254
100
AcDbPolyline
 90
        2
 70
     0
 39
0.003
 10
-1.155189
 20
0.377307
 40
0.003
 41
0.003
 10
-0.507665
 20
-0.005654
 40
0.003
 41
0.003
  0
LWPOLYLINE
  5
5D
100
AcDbEntity
  8
0
 62
   254
100
AcDbPolyline
 90
        2
 70
     0
 39
0.003
 10
-0.507665
 20
-0.005654
 40
0.003
 41
0.003
 10
-0.470669
 20
0.030618
 40
0.003
 41
0.003
  0
LWPOLYLINE
  5
5E
100
AcDbEntity
  8
0
 62
   254
100
AcDbPolyline
 90
        2
 70
     0
 39
0.003
 10
-0.470669
 20
0.030618
 40
0.003
 41
0.003
 10
-1.118193
 20
0.413579
 40
0.003
 41
0.003
  0
LWPOLYLINE
  5
5F
100
AcDbEntity
  8
0
 62
   254
100
AcDbPolyline
 90
        2
 70
     0
 39
0.003
 10
-1.118193
 20
0.413579
 40
0.003
 41
0.003
 10
-1.155189
 20
0.377307
 40
0.003
 41
0.003
  0
LWPOLYLINE
  5
60
100
AcDbEntity
  8
0
 62
   254
100
AcDbPolyline
 90
        2
 70
     0
 39
0.003
 10
-1.118193
 20
0.413579
 40
0.003
 41
0.003
 10
-0.470669
 20
0.030618
 40
0.003
 41
0.003
  0
LWPOLYLINE
  5
61
100
AcDbEntity
  8
0
 62
   254
100
AcDbPolyline
 90
        2
 70
     0
 39
0.003
 10
-0.470669
 20
0.030618
 40
0.003
 41
0.003
 10
-0.431839
 20
0.064039
 40
0.003
 41
0.003
  0
LWPOLYLINE
  5
62
100
AcDbEntity
  8
0
 62
   254
100
AcDbPolyline
 90
        2
 70
     0
 39
0.003
 10
-0.431839
 20
0.064039
 40
0.003
 41
0.003
 10
-1.079362
 20
0.447
 40
0.003
 41
0.003
  0
LWPOLYLINE
  5
63
100
AcDbEntity
  8
0
 62
   254
100
AcDbPolyline
 90
        2
 70
     0
 39
0.003
 10
-1.079362
 20
0.447
 40
0.003
 41
0.003
 10
-1.118193
 20
0.413579
 40
0.003
 41
0.003
  0
LWPOLYLINE
  5
64
100
AcDbEntity
  8
0
 62
   254
100
AcDbPolyline
 90
        2
 70
     0
 39
0.003
 10
-1.079362
 20
0.447
 40
0.003
 41
0.003
 10
-0.431839
 20
0.064039
 40
0.003
 41
0.003
  0
LWPOLYLINE
  5
65
100
AcDbEntity
  8
0
 62
   254
100
AcDbPolyline
 90
        2
 70
     0
 39
0.003
 10
-0.431839
 20
0.064039
 40
0.003
 41
0.003
 10
-0.39139
 20
0.094787
 40
0.003
 41
0.003
  0
LWPOLYLINE
  5
66
100
AcDbEntity
  8
0
 62
   254
100
AcDbPolyline
 90
        2
 70
     0
 39
0.003
 10
-0.39139
 20
0.094787
 40
0.003
 41
0.003
 10
-1.038913
 20
0.477748
 40
0.003
 41
0.003
  0
LWPOLYLINE
  5
67
100
AcDbEntity
  8
0
 62
   254
100
AcDbPolyline
 90
        2
 70
     0
 39
0.003
 10
-1.038913
 20
0.477748
 40
0.003
 41
0.003
 10
-1.079362
 20
0.447
 40
0.003
 41
0.003
  0
LWPOLYLINE
  5
68
100
AcDbEntity
  8
0
 62
     9
100
AcDbPolyline
 90
        2
 70
     0
 39
0.003
 10
-1.038913
 20
0.477748
 40
0.003
 41
0.003
 10
-0.39139
 20
0.094787
 40
0.003
 41
0.003
  0
LWPOLYLINE
  5
69
100
AcDbEntity
  8
0
 62
     9
100
AcDbPolyline
 90
        2
 70
     0
 39
0.003
 10
-0.39139
 20
0.094787
 40
0.003
 41
0.003
 10
-0.349583
 20
0.123071
 40
0.003
 41
0.003
  0
LWPOLYLINE
  5
6A
100
AcDbEntity
  8
0
 62
     9
100
AcDbPolyline
 90
        2
 70
     0
 39
0.003
 10
-0.349583
 20
0.123071
 40
0.003
 41
0.003
 10
-0.997106
 20
0.506031
 40
0.003
 41
0.003
  0
LWPOLYLINE
  5
6B
100
AcDbEntity
  8
0
 62
     9
100
AcDbPolyline
 90
        2
 70
     0
 39
0.003
 10
-0.997106
 20
0.506031
 40
0.003
 41
0.003
 10
-1.038913
 20
0.477748
 40
0.003
 41
0.003
  0
LWPOLYLINE
  5
6C
100
AcDbEntity
  8
0
 62
     9
100
AcDbPolyline
 90
        2
 70
     0
 39
0.003
 10
-0.997106
 20
0.506031
 40
0.003
 41
0.003
 10
-0.349583
 20
0.123071
 40
0.003
 41
0.003
  0
LWPOLYLINE
  5
6D
100
AcDbEntity
  8
0
 62
     9
100
AcDbPolyline
 90
        2
 70
     0
 39
0.003
 10
-0.349583
 20
0.123071
 40
0.003
 41
0.003
 10
-0.306634
 20
0.149083
 40
0.003
 41
0.003
  0
LWPOLYLINE
  5
6E
100
AcDbEntity
  8
0
 62
     9
100
AcDbPolyline
 90
        2
 70
     0
 39
0.003
 10
-0.306634
 20
0.149083
 40
0.003
 41
0.003
 10
-0.954157
 20
0.532043
 40
0.003
 41
0.003
  0
LWPOLYLINE
  5
6F
100
AcDbEntity
  8
0
 62
     9
100
AcDbPolyline
 90
        2
 70
     0
 39
0.003
 10
-0.954157
 20
0.532043
 40
0.003
 41
0.003
 10
-0.997106
 20
0.506031
 40
0.003
 41
0.003
  0
LWPOLYLINE
  5
70
100
AcDbEntity
  8
0
 62
     9
100
AcDbPolyline
 90
        2
 70
     0
 39
0.003
 10
-0.954157
 20
0.532043
 40
0.003
 41
0.003
 10
-0.306634
 20
0.149083
 40
0.003
 41
0.003
  0
LWPOLYLINE
  5
71
100
AcDbEntity
  8
0
 62
     9
100
AcDbPolyline
 90
        2
 70
     0
 39
0.003
 10
-0.306634
 20
0.149083
 40
0.003
 41
0.003
 10
-0.262795
 20
0.17302
 40
0.003
 41
0.003
  0
LWPOLYLINE
  5
72
100
AcDbEntity
  8
0
 62
     9
100
AcDbPolyline
 90
        2
 70
     0
 39
0.003
 10
-0.262795
 20
0.17302
 40
0.003
 41
0.003
 10
-0.910319
 20
0.55598
 40
0.003
 41
0.003
  0
LWPOLYLINE
  5
73
100
AcDbEntity
  8
0
 62
     9
100
AcDbPolyline
 90
        2
 70
     0
 39
0.003
 10
-0.910319
 20
0.55598
 40
0.003
 41
0.003
 10
-0.954157
 20
0.532043
 40
0.003
 41
0.003
  0
LWPOLYLINE
  5
74
100
AcDbEntity
  8
0
 62
     9
100
AcDbPolyline
 90
        2
 70
     0
 39
0.003
 10
-0.910319
 20
0.55598
 40
0.003
 41
0.003
 10
-0.262795
 20
0.17302
 40
0.003
 41
0.003
  0
LWPOLYLINE
  5
75
100
AcDbEntity
  8
0
 62
     9
100
AcDbPolyline
 90
        2
 70
     0
 39
0.003
 10
-0.262795
 20
0.17302
 40
0.003
 41
0.003
 10
-0.218291
 20
0.195067
 40
0.003
 41
0.003
  0
LWPOLYLINE
  5
76
100
AcDbEntity
  8
0
 62
     9
100
AcDbPolyline
 90
        2
 70
     0
 39
0.003
 10
-0.218291
 20
0.195067
 40
0.003
 41
0.003
 10
-0.865815
 20
0.578028
 40
0.003
 41
0.003
  0
LWPOLYLINE
  5
77
100
AcDbEntity
  8
0
 62
     9
100
AcDbPolyline
 90
        2
 70
     0
 39
0.003
 10
-0.865815
 20
0.578028
 40
0.003
 41
0.003
 10
-0.910319
 20
0.55598
 40
0.003
 41
0.003
  0
LWPOLYLINE
  5
78
100
AcDbEntity
  8
0
 62
     9
100
AcDbPolyline
 90
        2
 70
     0
 39
0.003
 10
-0.865815
 20
0.578028
 40
0.003
 41
0.003
 10
-0.218291
 20
0.195067
 40
0.003
 41
0.003
  0
LWPOLYLINE
  5
79
100
AcDbEntity
  8
0
 62
     9
100
AcDbPolyline
 90
        2
 70
     0
 39
0.003
 10
-0.218291
 20
0.195067
 40
0.003
 41
0.003
 10
-0.173366
 20
0.215437
 40
0.003
 41
0.003
  0
LWPOLYLINE
  5
7A
100
AcDbEntity
  8
0
 62
     9
100
AcDbPolyline
 90
        2
 70
     0
 39
0.003
 10
-0.173366
 20
0.215437
 40
0.003
 41
0.003
 10
-0.82089
 20
0.598398
 40
0.003
 41
0.003
  0
LWPOLYLINE
  5
7B
100
AcDbEntity
  8
0
 62
     9
100
AcDbPolyline
 90
        2
 70
     0
 39
0.003
 10
-0.82089
 20
0.598398
 40
0.003
 41
0.003
 10
-0.865815
 20
0.578028
 40
0.003
 41
0.003
  0
LWPOLYLINE
  5
7C
100
AcDbEntity
  8
0
 62
     9
100
AcDbPolyline
 90
        2
 70
     0
 39
0.003
 10
-0.82089
 20
0.598398
 40
0.003
 41
0.003
 10
-0.173366
 20
0.215437
 40
0.003
 41
0.003
  0
LWPOLYLINE
  5
7D
100
AcDbEntity
  8
0
 62
     9
100
AcDbPolyline
 90
        2
 70
     0
 39
0.003
 10
-0.173366
 20
0.215437
 40
0.003
 41
0.003
 10
-0.12826
 20
0.234315
 40
0.003
 41
0.003
  0
LWPOLYLINE
  5
7E
100
AcDbEntity
  8
0
 62
     9
100
AcDbPolyline
 90
        2
 70
     0
 39
0.003
 10
-0.12826
 20
0.234315
 40
0.003
 41
0.003
 10
-0.775783
 20
0.617276
 40
0.003
 41
0.003
  0
LWPOLYLINE
  5
7F
100
AcDbEntity
  8
0
 62
     9
100
AcDbPolyline
 90
        2
 70
     0
 39
0.003
 10
-0.775783
 20
0.617276
 40
0.003
 41
0.003
 10
-0.82089
 20
0.598398
 40
0.003
 41
0.003
  0
LWPOLYLINE
  5
80
100
AcDbEntity
  8
0
 62
     9
100
AcDbPolyline
 90
        2
 70
     0
 39
0.003
 10
-0.775783
 20
0.617276
 40
0.003
 41
0.003
 10
-0.12826
 20
0.234315
 40
0.003
 41
0.003
  0
LWPOLYLINE
  5
81
100
AcDbEntity
  8
0
 62
     9
100
AcDbPolyline
 90
        2
 70
     0
 39
0.003
 10
-0.12826
 20
0.234315
 40
0.003
 41
0.003
 10
-0.083209
 20
0.251906
 40
0.003
 41
0.003
  0
LWPOLYLINE
  5
82
100
AcDbEntity
  8
0
 62
     9
100
AcDbPolyline
 90
        2
 70
     0
 39
0.003
 10
-0.083209
 20
0.251906
 40
0.003
 41
0.003
 10
-0.730732
 20
0.634866
 40
0.003
 41
0.003
  0
LWPOLYLINE
  5
83
100
AcDbEntity
  8
0
 62
     9
100
AcDbPolyline
 90
        2
 70
     0
 39
0.003
 10
-0.730732
 20
0.634866
 40
0.003
 41
0.003
 10
-0.775783
 20
0.617276
 40
0.003
 41
0.003
  0
LWPOLYLINE
  5
84
100
AcDbEntity
  8
0
 62
     9
100
AcDbPolyline
 90
        2
 70
     0
 39
0.003
 10
-0.730732
 20
0.634866
 40
0.003
 41
0.003
 10
-0.083209
 20
0.251906
 40
0.003
 41
0.003
  0
LWPOLYLINE
  5
85
100
AcDbEntity
  8
0
 62
     9
100
AcDbPolyline
 90
        2
 70
     0
 39
0.003
 10
-0.083209
 20
0.251906
 40
0.003
 41
0.003
 10
-0.038441
 20
0.268394
 40
0.003
 41
0.003
  0
LWPOLYLINE
  5
86
100
AcDbEntity
  8
0
 62
     9
100
AcDbPolyline
 90
        2
 70
     0
 39
0.003
 10
-0.038441
 20
0.268394
 40
0.003
 41
0.003
 10
-0.685965
 20
0.651354
 40
0.003
 41
0.003
  0
LWPOLYLINE
  5
87
100
AcDbEntity
  8
0
 62
     9
100
AcDbPolyline
 90
        2
 70
     0
 39
0.003
 10
-0.685965
 20
0.651354
 40
0.003
 41
0.003
 10
-0.730732
 20
0.634866
 40
0.003
 41
0.003
  0
LWPOLYLINE
  5
88
100
AcDbEntity
  8
0
 62
     9
100
AcDbPolyline
 90
        2
 70
     0
 39
0.003
 10
-0.685965
 20
0.651354
 40
0.003
 41
0.003
 10
-0.038441
 20
0.268394
 40
0.003
 41
0.003
  0
LWPOLYLINE
  5
89
100
AcDbEntity
  8
0
 62
     9
100
AcDbPolyline
 90
        2
 70
     0
 39
0.003
 10
-0.038441
 20
0.268394
 40
0.003
 41
0.003
 10
0.005795
 20
0.283988
 40
0.003
 41
0.003
  0
LWPOLYLINE
  5
8A
100
AcDbEntity
  8
0
 62
     9
100
AcDbPolyline
 90
        2
 70
     0
 39
0.003
 10
0.005795
 20
0.283988
 40
0.003
 41
0.003
 10
-0.641728
 20
0.666949
 40
0.003
 41
0.003
  0
LWPOLYLINE
  5
8B
100
AcDbEntity
  8
0
 62
     9
100
AcDbPolyline
 90
        2
 70
     0
 39
0.003
 10
-0.641728
 20
0.666949
 40
0.003
 41
0.003
 10
-0.685965
 20
0.651354
 40
0.003
 41
0.003
  0
LWPOLYLINE
  5
8C
100
AcDbEntity
  8
0
 62
     9
100
AcDbPolyline
 90
        2
 70
     0
 39
0.003
 10
-0.641728
 20
0.666949
 40
0.003
 41
0.003
 10
0.005795
 20
0.283988
 40
0.003
 41
0.003
  0
LWPOLYLINE
  5
8D
100
AcDbEntity
  8
0
 62
     9
100
AcDbPolyline
 90
        2
 70
     0
 39
0.003
 10
0.005795
 20
0.283988
 40
0.003
 41
0.003
 10
0.049272
 20
0.298878
 40
0.003
 41
0.003
  0
LWPOLYLINE
  5
8E
100
AcDbEntity
  8
0
 62
     9
100
AcDbPolyline
 90
        2
 70
     0
 39
0.003
 10
0.049272
 20
0.298878
 40
0.003
 41
0.003
 10
-0.598252
 20
0.681839
 40
0.003
 41
0.003
  0
LWPOLYLINE
  5
8F
100
AcDbEntity
  8
0
 62
     9
100
AcDbPolyline
 90
        2
 70
     0
 39
0.003
 10
-0.598252
 20
0.681839
 40
0.003
 41
0.003
 10
-0.641728
 20
0.666949
 40
0.003
 41
0.003
  0
LWPOLYLINE
  5
90
100
AcDbEntity
  8
0
 62
     9
100
AcDbPolyline
 90
        2
 70
     0
 39
0.003
 10
-0.598252
 20
0.681839
 40
0.003
 41
0.003
 10
0.049272
 20
0.298878
 40
0.003
 41
0.003
  0
LWPOLYLINE
  5
91
100
AcDbEntity
  8
0
 62
     9
100
AcDbPolyline
 90
        2
 70
     0
 39
0.003
 10
0.049272
 20
0.298878
 40
0.003
 41
0.003
 10
0.091736
 20
0.313264
 40
0.003
 41
0.003
  0
LWPOLYLINE
  5
92
100
AcDbEntity
  8
0
 62
     9
100
AcDbPolyline
 90
        2
 70
     0
 39
0.003
 10
0.091736
 20
0.313264
 40
0.003
 41
0.003
 10
-0.555787
 20
0.696224
 40
0.003
 41
0.003
  0
LWPOLYLINE
  5
93
100
AcDbEntity
  8
0
 62
     9
100
AcDbPolyline
 90
        2
 70
     0
 39
0.003
 10
-0.555787
 20
0.696224
 40
0.003
 41
0.003
 10
-0.598252
 20
0.681839
 40
0.003
 41
0.003
  0
LWPOLYLINE
  5
94
100
AcDbEntity
  8
0
 62
     9
100
AcDbPolyline
 90
        2
 70
     0
 39
0.003
 10
-0.555787
 20
0.696224
 40
0.003
 41
0.003
 10
0.091736
 20
0.313264
 40
0.003
 41
0.003
  0
LWPOLYLINE
  5
95
100
AcDbEntity
  8
0
 62
     9
100
AcDbPolyline
 90
        2
 70
     0
 39
0.003
 10
0.091736
 20
0.313264
 40
0.003
 41
0.003
 10
0.132972
 20
0.327327
 40
0.003
 41
0.003
  0
LWPOLYLINE
  5
96
100
AcDbEntity
  8
0
 62
     9
100
AcDbPolyline
 90
        2
 70
     0
 39
0.003
 10
0.132972
 20
0.327327
 40
0.003
 41
0.003
 10
-0.514551
 20
0.710287
 40
0.003
 41
0.003
  0
LWPOLYLINE
  5
97
100
AcDbEntity
  8
0
 62
     9
100
AcDbPolyline
 90
        2
 70
     0
 39
0.003
 10
-0.514551
 20
0.710287
 40
0.003
 41
0.003
 10
-0.555787
 20
0.696224
 40
0.003
 41
0.003
  0
LWPOLYLINE
  5
98
100
AcDbEntity
  8
0
 62
     9
100
AcDbPolyline
 90
        2
 70
     0
 39
0.003
 10
-0.514551
 20
0.710287
 40
0.003
 41
0.003
 10
0.132972
 20
0.327327
 40
0.003
 41
0.003
  0
LWPOLYLINE
  5
99
100
AcDbEntity
  8
0
 62
     9
100
AcDbPolyline
 90
        2
 70
     0
 39
0.003
 10
0.132972
 20
0.327327
 40
0.003
 41
0.003
 10
0.172724
 20
0.341283
 40
0.003
 41
0.003
  0
LWPOLYLINE
  5
9A
100
AcDbEntity
  8
0
 62
     9
100
AcDbPolyline
 90
        2
 70
     0
 39
0.003
 10
0.172724
 20
0.341283
 40
0.003
 41
0.003
 10
-0.474799
 20
0.724244
 40
0.003
 41
0.003
  0
LWPOLYLINE
  5
9B
100
AcDbEntity
  8
0
 62
     9
100
AcDbPolyline
 90
        2
 70
     0
 39
0.003
 10
-0.474799
 20
0.724244
 40
0.003
 41
0.003
 10
-0.514551
 20
0.710287
 40
0.003
 41
0.003
  0
LWPOLYLINE
  5
9C
100
AcDbEntity
  8
0
 62
     9
100
AcDbPolyline
 90
        2
 70
     0
 39
0.003
 10
-0.474799
 20
0.724244
 40
0.003
 41
0.003
 10
0.172724
 20
0.341283
 40
0.003
 41
0.003
  0
LWPOLYLINE
  5
9D
100
AcDbEntity
  8
0
 62
     9
100
AcDbPolyline
 90
        2
 70
     0
 39
0.003
 10
0.172724
 20
0.341283
 40
0.003
 41
0.003
 10
0.210764
 20
0.355315
 40
0.003
 41
0.003
  0
LWPOLYLINE
  5
9E
100
AcDbEntity
  8
0
 62
     9
100
AcDbPolyline
 90
        2
 70
     0
 39
0.003
 10
0.210764
 20
0.355315
 40
0.003
 41
0.003
 10
-0.43676
 20
0.738276
 40
0.003
 41
0.003
  0
LWPOLYLINE
  5
9F
100
AcDbEntity
  8
0
 62
     9
100
AcDbPolyline
 90
        2
 70
     0
 39
0.003
 10
-0.43676
 20
0.738276
 40
0.003
 41
0.003
 10
-0.474799
 20
0.724244
 40
0.003
 41
0.003
  0
LWPOLYLINE
  5
A0
100
AcDbEntity
  8
0
 62
     9
100
AcDbPolyline
 90
        2
 70
     0
 39
0.003
 10
-0.43676
 20
0.738276
 40
0.003
 41
0.003
 10
0.210764
 20
0.355315
 40
0.003
 41
0.003
  0
LWPOLYLINE
  5
A1
100
AcDbEntity
  8
0
 62
     9
100
AcDbPolyline
 90
        2
 70
     0
 39
0.003
 10
0.210764
 20
0.355315
 40
0.003
 41
0.003
 10
0.246862
 20
0.36963
 40
0.003
 41
0.003
  0
LWPOLYLINE
  5
A2
100
AcDbEntity
  8
0
 62
     9
100
AcDbPolyline
 90
        2
 70
     0
 39
0.003
 10
0.246862
 20
0.36963
 40
0.003
 41
0.003
 10
-0.400661
 20
0.752591
 40
0.003
 41
0.003
  0
LWPOLYLINE
  5
A3
100
AcDbEntity
  8
0
 62
     9
100
AcDbPolyline
 90
        2
 70
     0
 39
0.003
 10
-0.400661
 20
0.752591
 40
0.003
 41
0.003
 10
-0.43676
 20
0.738276
 40
0.003
 41
0.003
  0
LWPOLYLINE
  5
A4
100
AcDbEntity
  8
0
 62
     9
100
AcDbPolyline
 90
        2
 70
     0
 39
0.003
 10
-0.400661
 20
0.752591
 40
0.003
 41
0.003
 10
0.246862
 20
0.36963
 40
0.003
 41
0.003
  0
LWPOLYLINE
  5
A5
100
AcDbEntity
  8
0
 62
     9
100
AcDbPolyline
 90
        2
 70
     0
 39
0.003
 10
0.246862
 20
0.36963
 40
0.003
 41
0.003
 10
0.280764
 20
0.384413
 40
0.003
 41
0.003
  0
LWPOLYLINE
  5
A6
100
AcDbEntity
  8
0
 62
     9
100
AcDbPolyline
 90
        2
 70
     0
 39
0.003
 10
0.280764
 20
0.384413
 40
0.003
 41
0.003
 10
-0.36676
 20
0.767374
 40
0.003
 41
0.003
  0
LWPOLYLINE
  5
A7
100
AcDbEntity
  8
0
 62
     9
100
AcDbPolyline
 90
        2
 70
     0
 39
0.003
 10
-0.36676
 20
0.767374
 40
0.003
 41
0.003
 10
-0.400661
 20
0.752591
 40
0.003
 41
0.003
  0
LWPOLYLINE
  5
A8
100
AcDbEntity
  8
0
 62
     9
100
AcDbPolyline
 90
        2
 70
     0
 39
0.003
 10
-0.36676
 20
0.767374
 40
0.003
 41
0.003
 10
0.280764
 20
0.384413
 40
0.003
 41
0.003
  0
LWPOLYLINE
  5
A9
100
AcDbEntity
  8
0
 62
     9
100
AcDbPolyline
 90
        2
 70
     0
 39
0.003
 10
0.280764
 20
0.384413
 40
0.003
 41
0.003
 10
0.312252
 20
0.399866
 40
0.003
 41
0.003
  0
LWPOLYLINE
  5
AA
100
AcDbEntity
  8
0
 62
     9
100
AcDbPolyline
 90
        2
 70
     0
 39
0.003
 10
0.312252
 20
0.399866
 40
0.003
 41
0.003
 10
-0.335272
 20
0.782827
 40
0.003
 41
0.003
  0
LWPOLYLINE
  5
AB
100
AcDbEntity
  8
0
 62
     9
100
AcDbPolyline
 90
        2
 70
     0
 39
0.003
 10
-0.335272
 20
0.782827
 40
0.003
 41
0.003
 10
-0.36676
 20
0.767374
 40
0.003
 41
0.003
  0
LWPOLYLINE
  5
AC
100
AcDbEntity
  8
0
 62
     9
100
AcDbPolyline
 90
        2
 70
     0
 39
0.003
 10
-0.335272
 20
0.782827
 40
0.003
 41
0.003
 10
0.312252
 20
0.399866
 40
0.003
 41
0.003
  0
LWPOLYLINE
  5
AD
100
AcDbEntity
  8
0
 62
     9
100
AcDbPolyline
 90
        2
 70
     0
 39
0.003
 10
0.312252
 20
0.399866
 40
0.003
 41
0.003
 10
0.341075
 20
0.416185
 40
0.003
 41
0.003
  0
LWPOLYLINE
  5
AE
100
AcDbEntity
  8
0
 62
     9
100
AcDbPolyline
 90
        2
 70
     0
 39
0.003
 10
0.341075
 20
0.416185
 40
0.003
 41
0.003
 10
-0.306449
 20
0.799146
 40
0.003
 41
0.003
  0
LWPOLYLINE
  5
AF
100
AcDbEntity
  8
0
 62
     9
100
AcDbPolyline
 90
        2
 70
     0
 39
0.003
 10
-0.306449
 20
0.799146
 40
0.003
 41
0.003
 10
-0.335272
 20
0.782827
 40
0.003
 41
0.003
  0
LWPOLYLINE
  5
B0
100
AcDbEntity
  8
0
 62
     9
100
AcDbPolyline
 90
        2
 70
     0
 39
0.003
 10
-0.306449
 20
0.799146
 40
0.003
 41
0.003
 10
0.341075
 20
0.416185
 40
0.003
 41
0.003
  0
LWPOLYLINE
  5
B1
100
AcDbEntity
  8
0
 62
     9
100
AcDbPolyline
 90
        2
 70
     0
 39
0.003
 10
0.341075
 20
0.416185
 40
0.003
 41
0.003
 10
0.367
 20
0.433567
 40
0.003
 41
0.003
  0
LWPOLYLINE
  5
B2
100
AcDbEntity
  8
0
 62
     9
100
AcDbPolyline
 90
        2
 70
     0
 39
0.003
 10
0.367
 20
0.433567
 40
0.003
 41
0.003
 10
-0.280524
 20
0.816528
 40
0.003
 41
0.003
  0
LWPOLYLINE
  5
B3
100
AcDbEntity
  8
0
 62
     9
100
AcDbPolyline
 90
        2
 70
     0
 39
0.003
 10
-0.280524
 20
0.816528
 40
0.003
 41
0.003
 10
-0.306449
 20
0.799146
 40
0.003
 41
0.003
  0
LWPOLYLINE
  5
B4
100
AcDbEntity
  8
0
 62
   254
100
AcDbPolyline
 90
        2
 70
     0
 39
0.003
 10
-0.280524
 20
0.816528
 40
0.003
 41
0.003
 10
0.367
 20
0.433567
 40
0.003
 41
0.003
  0
LWPOLYLINE
  5
B5
100
AcDbEntity
  8
0
 62
   254
100
AcDbPolyline
 90
        2
 70
     0
 39
0.003
 10
0.367
 20
0.433567
 40
0.003
 41
0.003
 10
0.391083
 20
0.451846
 40
0.003
 41
0.003
  0
LWPOLYLINE
  5
B6
100
AcDbEntity
  8
0
 62
   254
100
AcDbPolyline
 90
        2
 70
     0
 39
0.003
 10
0.391083
 20
0.451846
 40
0.003
 41
0.003
 10
-0.256441
 20
0.834807
 40
0.003
 41
0.003
  0
LWPOLYLINE
  5
B7
100
AcDbEntity
  8
0
 62
   254
100
AcDbPolyline
 90
        2
 70
     0
 39
0.003
 10
-0.256441
 20
0.834807
 40
0.003
 41
0.003
 10
-0.280524
 20
0.816528
 40
0.003
 41
0.003
  0
LWPOLYLINE
  5
B8
100
AcDbEntity
  8
0
 62
   254
100
AcDbPolyline
 90
        2
 70
     0
 39
0.003
 10
-0.256441
 20
0.834807
 40
0.003
 41
0.003
 10
0.391083
 20
0.451846
 40
0.003
 41
0.003
  0
LWPOLYLINE
  5
B9
100
AcDbEntity
  8
0
 62
   254
100
AcDbPolyline
 90
        2
 70
     0
 39
0.003
 10
0.391083
 20
0.451846
 40
0.003
 41
0.003
 10
0.414559
 20
0.470748
 40
0.003
 41
0.003
  0
LWPOLYLINE
  5
BA
100
AcDbEntity
  8
0
 62
   254
100
AcDbPolyline
 90
        2
 70
     0
 39
0.003
 10
0.414559
 20
0.470748
 40
0.003
 41
0.003
 10
-0.232965
 20
0.853709
 40
0.003
 41
0.003
  0
LWPOLYLINE
  5
BB
100
AcDbEntity
  8
0
 62
   254
100
AcDbPolyline
 90
        2
 70
     0
 39
0.003
 10
-0.232965
 20
0.853709
 40
0.003
 41
0.003
 10
-0.256441
 20
0.834807
 40
0.003
 41
0.003
  0
LWPOLYLINE
  5
BC
100
AcDbEntity
  8
0
 62
   254
100
AcDbPolyline
 90
        2
 70
     0
 39
0.003
 10
-0.232965
 20
0.853709
 40
0.003
 41
0.003
 10
0.414559
 20
0.470748
 40
0.003
 41
0.003
  0
LWPOLYLINE
  5
BD
100
AcDbEntity
  8
0
 62
   254
100
AcDbPolyline
 90
        2
 70
     0
 39
0.003
 10
0.414559
 20
0.470748
 40
0.003
 41
0.003
 10
0.437386
 20
0.490236
 40
0.003
 41
0.003
  0
LWPOLYLINE
  5
BE
100
AcDbEntity
  8
0
 62
   254
100
AcDbPolyline
 90
        2
 70
     0
 39
0.003
 10
0.437386
 20
0.490236
 40
0.003
 41
0.003
 10
-0.210138
 20
0.873197
 40
0.003
 41
0.003
  0
LWPOLYLINE
  5
BF
100
AcDbEntity
  8
0
 62
   254
100
AcDbPolyline
 90
        2
 70
     0
 39
0.003
 10
-0.210138
 20
0.873197
 40
0.003
 41
0.003
 10
-0.232965
 20
0.853709
 40
0.003
 41
0.003
  0
LWPOLYLINE
  5
C0
100
AcDbEntity
  8
0
 62
   254
100
AcDbPolyline
 90
        2
 70
     0
 39
0.003
 10
-0.210138
 20
0.873197
 40
0.003
 41
0.003
 10
0.437386
 20
0.490236
 40
0.003
 41
0.003
  0
LWPOLYLINE
  5
C1
100
AcDbEntity
  8
0
 62
   254
100
AcDbPolyline
 90
        2
 70
     0
 39
0.003
 10
0.437386
 20
0.490236
 40
0.003
 41
0.003
 10
0.459563
 20
0.510303
 40
0.003
 41
0.003
  0
LWPOLYLINE
  5
C2
100
AcDbEntity
  8
0
 62
   254
100
AcDbPolyline
 90
        2
 70
     0
 39
0.003
 10
0.459563
 20
0.510303
 40
0.003
 41
0.003
 10
-0.187961
 20
0.893264
 40
0.003
 41
0.003
  0
LWPOLYLINE
  5
C3
100
AcDbEntity
  8
0
 62
   254
100
AcDbPolyline
 90
        2
 70
     0
 39
0.003
 10
-0.187961
 20
0.893264
 40
0.003
 41
0.003
 10
-0.210138
 20
0.873197
 40
0.003
 41
0.003
  0
LWPOLYLINE
  5
C4
100
AcDbEntity
  8
0
 62
   254
100
AcDbPolyline
 90
        2
 70
     0
 39
0.003
 10
-0.187961
 20
0.893264
 40
0.003
 41
0.003
 10
0.459563
 20
0.510303
 40
0.003
 41
0.003
  0
LWPOLYLINE
  5
C5
100
AcDbEntity
  8
0
 62
   254
100
AcDbPolyline
 90
        2
 70
     0
 39
0.003
 10
0.459563
 20
0.510303
 40
0.003
 41
0.003
 10
0.481051
 20
0.530913
 40
0.003
 41
0.003
  0
LWPOLYLINE
  5
C6
100
AcDbEntity
  8
0
 62
   254
100
AcDbPolyline
 90
        2
 70
     0
 39
0.003
 10
0.481051
 20
0.530913
 40
0.003
 41
0.003
 10
-0.166472
 20
0.913874
 40
0.003
 41
0.003
  0
LWPOLYLINE
  5
C7
100
AcDbEntity
  8
0
 62
   254
100
AcDbPolyline
 90
        2
 70
     0
 39
0.003
 10
-0.166472
 20
0.913874
 40
0.003
 41
0.003
 10
-0.187961
 20
0.893264
 40
0.003
 41
0.003
  0
LWPOLYLINE
  5
C8
100
AcDbEntity
  8
0
 62
   254
100
AcDbPolyline
 90
        2
 70
     0
 39
0.003
 10
-0.166472
 20
0.913874
 40
0.003
 41
0.003
 10
0.481051
 20
0.530913
 40
0.003
 41
0.003
  0
LWPOLYLINE
  5
C9
100
AcDbEntity
  8
0
 62
   254
100
AcDbPolyline
 90
        2
 70
     0
 39
0.003
 10
0.481051
 20
0.530913
 40
0.003
 41
0.003
 10
0.501839
 20
0.552063
 40
0.003
 41
0.003
  0
LWPOLYLINE
  5
CA
100
AcDbEntity
  8
0
 62
   254
100
AcDbPolyline
 90
        2
 70
     0
 39
0.003
 10
0.501839
 20
0.552063
 40
0.003
 41
0.003
 10
-0.145685
 20
0.935024
 40
0.003
 41
0.003
  0
LWPOLYLINE
  5
CB
100
AcDbEntity
  8
0
 62
   254
100
AcDbPolyline
 90
        2
 70
     0
 39
0.003
 10
-0.145685
 20
0.935024
 40
0.003
 41
0.003
 10
-0.166472
 20
0.913874
 40
0.003
 41
0.003
  0
LWPOLYLINE
  5
CC
100
AcDbEntity
  8
0
 62
   254
100
AcDbPolyline
 90
        2
 70
     0
 39
0.003
 10
-0.145685
 20
0.935024
 40
0.003
 41
0.003
 10
0.501839
 20
0.552063
 40
0.003
 41
0.003
  0
LWPOLYLINE
  5
CD
100
AcDbEntity
  8
0
 62
   254
100
AcDbPolyline
 90
        2
 70
     0
 39
0.003
 10
0.501839
 20
0.552063
 40
0.003
 41
0.003
 10
0.521898
 20
0.57372
 40
0.003
 41
0.003
  0
LWPOLYLINE
  5
CE
100
AcDbEntity
  8
0
 62
   254
100
AcDbPolyline
 90
        2
 70
     0
 39
0.003
 10
0.521898
 20
0.57372
 40
0.003
 41
0.003
 10
-0.125626
 20
0.956681
 40
0.003
 41
0.003
  0
LWPOLYLINE
  5
CF
100
AcDbEntity
  8
0
 62
   254
100
AcDbPolyline
 90
        2
 70
     0
 39
0.003
 10
-0.125626
 20
0.956681
 40
0.003
 41
0.003
 10
-0.145685
 20
0.935024
 40
0.003
 41
0.003
  0
LWPOLYLINE
  5
D0
100
AcDbEntity
  8
0
 62
   254
100
AcDbPolyline
 90
        2
 70
     0
 39
0.003
 10
-0.125626
 20
0.956681
 40
0.003
 41
0.003
 10
0.521898
 20
0.57372
 40
0.003
 41
0.003
  0
LWPOLYLINE
  5
D1
100
AcDbEntity
  8
0
 62
   254
100
AcDbPolyline
 90
        2
 70
     0
 39
0.003
 10
0.521898
 20
0.57372
 40
0.003
 41
0.003
 10
0.54122
 20
0.595878
 40
0.003
 41
0.003
  0
LWPOLYLINE
  5
D2
100
AcDbEntity
  8
0
 62
   254
100
AcDbPolyline
 90
        2
 70
     0
 39
0.003
 10
0.54122
 20
0.595878
 40
0.003
 41
0.003
 10
-0.106303
 20
0.978839
 40
0.003
 41
0.003
  0
LWPOLYLINE
  5
D3
100
AcDbEntity
  8
0
 62
   254
100
AcDbPolyline
 90
        2
 70
     0
 39
0.003
 10
-0.106303
 20
0.978839
 40
0.003
 41
0.003
 10
-0.125626
 20
0.956681
 40
0.003
 41
0.003
  0
LWPOLYLINE
  5
D4
100
AcDbEntity
  8
0
 62
   254
100
AcDbPolyline
 90
        2
 70
     0
 39
0.003
 10
-0.106303
 20
0.978839
 40
0.003
 41
0.003
 10
0.54122
 20
0.595878
 40
0.003
 41
0.003
  0
LWPOLYLINE
  5
D5
100
AcDbEntity
  8
0
 62
   254
100
AcDbPolyline
 90
        2
 70
     0
 39
0.003
 10
0.54122
 20
0.595878
 40
0.003
 41
0.003
 10
0.559768
 20
0.618504
 40
0.003
 41
0.003
  0
LWPOLYLINE
  5
D6
100
AcDbEntity
  8
0
 62
   254
100
AcDbPolyline
 90
        2
 70
     0
 39
0.003
 10
0.559768
 20
0.618504
 40
0.003
 41
0.003
 10
-0.087756
 20
1.001465
 40
0.003
 41
0.003
  0
LWPOLYLINE
  5
D7
100
AcDbEntity
  8
0
 62
   254
100
AcDbPolyline
 90
        2
 70
     0
 39
0.003
 10
-0.087756
 20
1.001465
 40
0.003
 41
0.003
 10
-0.106303
 20
0.978839
 40
0.003
 41
0.003
  0
LWPOLYLINE
  5
D8
100
AcDbEntity
  8
0
 62
   254
100
AcDbPolyline
 90
        2
 70
     0
 39
0.003
 10
-0.087756
 20
1.001465
 40
0.003
 41
0.003
 10
0.559768
 20
0.618504
 40
0.003
 41
0.003
  0
LWPOLYLINE
  5
D9
100
AcDbEntity
  8
0
 62
   254
100
AcDbPolyline
 90
        2
 70
     0
 39
0.003
 10
0.559768
 20
0.618504
 40
0.003
 41
0.003
 10
0.577535
 20
0.641583
 40
0.003
 41
0.003
  0
LWPOLYLINE
  5
DA
100
AcDbEntity
  8
0
 62
   254
100
AcDbPolyline
 90
        2
 70
     0
 39
0.003
 10
0.577535
 20
0.641583
 40
0.003
 41
0.003
 10
-0.069988
 20
1.024543
 40
0.003
 41
0.003
  0
LWPOLYLINE
  5
DB
100
AcDbEntity
  8
0
 62
   254
100
AcDbPolyline
 90
        2
 70
     0
 39
0.003
 10
-0.069988
 20
1.024543
 40
0.003
 41
0.003
 10
-0.087756
 20
1.001465
 40
0.003
 41
0.003
  0
LWPOLYLINE
  5
DC
100
AcDbEntity
  8
0
 62
   254
100
AcDbPolyline
 90
        2
 70
     0
 39
0.003
 10
-0.069988
 20
1.024543
 40
0.003
 41
0.003
 10
0.577535
 20
0.641583
 40
0.003
 41
0.003
  0
LWPOLYLINE
  5
DD
100
AcDbEntity
  8
0
 62
   254
100
AcDbPolyline
 90
        2
 70
     0
 39
0.003
 10
0.577535
 20
0.641583
 40
0.003
 41
0.003
 10
0.594492
 20
0.665091
 40
0.003
 41
0.003
  0
LWPOLYLINE
  5
DE
100
AcDbEntity
  8
0
 62
   254
100
AcDbPolyline
 90
        2
 70
     0
 39
0.003
 10
0.594492
 20
0.665091
 40
0.003
 41
0.003
 10
-0.053031
 20
1.048051
 40
0.003
 41
0.003
  0
LWPOLYLINE
  5
DF
100
AcDbEntity
  8
0
 62
   254
100
AcDbPolyline
 90
        2
 70
     0
 39
0.003
 10
-0.053031
 20
1.048051
 40
0.003
 41
0.003
 10
-0.069988
 20
1.024543
 40
0.003
 41
0.003
  0
LWPOLYLINE
  5
E0
100
AcDbEntity
  8
0
 62
   254
100
AcDbPolyline
 90
        2
 70
     0
 39
0.003
 10
-0.053031
 20
1.048051
 40
0.003
 41
0.003
 10
0.594492
 20
0.665091
 40
0.003
 41
0.003
  0
LWPOLYLINE
  5
E1
100
AcDbEntity
  8
0
 62
   254
100
AcDbPolyline
 90
        2
 70
     0
 39
0.003
 10
0.594492
 20
0.665091
 40
0.003
 41
0.003
 10
0.610622
 20
0.68902
 40
0.003
 41
0.003
  0
LWPOLYLINE
  5
E2
100
AcDbEntity
  8
0
 62
   254
100
AcDbPolyline
 90
        2
 70
     0
 39
0.003
 10
0.610622
 20
0.68902
 40
0.003
 41
0.003
 10
-0.036902
 20
1.07198
 40
0.003
 41
0.003
  0
LWPOLYLINE
  5
E3
100
AcDbEntity
  8
0
 62
   254
100
AcDbPolyline
 90
        2
 70
     0
 39
0.003
 10
-0.036902
 20
1.07198
 40
0.003
 41
0.003
 10
-0.053031
 20
1.048051
 40
0.003
 41
0.003
  0
LWPOLYLINE
  5
E4
100
AcDbEntity
  8
0
 62
   254
100
AcDbPolyline
 90
        2
 70
     0
 39
0.003
 10
-0.036902
 20
1.07198
 40
0.003
 41
0.003
 10
0.610622
 20
0.68902
 40
0.003
 41
0.003
  0
LWPOLYLINE
  5
E5
100
AcDbEntity
  8
0
 62
   254
100
AcDbPolyline
 90
        2
 70
     0
 39
0.003
 10
0.610622
 20
0.68902
 40
0.003
 41
0.003
 10
0.625902
 20
0.713331
 40
0.003
 41
0.003
  0
LWPOLYLINE
  5
E6
100
AcDbEntity
  8
0
 62
   254
100
AcDbPolyline
 90
        2
 70
     0
 39
0.003
 10
0.625902
 20
0.713331
 40
0.003
 41
0.003
 10
-0.021622
 20
1.096291
 40
0.003
 41
0.003
  0
LWPOLYLINE
  5
E7
100
AcDbEntity
  8
0
 62
   254
100
AcDbPolyline
 90
        2
 70
     0
 39
0.003
 10
-0.021622
 20
1.096291
 40
0.003
 41
0.003
 10
-0.036902
 20
1.07198
 40
0.003
 41
0.003
  0
LWPOLYLINE
  5
E8
100
AcDbEntity
  8
0
 62
   254
100
AcDbPolyline
 90
        2
 70
     0
 39
0.003
 10
-0.021622
 20
1.096291
 40
0.003
 41
0.003
 10
0.625902
 20
0.713331
 40
0.003
 41
0.003
  0
LWPOLYLINE
  5
E9
100
AcDbEntity
  8
0
 62
   254
100
AcDbPolyline
 90
        2
 70
     0
 39
0.003
 10
0.625902
 20
0.713331
 40
0.003
 41
0.003
 10
0.640311
 20
0.738024
 40
0.003
 41
0.003
  0
LWPOLYLINE
  5
EA
100
AcDbEntity
  8
0
 62
   254
100
AcDbPolyline
 90
        2
 70
     0
 39
0.003
 10
0.640311
 20
0.738024
 40
0.003
 41
0.003
 10
-0.007213
 20
1.120984
 40
0.003
 41
0.003
  0
LWPOLYLINE
  5
EB
100
AcDbEntity
  8
0
 62
   254
100
AcDbPolyline
 90
        2
 70
     0
 39
0.003
 10
-0.007213
 20
1.120984
 40
0.003
 41
0.003
 10
-0.021622
 20
1.096291
 40
0.003
 41
0.003
  0
LWPOLYLINE
  5
EC
100
AcDbEntity
  8
0
 62
   254
100
AcDbPolyline
 90
        2
 70
     0
 39
0.003
 10
-0.007213
 20
1.120984
 40
0.003
 41
0.003
 10
0.640311
 20
0.738024
 40
0.003
 41
0.003
  0
LWPOLYLINE
  5
ED
100
AcDbEntity
  8
0
 62
   254
100
AcDbPolyline
 90
        2
 70
     0
 39
0.003
 10
0.640311
 20
0.738024
 40
0.003
 41
0.003
 10
0.653827
 20
0.763071
 40
0.003
 41
0.003
  0
LWPOLYLINE
  5
EE
100
AcDbEntity
  8
0
 62
   254
100
AcDbPolyline
 90
        2
 70
     0
 39
0.003
 10
0.653827
 20
0.763071
 40
0.003
 41
0.003
 10
0.006303
 20
1.146031
 40
0.003
 41
0.003
  0
LWPOLYLINE
  5
EF
100
AcDbEntity
  8
0
 62
   254
100
AcDbPolyline
 90
        2
 70
     0
 39
0.003
 10
0.006303
 20
1.146031
 40
0.003
 41
0.003
 10
-0.007213
 20
1.120984
 40
0.003
 41
0.003
  0
LWPOLYLINE
  5
F0
100
AcDbEntity
  8
0
 62
   254
100
AcDbPolyline
 90
        2
 70
     0
 39
0.003
 10
0.006303
 20
1.146031
 40
0.003
 41
0.003
 10
0.653827
 20
0.763071
 40
0.003
 41
0.003
  0
LWPOLYLINE
  5
F1
100
AcDbEntity
  8
0
 62
   254
100
AcDbPolyline
 90
        2
 70
     0
 39
0.003
 10
0.653827
 20
0.763071
 40
0.003
 41
0.003
 10
0.666441
 20
0.788453
 40
0.003
 41
0.003
  0
LWPOLYLINE
  5
F2
100
AcDbEntity
  8
0
 62
   254
100
AcDbPolyline
 90
        2
 70
     0
 39
0.003
 10
0.666441
 20
0.788453
 40
0.003
 41
0.003
 10
0.018917
 20
1.171413
 40
0.003
 41
0.003
  0
LWPOLYLINE
  5
F3
100
AcDbEntity
  8
0
 62
   254
100
AcDbPolyline
 90
        2
 70
     0
 39
0.003
 10
0.018917
 20
1.171413
 40
0.003
 41
0.003
 10
0.006303
 20
1.146031
 40
0.003
 41
0.003
  0
LWPOLYLINE
  5
F4
100
AcDbEntity
  8
0
 62
   254
100
AcDbPolyline
 90
        2
 70
     0
 39
0.003
 10
0.018917
 20
1.171413
 40
0.003
 41
0.003
 10
0.666441
 20
0.788453
 40
0.003
 41
0.003
  0
LWPOLYLINE
  5
F5
100
AcDbEntity
  8
0
 62
   254
100
AcDbPolyline
 90
        2
 70
     0
 39
0.003
 10
0.666441
 20
0.788453
 40
0.003
 41
0.003
 10
0.67811
 20
0.814138
 40
0.003
 41
0.003
  0
LWPOLYLINE
  5
F6
100
AcDbEntity
  8
0
 62
   254
100
AcDbPolyline
 90
        2
 70
     0
 39
0.003
 10
0.67811
 20
0.814138
 40
0.003
 41
0.003
 10
0.030587
 20
1.197098
 40
0.003
 41
0.003
  0
LWPOLYLINE
  5
F7
100
AcDbEntity
  8
0
 62
   254
100
AcDbPolyline
 90
        2
 70
     0
 39
0.003
 10
0.030587
 20
1.197098
 40
0.003
 41
0.003
 10
0.018917
 20
1.171413
 40
0.003
 41
0.003
  0
LWPOLYLINE
  5
F8
100
AcDbEntity
  8
0
 62
   254
100
AcDbPolyline
 90
        2
 70
     0
 39
0.003
 10
0.030587
 20
1.197098
 40
0.003
 41
0.003
 10
0.67811
 20
0.814138
 40
0.003
 41
0.003
  0
LWPOLYLINE
  5
F9
100
AcDbEntity
  8
0
 62
   254
100
AcDbPolyline
 90
        2
 70
     0
 39
0.003
 10
0.67811
 20
0.814138
 40
0.003
 41
0.003
 10
0.688831
 20
0.840126
 40
0.003
 41
0.003
  0
LWPOLYLINE
  5
FA
100
AcDbEntity
  8
0
 62
   254
100
AcDbPolyline
 90
        2
 70
     0
 39
0.003
 10
0.688831
 20
0.840126
 40
0.003
 41
0.003
 10
0.041307
 20
1.223087
 40
0.003
 41
0.003
  0
LWPOLYLINE
  5
FB
100
AcDbEntity
  8
0
 62
   254
100
AcDbPolyline
 90
        2
 70
     0
 39
0.003
 10
0.041307
 20
1.223087
 40
0.003
 41
0.003
 10
0.030587
 20
1.197098
 40
0.003
 41
0.003
  0
LWPOLYLINE
  5
FC
100
AcDbEntity
  8
0
 62
   254
100
AcDbPolyline
 90
        2
 70
     0
 39
0.003
 10
0.041307
 20
1.223087
 40
0.003
 41
0.003
 10
0.688831
 20
0.840126
 40
0.003
 41
0.003
  0
LWPOLYLINE
  5
FD
100
AcDbEntity
  8
0
 62
   254
100
AcDbPolyline
 90
        2
 70
     0
 39
0.003
 10
0.688831
 20
0.840126
 40
0.003
 41
0.003
 10
0.698571
 20
0.866382
 40
0.003
 41
0.003
  0
LWPOLYLINE
  5
FE
100
AcDbEntity
  8
0
 62
   254
100
AcDbPolyline
 90
        2
 70
     0
 39
0.003
 10
0.698571
 20
0.866382
 40
0.003
 41
0.003
 10
0.051047
 20
1.249343
 40
0.003
 41
0.003
  0
LWPOLYLINE
  5
FF
100
AcDbEntity
  8
0
 62
   254
100
AcDbPolyline
 90
        2
 70
     0
 39
0.003
 10
0.051047
 20
1.249343
 40
0.003
 41
0.003
 10
0.041307
 20
1.223087
 40
0.003
 41
0.003
  0
LWPOLYLINE
  5
100
100
AcDbEntity
  8
0
 62
   254
100
AcDbPolyline
 90
        2
 70
     0
 39
0.003
 10
0.051047
 20
1.249343
 40
0.003
 41
0.003
 10
0.698571
 20
0.866382
 40
0.003
 41
0.003
  0
LWPOLYLINE
  5
101
100
AcDbEntity
  8
0
 62
   254
100
AcDbPolyline
 90
        2
 70
     0
 39
0.003
 10
0.698571
 20
0.866382
 40
0.003
 41
0.003
 10
0.707323
 20
0.892902
 40
0.003
 41
0.003
  0
LWPOLYLINE
  5
102
100
AcDbEntity
  8
0
 62
   254
100
AcDbPolyline
 90
        2
 70
     0
 39
0.003
 10
0.707323
 20
0.892902
 40
0.003
 41
0.003
 10
0.059799
 20
1.275862
 40
0.003
 41
0.003
  0
LWPOLYLINE
  5
103
100
AcDbEntity
  8
0
 62
   254
100
AcDbPolyline
 90
        2
 70
     0
 39
0.003
 10
0.059799
 20
1.275862
 40
0.003
 41
0.003
 10
0.051047
 20
1.249343
 40
0.003
 41
0.003
  0
LWPOLYLINE
  5
104
100
AcDbEntity
  8
0
 62
   254
100
AcDbPolyline
 90
        2
 70
     0
 39
0.003
 10
0.059799
 20
1.275862
 40
0.003
 41
0.003
 10
0.707323
 20
0.892902
 40
0.003
 41
0.003
  0
LWPOLYLINE
  5
105
100
AcDbEntity
  8
0
 62
   254
100
AcDbPolyline
 90
        2
 70
     0
 39
0.003
 10
0.707323
 20
0.892902
 40
0.003
 41
0.003
 10
0.715055
 20
0.91965
 40
0.003
 41
0.003
  0
LWPOLYLINE
  5
106
100
AcDbEntity
  8
0
 62
   254
100
AcDbPolyline
 90
        2
 70
     0
 39
0.003
 10
0.715055
 20
0.91965
 40
0.003
 41
0.003
 10
0.067531
 20
1.30261
 40
0.003
 41
0.003
  0
LWPOLYLINE
  5
107
100
AcDbEntity
  8
0
 62
   254
100
AcDbPolyline
 90
        2
 70
     0
 39
0.003
 10
0.067531
 20
1.30261
 40
0.003
 41
0.003
 10
0.059799
 20
1.275862
 40
0.003
 41
0.003
  0
LWPOLYLINE
  5
108
100
AcDbEntity
  8
0
 62
   254
100
AcDbPolyline
 90
        2
 70
     0
 39
0.003
 10
0.067531
 20
1.30261
 40
0.003
 41
0.003
 10
0.715055
 20
0.91965
 40
0.003
 41
0.003
  0
LWPOLYLINE
  5
109
100
AcDbEntity
  8
0
 62
   254
100
AcDbPolyline
 90
        2
 70
     0
 39
0.003
 10
0.715055
 20
0.91965
 40
0.003
 41
0.003
 10
0.721748
 20
0.946614
 40
0.003
 41
0.003
  0
LWPOLYLINE
  5
10A
100
AcDbEntity
  8
0
 62
   254
100
AcDbPolyline
 90
        2
 70
     0
 39
0.003
 10
0.721748
 20
0.946614
 40
0.003
 41
0.003
 10
0.074224
 20
1.329575
 40
0.003
 41
0.003
  0
LWPOLYLINE
  5
10B
100
AcDbEntity
  8
0
 62
   254
100
AcDbPolyline
 90
        2
 70
     0
 39
0.003
 10
0.074224
 20
1.329575
 40
0.003
 41
0.003
 10
0.067531
 20
1.30261
 40
0.003
 41
0.003
  0
LWPOLYLINE
  5
10C
100
AcDbEntity
  8
0
 62
   254
100
AcDbPolyline
 90
        2
 70
     0
 39
0.003
 10
0.074224
 20
1.329575
 40
0.003
 41
0.003
 10
0.721748
 20
0.946614
 40
0.003
 41
0.003
  0
LWPOLYLINE
  5
10D
100
AcDbEntity
  8
0
 62
   254
100
AcDbPolyline
 90
        2
 70
     0
 39
0.003
 10
0.721748
 20
0.946614
 40
0.003
 41
0.003
 10
0.727386
 20
0.973772
 40
0.003
 41
0.003
  0
LWPOLYLINE
  5
10E
100
AcDbEntity
  8
0
 62
   254
100
AcDbPolyline
 90
        2
 70
     0
 39
0.003
 10
0.727386
 20
0.973772
 40
0.003
 41
0.003
 10
0.079862
 20
1.356732
 40
0.003
 41
0.003
  0
LWPOLYLINE
  5
10F
100
AcDbEntity
  8
0
 62
   254
100
AcDbPolyline
 90
        2
 70
     0
 39
0.003
 10
0.079862
 20
1.356732
 40
0.003
 41
0.003
 10
0.074224
 20
1.329575
 40
0.003
 41
0.003
  0
LWPOLYLINE
  5
110
100
AcDbEntity
  8
0
 62
   254
100
AcDbPolyline
 90
        2
 70
     0
 39
0.003
 10
0.079862
 20
1.356732
 40
0.003
 41
0.003
 10
0.727386
 20
0.973772
 40
0.003
 41
0.003
  0
LWPOLYLINE
  5
111
100
AcDbEntity
  8
0
 62
   254
100
AcDbPolyline
 90
        2
 70
     0
 39
0.003
 10
0.727386
 20
0.973772
 40
0.003
 41
0.003
 10
0.731945
 20
1.001106
 40
0.003
 41
0.003
  0
LWPOLYLINE
  5
112
100
AcDbEntity
  8
0
 62
   254
100
AcDbPolyline
 90
        2
 70
     0
 39
0.003
 10
0.731945
 20
1.001106
 40
0.003
 41
0.003
 10
0.084421
 20
1.384067
 40
0.003
 41
0.003
  0
LWPOLYLINE
  5
113
100
AcDbEntity
  8
0
 62
   254
100
AcDbPolyline
 90
        2
 70
     0
 39
0.003
 10
0.084421
 20
1.384067
 40
0.003
 41
0.003
 10
0.079862
 20
1.356732
 40
0.003
 41
0.003
  0
LWPOLYLINE
  5
114
100
AcDbEntity
  8
0
 62
   254
100
AcDbPolyline
 90
        2
 70
     0
 39
0.003
 10
0.084421
 20
1.384067
 40
0.003
 41
0.003
 10
0.731945
 20
1.001106
 40
0.003
 41
0.003
  0
LWPOLYLINE
  5
115
100
AcDbEntity
  8
0
 62
   254
100
AcDbPolyline
 90
        2
 70
     0
 39
0.003
 10
0.731945
 20
1.001106
 40
0.003
 41
0.003
 10
0.735398
 20
1.028591
 40
0.003
 41
0.003
  0
LWPOLYLINE
  5
116
100
AcDbEntity
  8
0
 62
   254
100
AcDbPolyline
 90
        2
 70
     0
 39
0.003
 10
0.735398
 20
1.028591
 40
0.003
 41
0.003
 10
0.087874
 20
1.411551
 40
0.003
 41
0.003
  0
LWPOLYLINE
  5
117
100
AcDbEntity
  8
0
 62
   254
100
AcDbPolyline
 90
        2
 70
     0
 39
0.003
 10
0.087874
 20
1.411551
 40
0.003
 41
0.003
 10
0.084421
 20
1.384067
 40
0.003
 41
0.003
  0
LWPOLYLINE
  5
118
100
AcDbEntity
  8
0
 62
   254
100
AcDbPolyline
 90
        2
 70
     0
 39
0.003
 10
0.087874
 20
1.411551
 40
0.003
 41
0.003
 10
0.735398
 20
1.028591
 40
0.003
 41
0.003
  0
LWPOLYLINE
  5
119
100
AcDbEntity
  8
0
 62
   254
100
AcDbPolyline
 90
        2
 70
     0
 39
0.003
 10
0.735398
 20
1.028591
 40
0.003
 41
0.003
 10
0.737732
 20
1.056213
 40
0.003
 41
0.003
  0
LWPOLYLINE
  5
11A
100
AcDbEntity
  8
0
 62
   254
100
AcDbPolyline
 90
        2
 70
     0
 39
0.003
 10
0.737732
 20
1.056213
 40
0.003
 41
0.003
 10
0.090209
 20
1.439173
 40
0.003
 41
0.003
  0
LWPOLYLINE
  5
11B
100
AcDbEntity
  8
0
 62
   254
100
AcDbPolyline
 90
        2
 70
     0
 39
0.003
 10
0.090209
 20
1.439173
 40
0.003
 41
0.003
 10
0.087874
 20
1.411551
 40
0.003
 41
0.003
  0
LWPOLYLINE
  5
11C
100
AcDbEntity
  8
0
 62
   254
100
AcDbPolyline
 90
        2
 70
     0
 39
0.003
 10
0.090209
 20
1.439173
 40
0.003
 41
0.003
 10
0.737732
 20
1.056213
 40
0.003
 41
0.003
  0
LWPOLYLINE
  5
11D
100
AcDbEntity
  8
0
 62
   254
100
AcDbPolyline
 90
        2
 70
     0
 39
0.003
 10
0.737732
 20
1.056213
 40
0.003
 41
0.003
 10
0.738925
 20
1.083953
 40
0.003
 41
0.003
  0
LWPOLYLINE
  5
11E
100
AcDbEntity
  8
0
 62
   254
100
AcDbPolyline
 90
        2
 70
     0
 39
0.003
 10
0.738925
 20
1.083953
 40
0.003
 41
0.003
 10
0.091402
 20
1.466913
 40
0.003
 41
0.003
  0
LWPOLYLINE
  5
11F
100
AcDbEntity
  8
0
 62
   254
100
AcDbPolyline
 90
        2
 70
     0
 39
0.003
 10
0.091402
 20
1.466913
 40
0.003
 41
0.003
 10
0.090209
 20
1.439173
 40
0.003
 41
0.003
  0
LWPOLYLINE
  5
120
100
AcDbEntity
  8
0
 62
   254
100
AcDbPolyline
 90
        2
 70
     0
 39
0.003
 10
0.091402
 20
1.466913
 40
0.003
 41
0.003
 10
0.738925
 20
1.083953
 40
0.003
 41
0.003
  0
LWPOLYLINE
  5
121
100
AcDbEntity
  8
0
 62
   254
100
AcDbPolyline
 90
        2
 70
     0
 39
0.003
 10
0.738925
 20
1.083953
 40
0.003
 41
0.003
 10
0.738961
 20
1.111787
 40
0.003
 41
0.003
  0
LWPOLYLINE
  5
122
100
AcDbEntity
  8
0
 62
   254
100
AcDbPolyline
 90
        2
 70
     0
 39
0.003
 10
0.738961
 20
1.111787
 40
0.003
 41
0.003
 10
0.091437
 20
1.494748
 40
0.003
 41
0.003
  0
LWPOLYLINE
  5
123
100
AcDbEntity
  8
0
 62
   254
100
AcDbPolyline
 90
        2
 70
     0
 39
0.003
 10
0.091437
 20
1.494748
 40
0.003
 41
0.003
 10
0.091402
 20
1.466913
 40
0.003
 41
0.003
  0
LWPOLYLINE
  5
124
100
AcDbEntity
  8
0
 62
   254
100
AcDbPolyline
 90
        2
 70
     0
 39
0.003
 10
0.091437
 20
1.494748
 40
0.003
 41
0.003
 10
0.738961
 20
1.111787
 40
0.003
 41
0.003
  0
LWPOLYLINE
  5
125
100
AcDbEntity
  8
0
 62
   254
100
AcDbPolyline
 90
        2
 70
     0
 39
0.003
 10
0.738961
 20
1.111787
 40
0.003
 41
0.003
 10
0.737803
 20
1.139693
 40
0.003
 41
0.003
  0
LWPOLYLINE
  5
126
100
AcDbEntity
  8
0
 62
   254
100
AcDbPolyline
 90
        2
 70
     0
 39
0.003
 10
0.737803
 20
1.139693
 40
0.003
 41
0.003
 10
0.09028
 20
1.522654
 40
0.003
 41
0.003
  0
LWPOLYLINE
  5
127
100
AcDbEntity
  8
0
 62
   254
100
AcDbPolyline
 90
        2
 70
     0
 39
0.003
 10
0.09028
 20
1.522654
 40
0.003
 41
0.003
 10
0.091437
 20
1.494748
 40
0.003
 41
0.003
  0
LWPOLYLINE
  5
128
100
AcDbEntity
  8
0
 62
     9
100
AcDbPolyline
 90
        2
 70
     0
 39
0.003
 10
0.09028
 20
1.522654
 40
0.003
 41
0.003
 10
0.737803
 20
1.139693
 40
0.003
 41
0.003
  0
LWPOLYLINE
  5
129
100
AcDbEntity
  8
0
 62
     9
100
AcDbPolyline
 90
        2
 70
     0
 39
0.003
 10
0.737803
 20
1.139693
 40
0.003
 41
0.003
 10
0.735449
 20
1.167657
 40
0.003
 41
0.003
  0
LWPOLYLINE
  5
12A
100
AcDbEntity
  8
0
 62
     9
100
AcDbPolyline
 90
        2
 70
     0
 39
0.003
 10
0.735449
 20
1.167657
 40
0.003
 41
0.003
 10
0.087925
 20
1.550618
 40
0.003
 41
0.003
  0
LWPOLYLINE
  5
12B
100
AcDbEntity
  8
0
 62
     9
100
AcDbPolyline
 90
        2
 70
     0
 39
0.003
 10
0.087925
 20
1.550618
 40
0.003
 41
0.003
 10
0.09028
 20
1.522654
 40
0.003
 41
0.003
  0
LWPOLYLINE
  5
12C
100
AcDbEntity
  8
0
 62
     9
100
AcDbPolyline
 90
        2
 70
     0
 39
0.003
 10
0.087925
 20
1.550618
 40
0.003
 41
0.003
 10
0.735449
 20
1.167657
 40
0.003
 41
0.003
  0
LWPOLYLINE
  5
12D
100
AcDbEntity
  8
0
 62
     9
100
AcDbPolyline
 90
        2
 70
     0
 39
0.003
 10
0.735449
 20
1.167657
 40
0.003
 41
0.003
 10
0.731866
 20
1.195654
 40
0.003
 41
0.003
  0
LWPOLYLINE
  5
12E
100
AcDbEntity
  8
0
 62
     9
100
AcDbPolyline
 90
        2
 70
     0
 39
0.003
 10
0.731866
 20
1.195654
 40
0.003
 41
0.003
 10
0.084343
 20
1.578614
 40
0.003
 41
0.003
  0
LWPOLYLINE
  5
12F
100
AcDbEntity
  8
0
 62
     9
100
AcDbPolyline
 90
        2
 70
     0
 39
0.003
 10
0.084343
 20
1.578614
 40
0.003
 41
0.003
 10
0.087925
 20
1.550618
 40
0.003
 41
0.003
  0
LWPOLYLINE
  5
130
100
AcDbEntity
  8
0
 62
     9
100
AcDbPolyline
 90
        2
 70
     0
 39
0.003
 10
0.084343
 20
1.578614
 40
0.003
 41
0.003
 10
0.731866
 20
1.195654
 40
0.003
 41
0.003
  0
LWPOLYLINE
  5
131
100
AcDbEntity
  8
0
 62
     9
100
AcDbPolyline
 90
        2
 70
     0
 39
0.003
 10
0.731866
 20
1.195654
 40
0.003
 41
0.003
 10
0.727039
 20
1.223673
 40
0.003
 41
0.003
  0
LWPOLYLINE
  5
132
100
AcDbEntity
  8
0
 62
     9
100
AcDbPolyline
 90
        2
 70
     0
 39
0.003
 10
0.727039
 20
1.223673
 40
0.003
 41
0.003
 10
0.079516
 20
1.606634
 40
0.003
 41
0.003
  0
LWPOLYLINE
  5
133
100
AcDbEntity
  8
0
 62
     9
100
AcDbPolyline
 90
        2
 70
     0
 39
0.003
 10
0.079516
 20
1.606634
 40
0.003
 41
0.003
 10
0.084343
 20
1.578614
 40
0.003
 41
0.003
  0
LWPOLYLINE
  5
134
100
AcDbEntity
  8
0
 62
     0
100
AcDbPolyline
 90
        2
 70
     0
 39
0.003
 10
-1.371524
 20
-0.185941
 40
0.003
 41
0.003
 10
-0.724
 20
-0.568902
 40
0.003
 41
0.003
  0
LWPOLYLINE
  5
135
100
AcDbEntity
  8
0
 62
     0
100
AcDbPolyline
 90
        2
 70
     0
 39
0.003
 10
-0.724
 20
-0.568902
 40
0.003
 41
0.003
 10
-0.718484
 20
-0.49324
 40
0.003
 41
0.003
  0
LWPOLYLINE
  5
136
100
AcDbEntity
  8
0
 62
     0
100
AcDbPolyline
 90
        2
 70
     0
 39
0.003
 10
-0.718484
 20
-0.49324
 40
0.003
 41
0.003
 10
-0.708764
 20
-0.42239
 40
0.003
 41
0.003
  0
LWPOLYLINE
  5
137
100
AcDbEntity
  8
0
 62
     0
100
AcDbPolyline
 90
        2
 70
     0
 39
0.003
 10
-0.708764
 20
-0.42239
 40
0.003
 41
0.003
 10
-0.695059
 20
-0.356169
 40
0.003
 41
0.003
  0
LWPOLYLINE
  5
138
100
AcDbEntity
  8
0
 62
     0
100
AcDbPolyline
 90
        2
 70
     0
 39
0.003
 10
-0.695059
 20
-0.356169
 40
0.003
 41
0.003
 10
-0.677618
 20
-0.29437
 40
0.003
 41
0.003
  0
LWPOLYLINE
  5
139
100
AcDbEntity
  8
0
 62
     0
100
AcDbPolyline
 90
        2
 70
     0
 39
0.003
 10
-0.677618
 20
-0.29437
 40
0.003
 41
0.003
 10
-0.656665
 20
-0.236815
 40
0.003
 41
0.003
  0
LWPOLYLINE
  5
13A
100
AcDbEntity
  8
0
 62
     0
100
AcDbPolyline
 90
        2
 70
     0
 39
0.003
 10
-0.656665
 20
-0.236815
 40
0.003
 41
0.003
 10
-0.632453
 20
-0.183291
 40
0.003
 41
0.003
  0
LWPOLYLINE
  5
13B
100
AcDbEntity
  8
0
 62
     0
100
AcDbPolyline
 90
        2
 70
     0
 39
0.003
 10
-0.632453
 20
-0.183291
 40
0.003
 41
0.003
 10
-0.605205
 20
-0.13361
 40
0.003
 41
0.003
  0
LWPOLYLINE
  5
13C
100
AcDbEntity
  8
0
 62
     0
100
AcDbPolyline
 90
        2
 70
     0
 39
0.003
 10
-0.605205
 20
-0.13361
 40
0.003
 41
0.003
 10
-0.575173
 20
-0.087571
 40
0.003
 41
0.003
  0
LWPOLYLINE
  5
13D
100
AcDbEntity
  8
0
 62
     0
100
AcDbPolyline
 90
        2
 70
     0
 39
0.003
 10
-0.575173
 20
-0.087571
 40
0.003
 41
0.003
 10
-0.542575
 20
-0.044988
 40
0.003
 41
0.003
  0
LWPOLYLINE
  5
13E
100
AcDbEntity
  8
0
 62
     0
100
AcDbPolyline
 90
        2
 70
     0
 39
0.003
 10
-0.542575
 20
-0.044988
 40
0.003
 41
0.003
 10
-0.507665
 20
-0.005654
 40
0.003
 41
0.003
  0
LWPOLYLINE
  5
13F
100
AcDbEntity
  8
0
 62
     0
100
AcDbPolyline
 90
        2
 70
     0
 39
0.003
 10
-0.507665
 20
-0.005654
 40
0.003
 41
0.003
 10
-0.470669
 20
0.030618
 40
0.003
 41
0.003
  0
LWPOLYLINE
  5
140
100
AcDbEntity
  8
0
 62
     0
100
AcDbPolyline
 90
        2
 70
     0
 39
0.003
 10
-0.470669
 20
0.030618
 40
0.003
 41
0.003
 10
-0.431839
 20
0.064039
 40
0.003
 41
0.003
  0
LWPOLYLINE
  5
141
100
AcDbEntity
  8
0
 62
     0
100
AcDbPolyline
 90
        2
 70
     0
 39
0.003
 10
-0.431839
 20
0.064039
 40
0.003
 41
0.003
 10
-0.39139
 20
0.094787
 40
0.003
 41
0.003
  0
LWPOLYLINE
  5
142
100
AcDbEntity
  8
0
 62
     0
100
AcDbPolyline
 90
        2
 70
     0
 39
0.003
 10
-0.39139
 20
0.094787
 40
0.003
 41
0.003
 10
-0.349583
 20
0.123071
 40
0.003
 41
0.003
  0
LWPOLYLINE
  5
143
100
AcDbEntity
  8
0
 62
     0
100
AcDbPolyline
 90
        2
 70
     0
 39
0.003
 10
-0.349583
 20
0.123071
 40
0.003
 41
0.003
 10
-0.306634
 20
0.149083
 40
0.003
 41
0.003
  0
LWPOLYLINE
  5
144
100
AcDbEntity
  8
0
 62
     0
100
AcDbPolyline
 90
        2
 70
     0
 39
0.003
 10
-0.306634
 20
0.149083
 40
0.003
 41
0.003
 10
-0.262795
 20
0.17302
 40
0.003
 41
0.003
  0
LWPOLYLINE
  5
145
100
AcDbEntity
  8
0
 62
     0
100
AcDbPolyline
 90
        2
 70
     0
 39
0.003
 10
-0.262795
 20
0.17302
 40
0.003
 41
0.003
 10
-0.218291
 20
0.195067
 40
0.003
 41
0.003
  0
LWPOLYLINE
  5
146
100
AcDbEntity
  8
0
 62
     0
100
AcDbPolyline
 90
        2
 70
     0
 39
0.003
 10
-0.218291
 20
0.195067
 40
0.003
 41
0.003
 10
-0.173366
 20
0.215437
 40
0.003
 41
0.003
  0
LWPOLYLINE
  5
147
100
AcDbEntity
  8
0
 62
     0
100
AcDbPolyline
 90
        2
 70
     0
 39
0.003
 10
-0.173366
 20
0.215437
 40
0.003
 41
0.003
 10
-0.12826
 20
0.234315
 40
0.003
 41
0.003
  0
LWPOLYLINE
  5
148
100
AcDbEntity
  8
0
 62
     0
100
AcDbPolyline
 90
        2
 70
     0
 39
0.003
 10
-0.12826
 20
0.234315
 40
0.003
 41
0.003
 10
-0.083209
 20
0.251906
 40
0.003
 41
0.003
  0
LWPOLYLINE
  5
149
100
AcDbEntity
  8
0
 62
     0
100
AcDbPolyline
 90
        2
 70
     0
 39
0.003
 10
-0.083209
 20
0.251906
 40
0.003
 41
0.003
 10
-0.038441
 20
0.268394
 40
0.003
 41
0.003
  0
LWPOLYLINE
  5
14A
100
AcDbEntity
  8
0
 62
     0
100
AcDbPolyline
 90
        2
 70
     0
 39
0.003
 10
-0.038441
 20
0.268394
 40
0.003
 41
0.003
 10
0.005795
 20
0.283988
 40
0.003
 41
0.003
  0
LWPOLYLINE
  5
14B
100
AcDbEntity
  8
0
 62
     0
100
AcDbPolyline
 90
        2
 70
     0
 39
0.003
 10
0.005795
 20
0.283988
 40
0.003
 41
0.003
 10
0.049272
 20
0.298878
 40
0.003
 41
0.003
  0
LWPOLYLINE
  5
14C
100
AcDbEntity
  8
0
 62
     0
100
AcDbPolyline
 90
        2
 70
     0
 39
0.003
 10
0.049272
 20
0.298878
 40
0.003
 41
0.003
 10
0.091736
 20
0.313264
 40
0.003
 41
0.003
  0
LWPOLYLINE
  5
14D
100
AcDbEntity
  8
0
 62
     0
100
AcDbPolyline
 90
        2
 70
     0
 39
0.003
 10
0.091736
 20
0.313264
 40
0.003
 41
0.003
 10
0.132972
 20
0.327327
 40
0.003
 41
0.003
  0
LWPOLYLINE
  5
14E
100
AcDbEntity
  8
0
 62
     0
100
AcDbPolyline
 90
        2
 70
     0
 39
0.003
 10
0.132972
 20
0.327327
 40
0.003
 41
0.003
 10
0.172724
 20
0.341283
 40
0.003
 41
0.003
  0
LWPOLYLINE
  5
14F
100
AcDbEntity
  8
0
 62
     0
100
AcDbPolyline
 90
        2
 70
     0
 39
0.003
 10
0.172724
 20
0.341283
 40
0.003
 41
0.003
 10
0.210764
 20
0.355315
 40
0.003
 41
0.003
  0
LWPOLYLINE
  5
150
100
AcDbEntity
  8
0
 62
     0
100
AcDbPolyline
 90
        2
 70
     0
 39
0.003
 10
0.210764
 20
0.355315
 40
0.003
 41
0.003
 10
0.246862
 20
0.36963
 40
0.003
 41
0.003
  0
LWPOLYLINE
  5
151
100
AcDbEntity
  8
0
 62
     0
100
AcDbPolyline
 90
        2
 70
     0
 39
0.003
 10
0.246862
 20
0.36963
 40
0.003
 41
0.003
 10
0.280764
 20
0.384413
 40
0.003
 41
0.003
  0
LWPOLYLINE
  5
152
100
AcDbEntity
  8
0
 62
     0
100
AcDbPolyline
 90
        2
 70
     0
 39
0.003
 10
0.280764
 20
0.384413
 40
0.003
 41
0.003
 10
0.312252
 20
0.399866
 40
0.003
 41
0.003
  0
LWPOLYLINE
  5
153
100
AcDbEntity
  8
0
 62
     0
100
AcDbPolyline
 90
        2
 70
     0
 39
0.003
 10
0.312252
 20
0.399866
 40
0.003
 41
0.003
 10
0.341075
 20
0.416185
 40
0.003
 41
0.003
  0
LWPOLYLINE
  5
154
100
AcDbEntity
  8
0
 62
     0
100
AcDbPolyline
 90
        2
 70
     0
 39
0.003
 10
0.341075
 20
0.416185
 40
0.003
 41
0.003
 10
0.367
 20
0.433567
 40
0.003
 41
0.003
  0
LWPOLYLINE
  5
155
100
AcDbEntity
  8
0
 62
     0
100
AcDbPolyline
 90
        2
 70
     0
 39
0.003
 10
0.367
 20
0.433567
 40
0.003
 41
0.003
 10
0.391083
 20
0.451846
 40
0.003
 41
0.003
  0
LWPOLYLINE
  5
156
100
AcDbEntity
  8
0
 62
     0
100
AcDbPolyline
 90
        2
 70
     0
 39
0.003
 10
0.391083
 20
0.451846
 40
0.003
 41
0.003
 10
0.414559
 20
0.470748
 40
0.003
 41
0.003
  0
LWPOLYLINE
  5
157
100
AcDbEntity
  8
0
 62
     0
100
AcDbPolyline
 90
        2
 70
     0
 39
0.003
 10
0.414559
 20
0.470748
 40
0.003
 41
0.003
 10
0.437386
 20
0.490236
 40
0.003
 41
0.003
  0
LWPOLYLINE
  5
158
100
AcDbEntity
  8
0
 62
     0
100
AcDbPolyline
 90
        2
 70
     0
 39
0.003
 10
0.437386
 20
0.490236
 40
0.003
 41
0.003
 10
0.459563
 20
0.510303
 40
0.003
 41
0.003
  0
LWPOLYLINE
  5
159
100
AcDbEntity
  8
0
 62
     0
100
AcDbPolyline
 90
        2
 70
     0
 39
0.003
 10
0.459563
 20
0.510303
 40
0.003
 41
0.003
 10
0.481051
 20
0.530913
 40
0.003
 41
0.003
  0
LWPOLYLINE
  5
15A
100
AcDbEntity
  8
0
 62
     0
100
AcDbPolyline
 90
        2
 70
     0
 39
0.003
 10
0.481051
 20
0.530913
 40
0.003
 41
0.003
 10
0.501839
 20
0.552063
 40
0.003
 41
0.003
  0
LWPOLYLINE
  5
15B
100
AcDbEntity
  8
0
 62
     0
100
AcDbPolyline
 90
        2
 70
     0
 39
0.003
 10
0.501839
 20
0.552063
 40
0.003
 41
0.003
 10
0.521898
 20
0.57372
 40
0.003
 41
0.003
  0
LWPOLYLINE
  5
15C
100
AcDbEntity
  8
0
 62
     0
100
AcDbPolyline
 90
        2
 70
     0
 39
0.003
 10
0.521898
 20
0.57372
 40
0.003
 41
0.003
 10
0.54122
 20
0.595878
 40
0.003
 41
0.003
  0
LWPOLYLINE
  5
15D
100
AcDbEntity
  8
0
 62
     0
100
AcDbPolyline
 90
        2
 70
     0
 39
0.003
 10
0.54122
 20
0.595878
 40
0.003
 41
0.003
 10
0.559768
 20
0.618504
 40
0.003
 41
0.003
  0
LWPOLYLINE
  5
15E
100
AcDbEntity
  8
0
 62
     0
100
AcDbPolyline
 90
        2
 70
     0
 39
0.003
 10
0.559768
 20
0.618504
 40
0.003
 41
0.003
 10
0.577535
 20
0.641583
 40
0.003
 41
0.003
  0
LWPOLYLINE
  5
15F
100
AcDbEntity
  8
0
 62
     0
100
AcDbPolyline
 90
        2
 70
     0
 39
0.003
 10
0.577535
 20
0.641583
 40
0.003
 41
0.003
 10
0.594492
 20
0.665091
 40
0.003
 41
0.003
  0
LWPOLYLINE
  5
160
100
AcDbEntity
  8
0
 62
     0
100
AcDbPolyline
 90
        2
 70
     0
 39
0.003
 10
0.594492
 20
0.665091
 40
0.003
 41
0.003
 10
0.610622
 20
0.68902
 40
0.003
 41
0.003
  0
LWPOLYLINE
  5
161
100
AcDbEntity
  8
0
 62
     0
100
AcDbPolyline
 90
        2
 70
     0
 39
0.003
 10
0.610622
 20
0.68902
 40
0.003
 41
0.003
 10
0.625902
 20
0.713331
 40
0.003
 41
0.003
  0
LWPOLYLINE
  5
162
100
AcDbEntity
  8
0
 62
     0
100
AcDbPolyline
 90
        2
 70
     0
 39
0.003
 10
0.625902
 20
0.713331
 40
0.003
 41
0.003
 10
0.640311
 20
0.738024
 40
0.003
 41
0.003
  0
LWPOLYLINE
  5
163
100
AcDbEntity
  8
0
 62
     0
100
AcDbPolyline
 90
        2
 70
     0
 39
0.003
 10
0.640311
 20
0.738024
 40
0.003
 41
0.003
 10
0.653827
 20
0.763071
 40
0.003
 41
0.003
  0
LWPOLYLINE
  5
164
100
AcDbEntity
  8
0
 62
     0
100
AcDbPolyline
 90
        2
 70
     0
 39
0.003
 10
0.653827
 20
0.763071
 40
0.003
 41
0.003
 10
0.666441
 20
0.788453
 40
0.003
 41
0.003
  0
LWPOLYLINE
  5
165
100
AcDbEntity
  8
0
 62
     0
100
AcDbPolyline
 90
        2
 70
     0
 39
0.003
 10
0.666441
 20
0.788453
 40
0.003
 41
0.003
 10
0.67811
 20
0.814138
 40
0.003
 41
0.003
  0
LWPOLYLINE
  5
166
100
AcDbEntity
  8
0
 62
     0
100
AcDbPolyline
 90
        2
 70
     0
 39
0.003
 10
0.67811
 20
0.814138
 40
0.003
 41
0.003
 10
0.688831
 20
0.840126
 40
0.003
 41
0.003
  0
LWPOLYLINE
  5
167
100
AcDbEntity
  8
0
 62
     0
100
AcDbPolyline
 90
        2
 70
     0
 39
0.003
 10
0.688831
 20
0.840126
 40
0.003
 41
0.003
 10
0.698571
 20
0.866382
 40
0.003
 41
0.003
  0
LWPOLYLINE
  5
168
100
AcDbEntity
  8
0
 62
     0
100
AcDbPolyline
 90
        2
 70
     0
 39
0.003
 10
0.698571
 20
0.866382
 40
0.003
 41
0.003
 10
0.707323
 20
0.892902
 40
0.003
 41
0.003
  0
LWPOLYLINE
  5
169
100
AcDbEntity
  8
0
 62
     0
100
AcDbPolyline
 90
        2
 70
     0
 39
0.003
 10
0.707323
 20
0.892902
 40
0.003
 41
0.003
 10
0.715055
 20
0.91965
 40
0.003
 41
0.003
  0
LWPOLYLINE
  5
16A
100
AcDbEntity
  8
0
 62
     0
100
AcDbPolyline
 90
        2
 70
     0
 39
0.003
 10
0.715055
 20
0.91965
 40
0.003
 41
0.003
 10
0.721748
 20
0.946614
 40
0.003
 41
0.003
  0
LWPOLYLINE
  5
16B
100
AcDbEntity
  8
0
 62
     0
100
AcDbPolyline
 90
        2
 70
     0
 39
0.003
 10
0.721748
 20
0.946614
 40
0.003
 41
0.003
 10
0.727386
 20
0.973772
 40
0.003
 41
0.003
  0
LWPOLYLINE
  5
16C
100
AcDbEntity
  8
0
 62
     0
100
AcDbPolyline
 90
        2
 70
     0
 39
0.003
 10
0.727386
 20
0.973772
 40
0.003
 41
0.003
 10
0.731945
 20
1.001106
 40
0.003
 41
0.003
  0
LWPOLYLINE
  5
16D
100
AcDbEntity
  8
0
 62
     0
100
AcDbPolyline
 90
        2
 70
     0
 39
0.003
 10
0.731945
 20
1.001106
 40
0.003
 41
0.003
 10
0.735398
 20
1.028591
 40
0.003
 41
0.003
  0
LWPOLYLINE
  5
16E
100
AcDbEntity
  8
0
 62
     0
100
AcDbPolyline
 90
        2
 70
     0
 39
0.003
 10
0.735398
 20
1.028591
 40
0.003
 41
0.003
 10
0.737732
 20
1.056213
 40
0.003
 41
0.003
  0
LWPOLYLINE
  5
16F
100
AcDbEntity
  8
0
 62
     0
100
AcDbPolyline
 90
        2
 70
     0
 39
0.003
 10
0.737732
 20
1.056213
 40
0.003
 41
0.003
 10
0.738925
 20
1.083953
 40
0.003
 41
0.003
  0
LWPOLYLINE
  5
170
100
AcDbEntity
  8
0
 62
     0
100
AcDbPolyline
 90
        2
 70
     0
 39
0.003
 10
0.738925
 20
1.083953
 40
0.003
 41
0.003
 10
0.738961
 20
1.111787
 40
0.003
 41
0.003
  0
LWPOLYLINE
  5
171
100
AcDbEntity
  8
0
 62
     0
100
AcDbPolyline
 90
        2
 70
     0
 39
0.003
 10
0.738961
 20
1.111787
 40
0.003
 41
0.003
 10
0.737803
 20
1.139693
 40
0.003
 41
0.003
  0
LWPOLYLINE
  5
172
100
AcDbEntity
  8
0
 62
     0
100
AcDbPolyline
 90
        2
 70
     0
 39
0.003
 10
0.737803
 20
1.139693
 40
0.003
 41
0.003
 10
0.735449
 20
1.167657
 40
0.003
 41
0.003
  0
LWPOLYLINE
  5
173
100
AcDbEntity
  8
0
 62
     0
100
AcDbPolyline
 90
        2
 70
     0
 39
0.003
 10
0.735449
 20
1.167657
 40
0.003
 41
0.003
 10
0.731866
 20
1.195654
 40
0.003
 41
0.003
  0
LWPOLYLINE
  5
174
100
AcDbEntity
  8
0
 62
     0
100
AcDbPolyline
 90
        2
 70
     0
 39
0.003
 10
0.731866
 20
1.195654
 40
0.003
 41
0.003
 10
0.727039
 20
1.223673
 40
0.003
 41
0.003
  0
LWPOLYLINE
  5
175
100
AcDbEntity
  8
0
 62
     0
100
AcDbPolyline
 90
        2
 70
     0
 39
0.003
 10
0.727039
 20
1.223673
 40
0.003
 41
0.003
 10
0.079516
 20
1.606634
 40
0.003
 41
0.003
  0
LWPOLYLINE
  5
176
100
AcDbEntity
  8
0
 62
     0
100
AcDbPolyline
 90
        2
 70
     0
 39
0.003
 10
0.079516
 20
1.606634
 40
0.003
 41
0.003
 10
0.084343
 20
1.578614
 40
0.003
 41
0.003
  0
LWPOLYLINE
  5
177
100
AcDbEntity
  8
0
 62
     0
100
AcDbPolyline
 90
        2
 70
     0
 39
0.003
 10
0.084343
 20
1.578614
 40
0.003
 41
0.003
 10
0.087925
 20
1.550618
 40
0.003
 41
0.003
  0
LWPOLYLINE
  5
178
100
AcDbEntity
  8
0
 62
     0
100
AcDbPolyline
 90
        2
 70
     0
 39
0.003
 10
0.087925
 20
1.550618
 40
0.003
 41
0.003
 10
0.09028
 20
1.522654
 40
0.003
 41
0.003
  0
LWPOLYLINE
  5
179
100
AcDbEntity
  8
0
 62
     0
100
AcDbPolyline
 90
        2
 70
     0
 39
0.003
 10
0.09028
 20
1.522654
 40
0.003
 41
0.003
 10
0.091437
 20
1.494748
 40
0.003
 41
0.003
  0
LWPOLYLINE
  5
17A
100
AcDbEntity
  8
0
 62
     0
100
AcDbPolyline
 90
        2
 70
     0
 39
0.003
 10
0.091437
 20
1.494748
 40
0.003
 41
0.003
 10
0.091402
 20
1.466913
 40
0.003
 41
0.003
  0
LWPOLYLINE
  5
17B
100
AcDbEntity
  8
0
 62
     0
100
AcDbPolyline
 90
        2
 70
     0
 39
0.003
 10
0.091402
 20
1.466913
 40
0.003
 41
0.003
 10
0.090209
 20
1.439173
 40
0.003
 41
0.003
  0
LWPOLYLINE
  5
17C
100
AcDbEntity
  8
0
 62
     0
100
AcDbPolyline
 90
        2
 70
     0
 39
0.003
 10
0.090209
 20
1.439173
 40
0.003
 41
0.003
 10
0.087874
 20
1.411551
 40
0.003
 41
0.003
  0
LWPOLYLINE
  5
17D
100
AcDbEntity
  8
0
 62
     0
100
AcDbPolyline
 90
        2
 70
     0
 39
0.003
 10
0.087874
 20
1.411551
 40
0.003
 41
0.003
 10
0.084421
 20
1.384067
 40
0.003
 41
0.003
  0
LWPOLYLINE
  5
17E
100
AcDbEntity
  8
0
 62
     0
100
AcDbPolyline
 90
        2
 70
     0
 39
0.003
 10
0.084421
 20
1.384067
 40
0.003
 41
0.003
 10
0.079862
 20
1.356732
 40
0.003
 41
0.003
  0
LWPOLYLINE
  5
17F
100
AcDbEntity
  8
0
 62
     0
100
AcDbPolyline
 90
        2
 70
     0
 39
0.003
 10
0.079862
 20
1.356732
 40
0.003
 41
0.003
 10
0.074224
 20
1.329575
 40
0.003
 41
0.003
  0
LWPOLYLINE
  5
180
100
AcDbEntity
  8
0
 62
     0
100
AcDbPolyline
 90
        2
 70
     0
 39
0.003
 10
0.074224
 20
1.329575
 40
0.003
 41
0.003
 10
0.067531
 20
1.30261
 40
0.003
 41
0.003
  0
LWPOLYLINE
  5
181
100
AcDbEntity
  8
0
 62
     0
100
AcDbPolyline
 90
        2
 70
     0
 39
0.003
 10
0.067531
 20
1.30261
 40
0.003
 41
0.003
 10
0.059799
 20
1.275862
 40
0.003
 41
0.003
  0
LWPOLYLINE
  5
182
100
AcDbEntity
  8
0
 62
     0
100
AcDbPolyline
 90
        2
 70
     0
 39
0.003
 10
0.059799
 20
1.275862
 40
0.003
 41
0.003
 10
0.051047
 20
1.249343
 40
0.003
 41
0.003
  0
LWPOLYLINE
  5
183
100
AcDbEntity
  8
0
 62
     0
100
AcDbPolyline
 90
        2
 70
     0
 39
0.003
 10
0.051047
 20
1.249343
 40
0.003
 41
0.003
 10
0.041307
 20
1.223087
 40
0.003
 41
0.003
  0
LWPOLYLINE
  5
184
100
AcDbEntity
  8
0
 62
     0
100
AcDbPolyline
 90
        2
 70
     0
 39
0.003
 10
0.041307
 20
1.223087
 40
0.003
 41
0.003
 10
0.030587
 20
1.197098
 40
0.003
 41
0.003
  0
LWPOLYLINE
  5
185
100
AcDbEntity
  8
0
 62
     0
100
AcDbPolyline
 90
        2
 70
     0
 39
0.003
 10
0.030587
 20
1.197098
 40
0.003
 41
0.003
 10
0.018917
 20
1.171413
 40
0.003
 41
0.003
  0
LWPOLYLINE
  5
186
100
AcDbEntity
  8
0
 62
     0
100
AcDbPolyline
 90
        2
 70
     0
 39
0.003
 10
0.018917
 20
1.171413
 40
0.003
 41
0.003
 10
0.006303
 20
1.146031
 40
0.003
 41
0.003
  0
LWPOLYLINE
  5
187
100
AcDbEntity
  8
0
 62
     0
100
AcDbPolyline
 90
        2
 70
     0
 39
0.003
 10
0.006303
 20
1.146031
 40
0.003
 41
0.003
 10
-0.007213
 20
1.120984
 40
0.003
 41
0.003
  0
LWPOLYLINE
  5
188
100
AcDbEntity
  8
0
 62
     0
100
AcDbPolyline
 90
        2
 70
     0
 39
0.003
 10
-0.007213
 20
1.120984
 40
0.003
 41
0.003
 10
-0.021622
 20
1.096291
 40
0.003
 41
0.003
  0
LWPOLYLINE
  5
189
100
AcDbEntity
  8
0
 62
     0
100
AcDbPolyline
 90
        2
 70
     0
 39
0.003
 10
-0.021622
 20
1.096291
 40
0.003
 41
0.003
 10
-0.036902
 20
1.07198
 40
0.003
 41
0.003
  0
LWPOLYLINE
  5
18A
100
AcDbEntity
  8
0
 62
     0
100
AcDbPolyline
 90
        2
 70
     0
 39
0.003
 10
-0.036902
 20
1.07198
 40
0.003
 41
0.003
 10
-0.053031
 20
1.048051
 40
0.003
 41
0.003
  0
LWPOLYLINE
  5
18B
100
AcDbEntity
  8
0
 62
     0
100
AcDbPolyline
 90
        2
 70
     0
 39
0.003
 10
-0.053031
 20
1.048051
 40
0.003
 41
0.003
 10
-0.069988
 20
1.024543
 40
0.003
 41
0.003
  0
LWPOLYLINE
  5
18C
100
AcDbEntity
  8
0
 62
     0
100
AcDbPolyline
 90
        2
 70
     0
 39
0.003
 10
-0.069988
 20
1.024543
 40
0.003
 41
0.003
 10
-0.087756
 20
1.001465
 40
0.003
 41
0.003
  0
LWPOLYLINE
  5
18D
100
AcDbEntity
  8
0
 62
     0
100
AcDbPolyline
 90
        2
 70
     0
 39
0.003
 10
-0.087756
 20
1.001465
 40
0.003
 41
0.003
 10
-0.106303
 20
0.978839
 40
0.003
 41
0.003
  0
LWPOLYLINE
  5
18E
100
AcDbEntity
  8
0
 62
     0
100
AcDbPolyline
 90
        2
 70
     0
 39
0.003
 10
-0.106303
 20
0.978839
 40
0.003
 41
0.003
 10
-0.125626
 20
0.956681
 40
0.003
 41
0.003
  0
LWPOLYLINE
  5
18F
100
AcDbEntity
  8
0
 62
     0
100
AcDbPolyline
 90
        2
 70
     0
 39
0.003
 10
-0.125626
 20
0.956681
 40
0.003
 41
0.003
 10
-0.145685
 20
0.935024
 40
0.003
 41
0.003
  0
LWPOLYLINE
  5
190
100
AcDbEntity
  8
0
 62
     0
100
AcDbPolyline
 90
        2
 70
     0
 39
0.003
 10
-0.145685
 20
0.935024
 40
0.003
 41
0.003
 10
-0.166472
 20
0.913874
 40
0.003
 41
0.003
  0
LWPOLYLINE
  5
191
100
AcDbEntity
  8
0
 62
     0
100
AcDbPolyline
 90
        2
 70
     0
 39
0.003
 10
-0.166472
 20
0.913874
 40
0.003
 41
0.003
 10
-0.187961
 20
0.893264
 40
0.003
 41
0.003
  0
LWPOLYLINE
  5
192
100
AcDbEntity
  8
0
 62
     0
100
AcDbPolyline
 90
        2
 70
     0
 39
0.003
 10
-0.187961
 20
0.893264
 40
0.003
 41
0.003
 10
-0.210138
 20
0.873197
 40
0.003
 41
0.003
  0
LWPOLYLINE
  5
193
100
AcDbEntity
  8
0
 62
     0
100
AcDbPolyline
 90
        2
 70
     0
 39
0.003
 10
-0.210138
 20
0.873197
 40
0.003
 41
0.003
 10
-0.232965
 20
0.853709
 40
0.003
 41
0.003
  0
LWPOLYLINE
  5
194
100
AcDbEntity
  8
0
 62
     0
100
AcDbPolyline
 90
        2
 70
     0
 39
0.003
 10
-0.232965
 20
0.853709
 40
0.003
 41
0.003
 10
-0.256441
 20
0.834807
 40
0.003
 41
0.003
  0
LWPOLYLINE
  5
195
100
AcDbEntity
  8
0
 62
     0
100
AcDbPolyline
 90
        2
 70
     0
 39
0.003
 10
-0.256441
 20
0.834807
 40
0.003
 41
0.003
 10
-0.280524
 20
0.816528
 40
0.003
 41
0.003
  0
LWPOLYLINE
  5
196
100
AcDbEntity
  8
0
 62
     0
100
AcDbPolyline
 90
        2
 70
     0
 39
0.003
 10
-0.280524
 20
0.816528
 40
0.003
 41
0.003
 10
-0.306449
 20
0.799146
 40
0.003
 41
0.003
  0
LWPOLYLINE
  5
197
100
AcDbEntity
  8
0
 62
     0
100
AcDbPolyline
 90
        2
 70
     0
 39
0.003
 10
-0.306449
 20
0.799146
 40
0.003
 41
0.003
 10
-0.335272
 20
0.782827
 40
0.003
 41
0.003
  0
LWPOLYLINE
  5
198
100
AcDbEntity
  8
0
 62
     0
100
AcDbPolyline
 90
        2
 70
     0
 39
0.003
 10
-0.335272
 20
0.782827
 40
0.003
 41
0.003
 10
-0.36676
 20
0.767374
 40
0.003
 41
0.003
  0
LWPOLYLINE
  5
199
100
AcDbEntity
  8
0
 62
     0
100
AcDbPolyline
 90
        2
 70
     0
 39
0.003
 10
-0.36676
 20
0.767374
 40
0.003
 41
0.003
 10
-0.400661
 20
0.752591
 40
0.003
 41
0.003
  0
LWPOLYLINE
  5
19A
100
AcDbEntity
  8
0
 62
     0
100
AcDbPolyline
 90
        2
 70
     0
 39
0.003
 10
-0.400661
 20
0.752591
 40
0.003
 41
0.003
 10
-0.43676
 20
0.738276
 40
0.003
 41
0.003
  0
LWPOLYLINE
  5
19B
100
AcDbEntity
  8
0
 62
     0
100
AcDbPolyline
 90
        2
 70
     0
 39
0.003
 10
-0.43676
 20
0.738276
 40
0.003
 41
0.003
 10
-0.474799
 20
0.724244
 40
0.003
 41
0.003
  0
LWPOLYLINE
  5
19C
100
AcDbEntity
  8
0
 62
     0
100
AcDbPolyline
 90
        2
 70
     0
 39
0.003
 10
-0.474799
 20
0.724244
 40
0.003
 41
0.003
 10
-0.514551
 20
0.710287
 40
0.003
 41
0.003
  0
LWPOLYLINE
  5
19D
100
AcDbEntity
  8
0
 62
     0
100
AcDbPolyline
 90
        2
 70
     0
 39
0.003
 10
-0.514551
 20
0.710287
 40
0.003
 41
0.003
 10
-0.555787
 20
0.696224
 40
0.003
 41
0.003
  0
LWPOLYLINE
  5
19E
100
AcDbEntity
  8
0
 62
     0
100
AcDbPolyline
 90
        2
 70
     0
 39
0.003
 10
-0.555787
 20
0.696224
 40
0.003
 41
0.003
 10
-0.598252
 20
0.681839
 40
0.003
 41
0.003
  0
LWPOLYLINE
  5
19F
100
AcDbEntity
  8
0
 62
     0
100
AcDbPolyline
 90
        2
 70
     0
 39
0.003
 10
-0.598252
 20
0.681839
 40
0.003
 41
0.003
 10
-0.641728
 20
0.666949
 40
0.003
 41
0.003
  0
LWPOLYLINE
  5
1A0
100
AcDbEntity
  8
0
 62
     0
100
AcDbPolyline
 90
        2
 70
     0
 39
0.003
 10
-0.641728
 20
0.666949
 40
0.003
 41
0.003
 10
-0.685965
 20
0.651354
 40
0.003
 41
0.003
  0
LWPOLYLINE
  5
1A1
100
AcDbEntity
  8
0
 62
     0
100
AcDbPolyline
 90
        2
 70
     0
 39
0.003
 10
-0.685965
 20
0.651354
 40
0.003
 41
0.003
 10
-0.730732
 20
0.634866
 40
0.003
 41
0.003
  0
LWPOLYLINE
  5
1A2
100
AcDbEntity
  8
0
 62
     0
100
AcDbPolyline
 90
        2
 70
     0
 39
0.003
 10
-0.730732
 20
0.634866
 40
0.003
 41
0.003
 10
-0.775783
 20
0.617276
 40
0.003
 41
0.003
  0
LWPOLYLINE
  5
1A3
100
AcDbEntity
  8
0
 62
     0
100
AcDbPolyline
 90
        2
 70
     0
 39
0.003
 10
-0.775783
 20
0.617276
 40
0.003
 41
0.003
 10
-0.82089
 20
0.598398
 40
0.003
 41
0.003
  0
LWPOLYLINE
  5
1A4
100
AcDbEntity
  8
0
 62
     0
100
AcDbPolyline
 90
        2
 70
     0
 39
0.003
 10
-0.82089
 20
0.598398
 40
0.003
 41
0.003
 10
-0.865815
 20
0.578028
 40
0.003
 41
0.003
  0
LWPOLYLINE
  5
1A5
100
AcDbEntity
  8
0
 62
     0
100
AcDbPolyline
 90
        2
 70
     0
 39
0.003
 10
-0.865815
 20
0.578028
 40
0.003
 41
0.003
 10
-0.910319
 20
0.55598
 40
0.003
 41
0.003
  0
LWPOLYLINE
  5
1A6
100
AcDbEntity
  8
0
 62
     0
100
AcDbPolyline
 90
        2
 70
     0
 39
0.003
 10
-0.910319
 20
0.55598
 40
0.003
 41
0.003
 10
-0.954157
 20
0.532043
 40
0.003
 41
0.003
  0
LWPOLYLINE
  5
1A7
100
AcDbEntity
  8
0
 62
     0
100
AcDbPolyline
 90
        2
 70
     0
 39
0.003
 10
-0.954157
 20
0.532043
 40
0.003
 41
0.003
 10
-0.997106
 20
0.506031
 40
0.003
 41
0.003
  0
LWPOLYLINE
  5
1A8
100
AcDbEntity
  8
0
 62
     0
100
AcDbPolyline
 90
        2
 70
     0
 39
0.003
 10
-0.997106
 20
0.506031
 40
0.003
 41
0.003
 10
-1.038913
 20
0.477748
 40
0.003
 41
0.003
  0
LWPOLYLINE
  5
1A9
100
AcDbEntity
  8
0
 62
     0
100
AcDbPolyline
 90
        2
 70
     0
 39
0.003
 10
-1.038913
 20
0.477748
 40
0.003
 41
0.003
 10
-1.079362
 20
0.447
 40
0.003
 41
0.003
  0
LWPOLYLINE
  5
1AA
100
AcDbEntity
  8
0
 62
     0
100
AcDbPolyline
 90
        2
 70
     0
 39
0.003
 10
-1.079362
 20
0.447
 40
0.003
 41
0.003
 10
-1.118193
 20
0.413579
 40
0.003
 41
0.003
  0
LWPOLYLINE
  5
1AB
100
AcDbEntity
  8
0
 62
     0
100
AcDbPolyline
 90
        2
 70
     0
 39
0.003
 10
-1.118193
 20
0.413579
 40
0.003
 41
0.003
 10
-1.155189
 20
0.377307
 40
0.003
 41
0.003
  0
LWPOLYLINE
  5
1AC
100
AcDbEntity
  8
0
 62
     0
100
AcDbPolyline
 90
        2
 70
     0
 39
0.003
 10
-1.155189
 20
0.377307
 40
0.003
 41
0.003
 10
-1.190098
 20
0.337972
 40
0.003
 41
0.003
  0
LWPOLYLINE
  5
1AD
100
AcDbEntity
  8
0
 62
     0
100
AcDbPolyline
 90
        2
 70
     0
 39
0.003
 10
-1.190098
 20
0.337972
 40
0.003
 41
0.003
 10
-1.222697
 20
0.29539
 40
0.003
 41
0.003
  0
LWPOLYLINE
  5
1AE
100
AcDbEntity
  8
0
 62
     0
100
AcDbPolyline
 90
        2
 70
     0
 39
0.003
 10
-1.222697
 20
0.29539
 40
0.003
 41
0.003
 10
-1.252728
 20
0.24935
 40
0.003
 41
0.003
  0
LWPOLYLINE
  5
1AF
100
AcDbEntity
  8
0
 62
     0
100
AcDbPolyline
 90
        2
 70
     0
 39
0.003
 10
-1.252728
 20
0.24935
 40
0.003
 41
0.003
 10
-1.279976
 20
0.199669
 40
0.003
 41
0.003
  0
LWPOLYLINE
  5
1B0
100
AcDbEntity
  8
0
 62
     0
100
AcDbPolyline
 90
        2
 70
     0
 39
0.003
 10
-1.279976
 20
0.199669
 40
0.003
 41
0.003
 10
-1.304189
 20
0.146146
 40
0.003
 41
0.003
  0
LWPOLYLINE
  5
1B1
100
AcDbEntity
  8
0
 62
     0
100
AcDbPolyline
 90
        2
 70
     0
 39
0.003
 10
-1.304189
 20
0.146146
 40
0.003
 41
0.003
 10
-1.325142
 20
0.088591
 40
0.003
 41
0.003
  0
LWPOLYLINE
  5
1B2
100
AcDbEntity
  8
0
 62
     0
100
AcDbPolyline
 90
        2
 70
     0
 39
0.003
 10
-1.325142
 20
0.088591
 40
0.003
 41
0.003
 10
-1.342583
 20
0.026791
 40
0.003
 41
0.003
  0
LWPOLYLINE
  5
1B3
100
AcDbEntity
  8
0
 62
     0
100
AcDbPolyline
 90
        2
 70
     0
 39
0.003
 10
-1.342583
 20
0.026791
 40
0.003
 41
0.003
 10
-1.356287
 20
-0.039429
 40
0.003
 41
0.003
  0
LWPOLYLINE
  5
1B4
100
AcDbEntity
  8
0
 62
     0
100
AcDbPolyline
 90
        2
 70
     0
 39
0.003
 10
-1.356287
 20
-0.039429
 40
0.003
 41
0.003
 10
-1.366008
 20
-0.11028
 40
0.003
 41
0.003
  0
LWPOLYLINE
  5
1B5
100
AcDbEntity
  8
0
 62
     0
100
AcDbPolyline
 90
        2
 70
     0
 39
0.003
 10
-1.366008
 20
-0.11028
 40
0.003
 41
0.003
 10
-1.371524
 20
-0.185941
 40
0.003
 41
0.003
  0
LWPOLYLINE
  5
1B6
100
AcDbEntity
  8
0
 62
     9
100
AcDbPolyline
 90
        2
 70
     0
 39
0.003
 10
-1.728031
 20
-0.187118
 40
0.003
 41
0.003
 10
-1.080508
 20
-0.570079
 40
0.003
 41
0.003
  0
LWPOLYLINE
  5
1B7
100
AcDbEntity
  8
0
 62
     9
100
AcDbPolyline
 90
        2
 70
     0
 39
0.003
 10
-1.080508
 20
-0.570079
 40
0.003
 41
0.003
 10
-0.724
 20
-0.568902
 40
0.003
 41
0.003
  0
LWPOLYLINE
  5
1B8
100
AcDbEntity
  8
0
 62
     9
100
AcDbPolyline
 90
        2
 70
     0
 39
0.003
 10
-0.724
 20
-0.568902
 40
0.003
 41
0.003
 10
-1.371524
 20
-0.185941
 40
0.003
 41
0.003
  0
LWPOLYLINE
  5
1B9
100
AcDbEntity
  8
0
 62
     9
100
AcDbPolyline
 90
        2
 70
     0
 39
0.003
 10
-1.371524
 20
-0.185941
 40
0.003
 41
0.003
 10
-1.728031
 20
-0.187118
 40
0.003
 41
0.003
  0
LWPOLYLINE
  5
1BA
100
AcDbEntity
  8
0
 62
     0
100
AcDbPolyline
 90
        2
 70
     0
 39
0.003
 10
-1.728031
 20
-0.187118
 40
0.003
 41
0.003
 10
-1.080508
 20
-0.570079
 40
0.003
 41
0.003
  0
LWPOLYLINE
  5
1BB
100
AcDbEntity
  8
0
 62
     0
100
AcDbPolyline
 90
        2
 70
     0
 39
0.003
 10
-1.080508
 20
-0.570079
 40
0.003
 41
0.003
 10
-0.724
 20
-0.568902
 40
0.003
 41
0.003
  0
LWPOLYLINE
  5
1BC
100
AcDbEntity
  8
0
 62
     0
100
AcDbPolyline
 90
        2
 70
     0
 39
0.003
 10
-0.724
 20
-0.568902
 40
0.003
 41
0.003
 10
-1.371524
 20
-0.185941
 40
0.003
 41
0.003
  0
LWPOLYLINE
  5
1BD
100
AcDbEntity
  8
0
 62
     0
100
AcDbPolyline
 90
        2
 70
     0
 39
0.003
 10
-1.371524
 20
-0.185941
 40
0.003
 41
0.003
 10
-1.728031
 20
-0.187118
 40
0.003
 41
0.003
  0
LWPOLYLINE
  5
1BE
100
AcDbEntity
  8
0
 62
   254
100
AcDbPolyline
 90
        2
 70
     0
 39
0.003
 10
-1.371524
 20
-0.185941
 40
0.003
 41
0.003
 10
-0.724
 20
-0.568902
 40
0.003
 41
0.003
  0
LWPOLYLINE
  5
1BF
100
AcDbEntity
  8
0
 62
   254
100
AcDbPolyline
 90
        2
 70
     0
 39
0.003
 10
-0.724
 20
-0.568902
 40
0.003
 41
0.003
 10
-0.718484
 20
-0.49324
 40
0.003
 41
0.003
  0
LWPOLYLINE
  5
1C0
100
AcDbEntity
  8
0
 62
   254
100
AcDbPolyline
 90
        2
 70
     0
 39
0.003
 10
-0.718484
 20
-0.49324
 40
0.003
 41
0.003
 10
-1.366008
 20
-0.11028
 40
0.003
 41
0.003
  0
LWPOLYLINE
  5
1C1
100
AcDbEntity
  8
0
 62
   254
100
AcDbPolyline
 90
        2
 70
     0
 39
0.003
 10
-1.366008
 20
-0.11028
 40
0.003
 41
0.003
 10
-1.371524
 20
-0.185941
 40
0.003
 41
0.003
  0
LWPOLYLINE
  5
1C2
100
AcDbEntity
  8
0
 62
   254
100
AcDbPolyline
 90
        2
 70
     0
 39
0.003
 10
-1.366008
 20
-0.11028
 40
0.003
 41
0.003
 10
-0.718484
 20
-0.49324
 40
0.003
 41
0.003
  0
LWPOLYLINE
  5
1C3
100
AcDbEntity
  8
0
 62
   254
100
AcDbPolyline
 90
        2
 70
     0
 39
0.003
 10
-0.718484
 20
-0.49324
 40
0.003
 41
0.003
 10
-0.708764
 20
-0.42239
 40
0.003
 41
0.003
  0
LWPOLYLINE
  5
1C4
100
AcDbEntity
  8
0
 62
   254
100
AcDbPolyline
 90
        2
 70
     0
 39
0.003
 10
-0.708764
 20
-0.42239
 40
0.003
 41
0.003
 10
-1.356287
 20
-0.039429
 40
0.003
 41
0.003
  0
LWPOLYLINE
  5
1C5
100
AcDbEntity
  8
0
 62
   254
100
AcDbPolyline
 90
        2
 70
     0
 39
0.003
 10
-1.356287
 20
-0.039429
 40
0.003
 41
0.003
 10
-1.366008
 20
-0.11028
 40
0.003
 41
0.003
  0
LWPOLYLINE
  5
1C6
100
AcDbEntity
  8
0
 62
   254
100
AcDbPolyline
 90
        2
 70
     0
 39
0.003
 10
-1.356287
 20
-0.039429
 40
0.003
 41
0.003
 10
-0.708764
 20
-0.42239
 40
0.003
 41
0.003
  0
LWPOLYLINE
  5
1C7
100
AcDbEntity
  8
0
 62
   254
100
AcDbPolyline
 90
        2
 70
     0
 39
0.003
 10
-0.708764
 20
-0.42239
 40
0.003
 41
0.003
 10
-0.695059
 20
-0.356169
 40
0.003
 41
0.003
  0
LWPOLYLINE
  5
1C8
100
AcDbEntity
  8
0
 62
   254
100
AcDbPolyline
 90
        2
 70
     0
 39
0.003
 10
-0.695059
 20
-0.356169
 40
0.003
 41
0.003
 10
-1.342583
 20
0.026791
 40
0.003
 41
0.003
  0
LWPOLYLINE
  5
1C9
100
AcDbEntity
  8
0
 62
   254
100
AcDbPolyline
 90
        2
 70
     0
 39
0.003
 10
-1.342583
 20
0.026791
 40
0.003
 41
0.003
 10
-1.356287
 20
-0.039429
 40
0.003
 41
0.003
  0
LWPOLYLINE
  5
1CA
100
AcDbEntity
  8
0
 62
   254
100
AcDbPolyline
 90
        2
 70
     0
 39
0.003
 10
-1.342583
 20
0.026791
 40
0.003
 41
0.003
 10
-0.695059
 20
-0.356169
 40
0.003
 41
0.003
  0
LWPOLYLINE
  5
1CB
100
AcDbEntity
  8
0
 62
   254
100
AcDbPolyline
 90
        2
 70
     0
 39
0.003
 10
-0.695059
 20
-0.356169
 40
0.003
 41
0.003
 10
-0.677618
 20
-0.29437
 40
0.003
 41
0.003
  0
LWPOLYLINE
  5
1CC
100
AcDbEntity
  8
0
 62
   254
100
AcDbPolyline
 90
        2
 70
     0
 39
0.003
 10
-0.677618
 20
-0.29437
 40
0.003
 41
0.003
 10
-1.325142
 20
0.088591
 40
0.003
 41
0.003
  0
LWPOLYLINE
  5
1CD
100
AcDbEntity
  8
0
 62
   254
100
AcDbPolyline
 90
        2
 70
     0
 39
0.003
 10
-1.325142
 20
0.088591
 40
0.003
 41
0.003
 10
-1.342583
 20
0.026791
 40
0.003
 41
0.003
  0
LWPOLYLINE
  5
1CE
100
AcDbEntity
  8
0
 62
   254
100
AcDbPolyline
 90
        2
 70
     0
 39
0.003
 10
-1.325142
 20
0.088591
 40
0.003
 41
0.003
 10
-0.677618
 20
-0.29437
 40
0.003
 41
0.003
  0
LWPOLYLINE
  5
1CF
100
AcDbEntity
  8
0
 62
   254
100
AcDbPolyline
 90
        2
 70
     0
 39
0.003
 10
-0.677618
 20
-0.29437
 40
0.003
 41
0.003
 10
-0.656665
 20
-0.236815
 40
0.003
 41
0.003
  0
LWPOLYLINE
  5
1D0
100
AcDbEntity
  8
0
 62
   254
100
AcDbPolyline
 90
        2
 70
     0
 39
0.003
 10
-0.656665
 20
-0.236815
 40
0.003
 41
0.003
 10
-1.304189
 20
0.146146
 40
0.003
 41
0.003
  0
LWPOLYLINE
  5
1D1
100
AcDbEntity
  8
0
 62
   254
100
AcDbPolyline
 90
        2
 70
     0
 39
0.003
 10
-1.304189
 20
0.146146
 40
0.003
 41
0.003
 10
-1.325142
 20
0.088591
 40
0.003
 41
0.003
  0
LWPOLYLINE
  5
1D2
100
AcDbEntity
  8
0
 62
   254
100
AcDbPolyline
 90
        2
 70
     0
 39
0.003
 10
-1.304189
 20
0.146146
 40
0.003
 41
0.003
 10
-0.656665
 20
-0.236815
 40
0.003
 41
0.003
  0
LWPOLYLINE
  5
1D3
100
AcDbEntity
  8
0
 62
   254
100
AcDbPolyline
 90
        2
 70
     0
 39
0.003
 10
-0.656665
 20
-0.236815
 40
0.003
 41
0.003
 10
-0.632453
 20
-0.183291
 40
0.003
 41
0.003
  0
LWPOLYLINE
  5
1D4
100
AcDbEntity
  8
0
 62
   254
100
AcDbPolyline
 90
        2
 70
     0
 39
0.003
 10
-0.632453
 20
-0.183291
 40
0.003
 41
0.003
 10
-1.279976
 20
0.199669
 40
0.003
 41
0.003
  0
LWPOLYLINE
  5
1D5
100
AcDbEntity
  8
0
 62
   254
100
AcDbPolyline
 90
        2
 70
     0
 39
0.003
 10
-1.279976
 20
0.199669
 40
0.003
 41
0.003
 10
-1.304189
 20
0.146146
 40
0.003
 41
0.003
  0
LWPOLYLINE
  5
1D6
100
AcDbEntity
  8
0
 62
   254
100
AcDbPolyline
 90
        2
 70
     0
 39
0.003
 10
-1.279976
 20
0.199669
 40
0.003
 41
0.003
 10
-0.632453
 20
-0.183291
 40
0.003
 41
0.003
  0
LWPOLYLINE
  5
1D7
100
AcDbEntity
  8
0
 62
   254
100
AcDbPolyline
 90
        2
 70
     0
 39
0.003
 10
-0.632453
 20
-0.183291
 40
0.003
 41
0.003
 10
-0.605205
 20
-0.13361
 40
0.003
 41
0.003
  0
LWPOLYLINE
  5
1D8
100
AcDbEntity
  8
0
 62
   254
100
AcDbPolyline
 90
        2
 70
     0
 39
0.003
 10
-0.605205
 20
-0.13361
 40
0.003
 41
0.003
 10
-1.252728
 20
0.24935
 40
0.003
 41
0.003
  0
LWPOLYLINE
  5
1D9
100
AcDbEntity
  8
0
 62
   254
100
AcDbPolyline
 90
        2
 70
     0
 39
0.003
 10
-1.252728
 20
0.24935
 40
0.003
 41
0.003
 10
-1.279976
 20
0.199669
 40
0.003
 41
0.003
  0
LWPOLYLINE
  5
1DA
100
AcDbEntity
  8
0
 62
   254
100
AcDbPolyline
 90
        2
 70
     0
 39
0.003
 10
-1.252728
 20
0.24935
 40
0.003
 41
0.003
 10
-0.605205
 20
-0.13361
 40
0.003
 41
0.003
  0
LWPOLYLINE
  5
1DB
100
AcDbEntity
  8
0
 62
   254
100
AcDbPolyline
 90
        2
 70
     0
 39
0.003
 10
-0.605205
 20
-0.13361
 40
0.003
 41
0.003
 10
-0.575173
 20
-0.087571
 40
0.003
 41
0.003
  0
LWPOLYLINE
  5
1DC
100
AcDbEntity
  8
0
 62
   254
100
AcDbPolyline
 90
        2
 70
     0
 39
0.003
 10
-0.575173
 20
-0.087571
 40
0.003
 41
0.003
 10
-1.222697
 20
0.29539
 40
0.003
 41
0.003
  0
LWPOLYLINE
  5
1DD
100
AcDbEntity
  8
0
 62
   254
100
AcDbPolyline
 90
        2
 70
     0
 39
0.003
 10
-1.222697
 20
0.29539
 40
0.003
 41
0.003
 10
-1.252728
 20
0.24935
 40
0.003
 41
0.003
  0
LWPOLYLINE
  5
1DE
100
AcDbEntity
  8
0
 62
   254
100
AcDbPolyline
 90
        2
 70
     0
 39
0.003
 10
-1.222697
 20
0.29539
 40
0.003
 41
0.003
 10
-0.575173
 20
-0.087571
 40
0.003
 41
0.003
  0
LWPOLYLINE
  5
1DF
100
AcDbEntity
  8
0
 62
   254
100
AcDbPolyline
 90
        2
 70
     0
 39
0.003
 10
-0.575173
 20
-0.087571
 40
0.003
 41
0.003
 10
-0.542575
 20
-0.044988
 40
0.003
 41
0.003
  0
LWPOLYLINE
  5
1E0
100
AcDbEntity
  8
0
 62
   254
100
AcDbPolyline
 90
        2
 70
     0
 39
0.003
 10
-0.542575
 20
-0.044988
 40
0.003
 41
0.003
 10
-1.190098
 20
0.337972
 40
0.003
 41
0.003
  0
LWPOLYLINE
  5
1E1
100
AcDbEntity
  8
0
 62
   254
100
AcDbPolyline
 90
        2
 70
     0
 39
0.003
 10
-1.190098
 20
0.337972
 40
0.003
 41
0.003
 10
-1.222697
 20
0.29539
 40
0.003
 41
0.003
  0
LWPOLYLINE
  5
1E2
100
AcDbEntity
  8
0
 62
   254
100
AcDbPolyline
 90
        2
 70
     0
 39
0.003
 10
-1.190098
 20
0.337972
 40
0.003
 41
0.003
 10
-0.542575
 20
-0.044988
 40
0.003
 41
0.003
  0
LWPOLYLINE
  5
1E3
100
AcDbEntity
  8
0
 62
   254
100
AcDbPolyline
 90
        2
 70
     0
 39
0.003
 10
-0.542575
 20
-0.044988
 40
0.003
 41
0.003
 10
-0.507665
 20
-0.005654
 40
0.003
 41
0.003
  0
LWPOLYLINE
  5
1E4
100
AcDbEntity
  8
0
 62
   254
100
AcDbPolyline
 90
        2
 70
     0
 39
0.003
 10
-0.507665
 20
-0.005654
 40
0.003
 41
0.003
 10
-1.155189
 20
0.377307
 40
0.003
 41
0.003
  0
LWPOLYLINE
  5
1E5
100
AcDbEntity
  8
0
 62
   254
100
AcDbPolyline
 90
        2
 70
     0
 39
0.003
 10
-1.155189
 20
0.377307
 40
0.003
 41
0.003
 10
-1.190098
 20
0.337972
 40
0.003
 41
0.003
  0
LWPOLYLINE
  5
1E6
100
AcDbEntity
  8
0
 62
   254
100
AcDbPolyline
 90
        2
 70
     0
 39
0.003
 10
-1.155189
 20
0.377307
 40
0.003
 41
0.003
 10
-0.507665
 20
-0.005654
 40
0.003
 41
0.003
  0
LWPOLYLINE
  5
1E7
100
AcDbEntity
  8
0
 62
   254
100
AcDbPolyline
 90
        2
 70
     0
 39
0.003
 10
-0.507665
 20
-0.005654
 40
0.003
 41
0.003
 10
-0.470669
 20
0.030618
 40
0.003
 41
0.003
  0
LWPOLYLINE
  5
1E8
100
AcDbEntity
  8
0
 62
   254
100
AcDbPolyline
 90
        2
 70
     0
 39
0.003
 10
-0.470669
 20
0.030618
 40
0.003
 41
0.003
 10
-1.118193
 20
0.413579
 40
0.003
 41
0.003
  0
LWPOLYLINE
  5
1E9
100
AcDbEntity
  8
0
 62
   254
100
AcDbPolyline
 90
        2
 70
     0
 39
0.003
 10
-1.118193
 20
0.413579
 40
0.003
 41
0.003
 10
-1.155189
 20
0.377307
 40
0.003
 41
0.003
  0
LWPOLYLINE
  5
1EA
100
AcDbEntity
  8
0
 62
   254
100
AcDbPolyline
 90
        2
 70
     0
 39
0.003
 10
-1.118193
 20
0.413579
 40
0.003
 41
0.003
 10
-0.470669
 20
0.030618
 40
0.003
 41
0.003
  0
LWPOLYLINE
  5
1EB
100
AcDbEntity
  8
0
 62
   254
100
AcDbPolyline
 90
        2
 70
     0
 39
0.003
 10
-0.470669
 20
0.030618
 40
0.003
 41
0.003
 10
-0.431839
 20
0.064039
 40
0.003
 41
0.003
  0
LWPOLYLINE
  5
1EC
100
AcDbEntity
  8
0
 62
   254
100
AcDbPolyline
 90
        2
 70
     0
 39
0.003
 10
-0.431839
 20
0.064039
 40
0.003
 41
0.003
 10
-1.079362
 20
0.447
 40
0.003
 41
0.003
  0
LWPOLYLINE
  5
1ED
100
AcDbEntity
  8
0
 62
   254
100
AcDbPolyline
 90
        2
 70
     0
 39
0.003
 10
-1.079362
 20
0.447
 40
0.003
 41
0.003
 10
-1.118193
 20
0.413579
 40
0.003
 41
0.003
  0
LWPOLYLINE
  5
1EE
100
AcDbEntity
  8
0
 62
   254
100
AcDbPolyline
 90
        2
 70
     0
 39
0.003
 10
-1.079362
 20
0.447
 40
0.003
 41
0.003
 10
-0.431839
 20
0.064039
 40
0.003
 41
0.003
  0
LWPOLYLINE
  5
1EF
100
AcDbEntity
  8
0
 62
   254
100
AcDbPolyline
 90
        2
 70
     0
 39
0.003
 10
-0.431839
 20
0.064039
 40
0.003
 41
0.003
 10
-0.39139
 20
0.094787
 40
0.003
 41
0.003
  0
LWPOLYLINE
  5
1F0
100
AcDbEntity
  8
0
 62
   254
100
AcDbPolyline
 90
        2
 70
     0
 39
0.003
 10
-0.39139
 20
0.094787
 40
0.003
 41
0.003
 10
-1.038913
 20
0.477748
 40
0.003
 41
0.003
  0
LWPOLYLINE
  5
1F1
100
AcDbEntity
  8
0
 62
   254
100
AcDbPolyline
 90
        2
 70
     0
 39
0.003
 10
-1.038913
 20
0.477748
 40
0.003
 41
0.003
 10
-1.079362
 20
0.447
 40
0.003
 41
0.003
  0
LWPOLYLINE
  5
1F2
100
AcDbEntity
  8
0
 62
     9
100
AcDbPolyline
 90
        2
 70
     0
 39
0.003
 10
-1.038913
 20
0.477748
 40
0.003
 41
0.003
 10
-0.39139
 20
0.094787
 40
0.003
 41
0.003
  0
LWPOLYLINE
  5
1F3
100
AcDbEntity
  8
0
 62
     9
100
AcDbPolyline
 90
        2
 70
     0
 39
0.003
 10
-0.39139
 20
0.094787
 40
0.003
 41
0.003
 10
-0.349583
 20
0.123071
 40
0.003
 41
0.003
  0
LWPOLYLINE
  5
1F4
100
AcDbEntity
  8
0
 62
     9
100
AcDbPolyline
 90
        2
 70
     0
 39
0.003
 10
-0.349583
 20
0.123071
 40
0.003
 41
0.003
 10
-0.997106
 20
0.506031
 40
0.003
 41
0.003
  0
LWPOLYLINE
  5
1F5
100
AcDbEntity
  8
0
 62
     9
100
AcDbPolyline
 90
        2
 70
     0
 39
0.003
 10
-0.997106
 20
0.506031
 40
0.003
 41
0.003
 10
-1.038913
 20
0.477748
 40
0.003
 41
0.003
  0
LWPOLYLINE
  5
1F6
100
AcDbEntity
  8
0
 62
     9
100
AcDbPolyline
 90
        2
 70
     0
 39
0.003
 10
-0.997106
 20
0.506031
 40
0.003
 41
0.003
 10
-0.349583
 20
0.123071
 40
0.003
 41
0.003
  0
LWPOLYLINE
  5
1F7
100
AcDbEntity
  8
0
 62
     9
100
AcDbPolyline
 90
        2
 70
     0
 39
0.003
 10
-0.349583
 20
0.123071
 40
0.003
 41
0.003
 10
-0.306634
 20
0.149083
 40
0.003
 41
0.003
  0
LWPOLYLINE
  5
1F8
100
AcDbEntity
  8
0
 62
     9
100
AcDbPolyline
 90
        2
 70
     0
 39
0.003
 10
-0.306634
 20
0.149083
 40
0.003
 41
0.003
 10
-0.954157
 20
0.532043
 40
0.003
 41
0.003
  0
LWPOLYLINE
  5
1F9
100
AcDbEntity
  8
0
 62
     9
100
AcDbPolyline
 90
        2
 70
     0
 39
0.003
 10
-0.954157
 20
0.532043
 40
0.003
 41
0.003
 10
-0.997106
 20
0.506031
 40
0.003
 41
0.003
  0
LWPOLYLINE
  5
1FA
100
AcDbEntity
  8
0
 62
     9
100
AcDbPolyline
 90
        2
 70
     0
 39
0.003
 10
-0.954157
 20
0.532043
 40
0.003
 41
0.003
 10
-0.306634
 20
0.149083
 40
0.003
 41
0.003
  0
LWPOLYLINE
  5
1FB
100
AcDbEntity
  8
0
 62
     9
100
AcDbPolyline
 90
        2
 70
     0
 39
0.003
 10
-0.306634
 20
0.149083
 40
0.003
 41
0.003
 10
-0.262795
 20
0.17302
 40
0.003
 41
0.003
  0
LWPOLYLINE
  5
1FC
100
AcDbEntity
  8
0
 62
     9
100
AcDbPolyline
 90
        2
 70
     0
 39
0.003
 10
-0.262795
 20
0.17302
 40
0.003
 41
0.003
 10
-0.910319
 20
0.55598
 40
0.003
 41
0.003
  0
LWPOLYLINE
  5
1FD
100
AcDbEntity
  8
0
 62
     9
100
AcDbPolyline
 90
        2
 70
     0
 39
0.003
 10
-0.910319
 20
0.55598
 40
0.003
 41
0.003
 10
-0.954157
 20
0.532043
 40
0.003
 41
0.003
  0
LWPOLYLINE
  5
1FE
100
AcDbEntity
  8
0
 62
     9
100
AcDbPolyline
 90
        2
 70
     0
 39
0.003
 10
-0.910319
 20
0.55598
 40
0.003
 41
0.003
 10
-0.262795
 20
0.17302
 40
0.003
 41
0.003
  0
LWPOLYLINE
  5
1FF
100
AcDbEntity
  8
0
 62
     9
100
AcDbPolyline
 90
        2
 70
     0
 39
0.003
 10
-0.262795
 20
0.17302
 40
0.003
 41
0.003
 10
-0.218291
 20
0.195067
 40
0.003
 41
0.003
  0
LWPOLYLINE
  5
200
100
AcDbEntity
  8
0
 62
     9
100
AcDbPolyline
 90
        2
 70
     0
 39
0.003
 10
-0.218291
 20
0.195067
 40
0.003
 41
0.003
 10
-0.865815
 20
0.578028
 40
0.003
 41
0.003
  0
LWPOLYLINE
  5
201
100
AcDbEntity
  8
0
 62
     9
100
AcDbPolyline
 90
        2
 70
     0
 39
0.003
 10
-0.865815
 20
0.578028
 40
0.003
 41
0.003
 10
-0.910319
 20
0.55598
 40
0.003
 41
0.003
  0
LWPOLYLINE
  5
202
100
AcDbEntity
  8
0
 62
     9
100
AcDbPolyline
 90
        2
 70
     0
 39
0.003
 10
-0.865815
 20
0.578028
 40
0.003
 41
0.003
 10
-0.218291
 20
0.195067
 40
0.003
 41
0.003
  0
LWPOLYLINE
  5
203
100
AcDbEntity
  8
0
 62
     9
100
AcDbPolyline
 90
        2
 70
     0
 39
0.003
 10
-0.218291
 20
0.195067
 40
0.003
 41
0.003
 10
-0.173366
 20
0.215437
 40
0.003
 41
0.003
  0
LWPOLYLINE
  5
204
100
AcDbEntity
  8
0
 62
     9
100
AcDbPolyline
 90
        2
 70
     0
 39
0.003
 10
-0.173366
 20
0.215437
 40
0.003
 41
0.003
 10
-0.82089
 20
0.598398
 40
0.003
 41
0.003
  0
LWPOLYLINE
  5
205
100
AcDbEntity
  8
0
 62
     9
100
AcDbPolyline
 90
        2
 70
     0
 39
0.003
 10
-0.82089
 20
0.598398
 40
0.003
 41
0.003
 10
-0.865815
 20
0.578028
 40
0.003
 41
0.003
  0
LWPOLYLINE
  5
206
100
AcDbEntity
  8
0
 62
     9
100
AcDbPolyline
 90
        2
 70
     0
 39
0.003
 10
-0.82089
 20
0.598398
 40
0.003
 41
0.003
 10
-0.173366
 20
0.215437
 40
0.003
 41
0.003
  0
LWPOLYLINE
  5
207
100
AcDbEntity
  8
0
 62
     9
100
AcDbPolyline
 90
        2
 70
     0
 39
0.003
 10
-0.173366
 20
0.215437
 40
0.003
 41
0.003
 10
-0.12826
 20
0.234315
 40
0.003
 41
0.003
  0
LWPOLYLINE
  5
208
100
AcDbEntity
  8
0
 62
     9
100
AcDbPolyline
 90
        2
 70
     0
 39
0.003
 10
-0.12826
 20
0.234315
 40
0.003
 41
0.003
 10
-0.775783
 20
0.617276
 40
0.003
 41
0.003
  0
LWPOLYLINE
  5
209
100
AcDbEntity
  8
0
 62
     9
100
AcDbPolyline
 90
        2
 70
     0
 39
0.003
 10
-0.775783
 20
0.617276
 40
0.003
 41
0.003
 10
-0.82089
 20
0.598398
 40
0.003
 41
0.003
  0
LWPOLYLINE
  5
20A
100
AcDbEntity
  8
0
 62
     9
100
AcDbPolyline
 90
        2
 70
     0
 39
0.003
 10
-0.775783
 20
0.617276
 40
0.003
 41
0.003
 10
-0.12826
 20
0.234315
 40
0.003
 41
0.003
  0
LWPOLYLINE
  5
20B
100
AcDbEntity
  8
0
 62
     9
100
AcDbPolyline
 90
        2
 70
     0
 39
0.003
 10
-0.12826
 20
0.234315
 40
0.003
 41
0.003
 10
-0.083209
 20
0.251906
 40
0.003
 41
0.003
  0
LWPOLYLINE
  5
20C
100
AcDbEntity
  8
0
 62
     9
100
AcDbPolyline
 90
        2
 70
     0
 39
0.003
 10
-0.083209
 20
0.251906
 40
0.003
 41
0.003
 10
-0.730732
 20
0.634866
 40
0.003
 41
0.003
  0
LWPOLYLINE
  5
20D
100
AcDbEntity
  8
0
 62
     9
100
AcDbPolyline
 90
        2
 70
     0
 39
0.003
 10
-0.730732
 20
0.634866
 40
0.003
 41
0.003
 10
-0.775783
 20
0.617276
 40
0.003
 41
0.003
  0
LWPOLYLINE
  5
20E
100
AcDbEntity
  8
0
 62
     9
100
AcDbPolyline
 90
        2
 70
     0
 39
0.003
 10
-0.730732
 20
0.634866
 40
0.003
 41
0.003
 10
-0.083209
 20
0.251906
 40
0.003
 41
0.003
  0
LWPOLYLINE
  5
20F
100
AcDbEntity
  8
0
 62
     9
100
AcDbPolyline
 90
        2
 70
     0
 39
0.003
 10
-0.083209
 20
0.251906
 40
0.003
 41
0.003
 10
-0.038441
 20
0.268394
 40
0.003
 41
0.003
  0
LWPOLYLINE
  5
210
100
AcDbEntity
  8
0
 62
     9
100
AcDbPolyline
 90
        2
 70
     0
 39
0.003
 10
-0.038441
 20
0.268394
 40
0.003
 41
0.003
 10
-0.685965
 20
0.651354
 40
0.003
 41
0.003
  0
LWPOLYLINE
  5
211
100
AcDbEntity
  8
0
 62
     9
100
AcDbPolyline
 90
        2
 70
     0
 39
0.003
 10
-0.685965
 20
0.651354
 40
0.003
 41
0.003
 10
-0.730732
 20
0.634866
 40
0.003
 41
0.003
  0
LWPOLYLINE
  5
212
100
AcDbEntity
  8
0
 62
     9
100
AcDbPolyline
 90
        2
 70
     0
 39
0.003
 10
-0.685965
 20
0.651354
 40
0.003
 41
0.003
 10
-0.038441
 20
0.268394
 40
0.003
 41
0.003
  0
LWPOLYLINE
  5
213
100
AcDbEntity
  8
0
 62
     9
100
AcDbPolyline
 90
        2
 70
     0
 39
0.003
 10
-0.038441
 20
0.268394
 40
0.003
 41
0.003
 10
0.005795
 20
0.283988
 40
0.003
 41
0.003
  0
LWPOLYLINE
  5
214
100
AcDbEntity
  8
0
 62
     9
100
AcDbPolyline
 90
        2
 70
     0
 39
0.003
 10
0.005795
 20
0.283988
 40
0.003
 41
0.003
 10
-0.641728
 20
0.666949
 40
0.003
 41
0.003
  0
LWPOLYLINE
  5
215
100
AcDbEntity
  8
0
 62
     9
100
AcDbPolyline
 90
        2
 70
     0
 39
0.003
 10
-0.641728
 20
0.666949
 40
0.003
 41
0.003
 10
-0.685965
 20
0.651354
 40
0.003
 41
0.003
  0
LWPOLYLINE
  5
216
100
AcDbEntity
  8
0
 62
     9
100
AcDbPolyline
 90
        2
 70
     0
 39
0.003
 10
-0.641728
 20
0.666949
 40
0.003
 41
0.003
 10
0.005795
 20
0.283988
 40
0.003
 41
0.003
  0
LWPOLYLINE
  5
217
100
AcDbEntity
  8
0
 62
     9
100
AcDbPolyline
 90
        2
 70
     0
 39
0.003
 10
0.005795
 20
0.283988
 40
0.003
 41
0.003
 10
0.049272
 20
0.298878
 40
0.003
 41
0.003
  0
LWPOLYLINE
  5
218
100
AcDbEntity
  8
0
 62
     9
100
AcDbPolyline
 90
        2
 70
     0
 39
0.003
 10
0.049272
 20
0.298878
 40
0.003
 41
0.003
 10
-0.598252
 20
0.681839
 40
0.003
 41
0.003
  0
LWPOLYLINE
  5
219
100
AcDbEntity
  8
0
 62
     9
100
AcDbPolyline
 90
        2
 70
     0
 39
0.003
 10
-0.598252
 20
0.681839
 40
0.003
 41
0.003
 10
-0.641728
 20
0.666949
 40
0.003
 41
0.003
  0
LWPOLYLINE
  5
21A
100
AcDbEntity
  8
0
 62
     9
100
AcDbPolyline
 90
        2
 70
     0
 39
0.003
 10
-0.598252
 20
0.681839
 40
0.003
 41
0.003
 10
0.049272
 20
0.298878
 40
0.003
 41
0.003
  0
LWPOLYLINE
  5
21B
100
AcDbEntity
  8
0
 62
     9
100
AcDbPolyline
 90
        2
 70
     0
 39
0.003
 10
0.049272
 20
0.298878
 40
0.003
 41
0.003
 10
0.091736
 20
0.313264
 40
0.003
 41
0.003
  0
LWPOLYLINE
  5
21C
100
AcDbEntity
  8
0
 62
     9
100
AcDbPolyline
 90
        2
 70
     0
 39
0.003
 10
0.091736
 20
0.313264
 40
0.003
 41
0.003
 10
-0.555787
 20
0.696224
 40
0.003
 41
0.003
  0
LWPOLYLINE
  5
21D
100
AcDbEntity
  8
0
 62
     9
100
AcDbPolyline
 90
        2
 70
     0
 39
0.003
 10
-0.555787
 20
0.696224
 40
0.003
 41
0.003
 10
-0.598252
 20
0.681839
 40
0.003
 41
0.003
  0
LWPOLYLINE
  5
21E
100
AcDbEntity
  8
0
 62
     9
100
AcDbPolyline
 90
        2
 70
     0
 39
0.003
 10
-0.555787
 20
0.696224
 40
0.003
 41
0.003
 10
0.091736
 20
0.313264
 40
0.003
 41
0.003
  0
LWPOLYLINE
  5
21F
100
AcDbEntity
  8
0
 62
     9
100
AcDbPolyline
 90
        2
 70
     0
 39
0.003
 10
0.091736
 20
0.313264
 40
0.003
 41
0.003
 10
0.132972
 20
0.327327
 40
0.003
 41
0.003
  0
LWPOLYLINE
  5
220
100
AcDbEntity
  8
0
 62
     9
100
AcDbPolyline
 90
        2
 70
     0
 39
0.003
 10
0.132972
 20
0.327327
 40
0.003
 41
0.003
 10
-0.514551
 20
0.710287
 40
0.003
 41
0.003
  0
LWPOLYLINE
  5
221
100
AcDbEntity
  8
0
 62
     9
100
AcDbPolyline
 90
        2
 70
     0
 39
0.003
 10
-0.514551
 20
0.710287
 40
0.003
 41
0.003
 10
-0.555787
 20
0.696224
 40
0.003
 41
0.003
  0
LWPOLYLINE
  5
222
100
AcDbEntity
  8
0
 62
     9
100
AcDbPolyline
 90
        2
 70
     0
 39
0.003
 10
-0.514551
 20
0.710287
 40
0.003
 41
0.003
 10
0.132972
 20
0.327327
 40
0.003
 41
0.003
  0
LWPOLYLINE
  5
223
100
AcDbEntity
  8
0
 62
     9
100
AcDbPolyline
 90
        2
 70
     0
 39
0.003
 10
0.132972
 20
0.327327
 40
0.003
 41
0.003
 10
0.172724
 20
0.341283
 40
0.003
 41
0.003
  0
LWPOLYLINE
  5
224
100
AcDbEntity
  8
0
 62
     9
100
AcDbPolyline
 90
        2
 70
     0
 39
0.003
 10
0.172724
 20
0.341283
 40
0.003
 41
0.003
 10
-0.474799
 20
0.724244
 40
0.003
 41
0.003
  0
LWPOLYLINE
  5
225
100
AcDbEntity
  8
0
 62
     9
100
AcDbPolyline
 90
        2
 70
     0
 39
0.003
 10
-0.474799
 20
0.724244
 40
0.003
 41
0.003
 10
-0.514551
 20
0.710287
 40
0.003
 41
0.003
  0
LWPOLYLINE
  5
226
100
AcDbEntity
  8
0
 62
     9
100
AcDbPolyline
 90
        2
 70
     0
 39
0.003
 10
-0.474799
 20
0.724244
 40
0.003
 41
0.003
 10
0.172724
 20
0.341283
 40
0.003
 41
0.003
  0
LWPOLYLINE
  5
227
100
AcDbEntity
  8
0
 62
     9
100
AcDbPolyline
 90
        2
 70
     0
 39
0.003
 10
0.172724
 20
0.341283
 40
0.003
 41
0.003
 10
0.210764
 20
0.355315
 40
0.003
 41
0.003
  0
LWPOLYLINE
  5
228
100
AcDbEntity
  8
0
 62
     9
100
AcDbPolyline
 90
        2
 70
     0
 39
0.003
 10
0.210764
 20
0.355315
 40
0.003
 41
0.003
 10
-0.43676
 20
0.738276
 40
0.003
 41
0.003
  0
LWPOLYLINE
  5
229
100
AcDbEntity
  8
0
 62
     9
100
AcDbPolyline
 90
        2
 70
     0
 39
0.003
 10
-0.43676
 20
0.738276
 40
0.003
 41
0.003
 10
-0.474799
 20
0.724244
 40
0.003
 41
0.003
  0
LWPOLYLINE
  5
22A
100
AcDbEntity
  8
0
 62
     9
100
AcDbPolyline
 90
        2
 70
     0
 39
0.003
 10
-0.43676
 20
0.738276
 40
0.003
 41
0.003
 10
0.210764
 20
0.355315
 40
0.003
 41
0.003
  0
LWPOLYLINE
  5
22B
100
AcDbEntity
  8
0
 62
     9
100
AcDbPolyline
 90
        2
 70
     0
 39
0.003
 10
0.210764
 20
0.355315
 40
0.003
 41
0.003
 10
0.246862
 20
0.36963
 40
0.003
 41
0.003
  0
LWPOLYLINE
  5
22C
100
AcDbEntity
  8
0
 62
     9
100
AcDbPolyline
 90
        2
 70
     0
 39
0.003
 10
0.246862
 20
0.36963
 40
0.003
 41
0.003
 10
-0.400661
 20
0.752591
 40
0.003
 41
0.003
  0
LWPOLYLINE
  5
22D
100
AcDbEntity
  8
0
 62
     9
100
AcDbPolyline
 90
        2
 70
     0
 39
0.003
 10
-0.400661
 20
0.752591
 40
0.003
 41
0.003
 10
-0.43676
 20
0.738276
 40
0.003
 41
0.003
  0
LWPOLYLINE
  5
22E
100
AcDbEntity
  8
0
 62
     9
100
AcDbPolyline
 90
        2
 70
     0
 39
0.003
 10
-0.400661
 20
0.752591
 40
0.003
 41
0.003
 10
0.246862
 20
0.36963
 40
0.003
 41
0.003
  0
LWPOLYLINE
  5
22F
100
AcDbEntity
  8
0
 62
     9
100
AcDbPolyline
 90
        2
 70
     0
 39
0.003
 10
0.246862
 20
0.36963
 40
0.003
 41
0.003
 10
0.280764
 20
0.384413
 40
0.003
 41
0.003
  0
LWPOLYLINE
  5
230
100
AcDbEntity
  8
0
 62
     9
100
AcDbPolyline
 90
        2
 70
     0
 39
0.003
 10
0.280764
 20
0.384413
 40
0.003
 41
0.003
 10
-0.36676
 20
0.767374
 40
0.003
 41
0.003
  0
LWPOLYLINE
  5
231
100
AcDbEntity
  8
0
 62
     9
100
AcDbPolyline
 90
        2
 70
     0
 39
0.003
 10
-0.36676
 20
0.767374
 40
0.003
 41
0.003
 10
-0.400661
 20
0.752591
 40
0.003
 41
0.003
  0
LWPOLYLINE
  5
232
100
AcDbEntity
  8
0
 62
     9
100
AcDbPolyline
 90
        2
 70
     0
 39
0.003
 10
-0.36676
 20
0.767374
 40
0.003
 41
0.003
 10
0.280764
 20
0.384413
 40
0.003
 41
0.003
  0
LWPOLYLINE
  5
233
100
AcDbEntity
  8
0
 62
     9
100
AcDbPolyline
 90
        2
 70
     0
 39
0.003
 10
0.280764
 20
0.384413
 40
0.003
 41
0.003
 10
0.312252
 20
0.399866
 40
0.003
 41
0.003
  0
LWPOLYLINE
  5
234
100
AcDbEntity
  8
0
 62
     9
100
AcDbPolyline
 90
        2
 70
     0
 39
0.003
 10
0.312252
 20
0.399866
 40
0.003
 41
0.003
 10
-0.335272
 20
0.782827
 40
0.003
 41
0.003
  0
LWPOLYLINE
  5
235
100
AcDbEntity
  8
0
 62
     9
100
AcDbPolyline
 90
        2
 70
     0
 39
0.003
 10
-0.335272
 20
0.782827
 40
0.003
 41
0.003
 10
-0.36676
 20
0.767374
 40
0.003
 41
0.003
  0
LWPOLYLINE
  5
236
100
AcDbEntity
  8
0
 62
     9
100
AcDbPolyline
 90
        2
 70
     0
 39
0.003
 10
-0.335272
 20
0.782827
 40
0.003
 41
0.003
 10
0.312252
 20
0.399866
 40
0.003
 41
0.003
  0
LWPOLYLINE
  5
237
100
AcDbEntity
  8
0
 62
     9
100
AcDbPolyline
 90
        2
 70
     0
 39
0.003
 10
0.312252
 20
0.399866
 40
0.003
 41
0.003
 10
0.341075
 20
0.416185
 40
0.003
 41
0.003
  0
LWPOLYLINE
  5
238
100
AcDbEntity
  8
0
 62
     9
100
AcDbPolyline
 90
        2
 70
     0
 39
0.003
 10
0.341075
 20
0.416185
 40
0.003
 41
0.003
 10
-0.306449
 20
0.799146
 40
0.003
 41
0.003
  0
LWPOLYLINE
  5
239
100
AcDbEntity
  8
0
 62
     9
100
AcDbPolyline
 90
        2
 70
     0
 39
0.003
 10
-0.306449
 20
0.799146
 40
0.003
 41
0.003
 10
-0.335272
 20
0.782827
 40
0.003
 41
0.003
  0
LWPOLYLINE
  5
23A
100
AcDbEntity
  8
0
 62
     9
100
AcDbPolyline
 90
        2
 70
     0
 39
0.003
 10
-0.306449
 20
0.799146
 40
0.003
 41
0.003
 10
0.341075
 20
0.416185
 40
0.003
 41
0.003
  0
LWPOLYLINE
  5
23B
100
AcDbEntity
  8
0
 62
     9
100
AcDbPolyline
 90
        2
 70
     0
 39
0.003
 10
0.341075
 20
0.416185
 40
0.003
 41
0.003
 10
0.367
 20
0.433567
 40
0.003
 41
0.003
  0
LWPOLYLINE
  5
23C
100
AcDbEntity
  8
0
 62
     9
100
AcDbPolyline
 90
        2
 70
     0
 39
0.003
 10
0.367
 20
0.433567
 40
0.003
 41
0.003
 10
-0.280524
 20
0.816528
 40
0.003
 41
0.003
  0
LWPOLYLINE
  5
23D
100
AcDbEntity
  8
0
 62
     9
100
AcDbPolyline
 90
        2
 70
     0
 39
0.003
 10
-0.280524
 20
0.816528
 40
0.003
 41
0.003
 10
-0.306449
 20
0.799146
 40
0.003
 41
0.003
  0
LWPOLYLINE
  5
23E
100
AcDbEntity
  8
0
 62
   254
100
AcDbPolyline
 90
        2
 70
     0
 39
0.003
 10
-0.280524
 20
0.816528
 40
0.003
 41
0.003
 10
0.367
 20
0.433567
 40
0.003
 41
0.003
  0
LWPOLYLINE
  5
23F
100
AcDbEntity
  8
0
 62
   254
100
AcDbPolyline
 90
        2
 70
     0
 39
0.003
 10
0.367
 20
0.433567
 40
0.003
 41
0.003
 10
0.391083
 20
0.451846
 40
0.003
 41
0.003
  0
LWPOLYLINE
  5
240
100
AcDbEntity
  8
0
 62
   254
100
AcDbPolyline
 90
        2
 70
     0
 39
0.003
 10
0.391083
 20
0.451846
 40
0.003
 41
0.003
 10
-0.256441
 20
0.834807
 40
0.003
 41
0.003
  0
LWPOLYLINE
  5
241
100
AcDbEntity
  8
0
 62
   254
100
AcDbPolyline
 90
        2
 70
     0
 39
0.003
 10
-0.256441
 20
0.834807
 40
0.003
 41
0.003
 10
-0.280524
 20
0.816528
 40
0.003
 41
0.003
  0
LWPOLYLINE
  5
242
100
AcDbEntity
  8
0
 62
   254
100
AcDbPolyline
 90
        2
 70
     0
 39
0.003
 10
-0.256441
 20
0.834807
 40
0.003
 41
0.003
 10
0.391083
 20
0.451846
 40
0.003
 41
0.003
  0
LWPOLYLINE
  5
243
100
AcDbEntity
  8
0
 62
   254
100
AcDbPolyline
 90
        2
 70
     0
 39
0.003
 10
0.391083
 20
0.451846
 40
0.003
 41
0.003
 10
0.414559
 20
0.470748
 40
0.003
 41
0.003
  0
LWPOLYLINE
  5
244
100
AcDbEntity
  8
0
 62
   254
100
AcDbPolyline
 90
        2
 70
     0
 39
0.003
 10
0.414559
 20
0.470748
 40
0.003
 41
0.003
 10
-0.232965
 20
0.853709
 40
0.003
 41
0.003
  0
LWPOLYLINE
  5
245
100
AcDbEntity
  8
0
 62
   254
100
AcDbPolyline
 90
        2
 70
     0
 39
0.003
 10
-0.232965
 20
0.853709
 40
0.003
 41
0.003
 10
-0.256441
 20
0.834807
 40
0.003
 41
0.003
  0
LWPOLYLINE
  5
246
100
AcDbEntity
  8
0
 62
   254
100
AcDbPolyline
 90
        2
 70
     0
 39
0.003
 10
-0.232965
 20
0.853709
 40
0.003
 41
0.003
 10
0.414559
 20
0.470748
 40
0.003
 41
0.003
  0
LWPOLYLINE
  5
247
100
AcDbEntity
  8
0
 62
   254
100
AcDbPolyline
 90
        2
 70
     0
 39
0.003
 10
0.414559
 20
0.470748
 40
0.003
 41
0.003
 10
0.437386
 20
0.490236
 40
0.003
 41
0.003
  0
LWPOLYLINE
  5
248
100
AcDbEntity
  8
0
 62
   254
100
AcDbPolyline
 90
        2
 70
     0
 39
0.003
 10
0.437386
 20
0.490236
 40
0.003
 41
0.003
 10
-0.210138
 20
0.873197
 40
0.003
 41
0.003
  0
LWPOLYLINE
  5
249
100
AcDbEntity
  8
0
 62
   254
100
AcDbPolyline
 90
        2
 70
     0
 39
0.003
 10
-0.210138
 20
0.873197
 40
0.003
 41
0.003
 10
-0.232965
 20
0.853709
 40
0.003
 41
0.003
  0
LWPOLYLINE
  5
24A
100
AcDbEntity
  8
0
 62
   254
100
AcDbPolyline
 90
        2
 70
     0
 39
0.003
 10
-0.210138
 20
0.873197
 40
0.003
 41
0.003
 10
0.437386
 20
0.490236
 40
0.003
 41
0.003
  0
LWPOLYLINE
  5
24B
100
AcDbEntity
  8
0
 62
   254
100
AcDbPolyline
 90
        2
 70
     0
 39
0.003
 10
0.437386
 20
0.490236
 40
0.003
 41
0.003
 10
0.459563
 20
0.510303
 40
0.003
 41
0.003
  0
LWPOLYLINE
  5
24C
100
AcDbEntity
  8
0
 62
   254
100
AcDbPolyline
 90
        2
 70
     0
 39
0.003
 10
0.459563
 20
0.510303
 40
0.003
 41
0.003
 10
-0.187961
 20
0.893264
 40
0.003
 41
0.003
  0
LWPOLYLINE
  5
24D
100
AcDbEntity
  8
0
 62
   254
100
AcDbPolyline
 90
        2
 70
     0
 39
0.003
 10
-0.187961
 20
0.893264
 40
0.003
 41
0.003
 10
-0.210138
 20
0.873197
 40
0.003
 41
0.003
  0
LWPOLYLINE
  5
24E
100
AcDbEntity
  8
0
 62
   254
100
AcDbPolyline
 90
        2
 70
     0
 39
0.003
 10
-0.187961
 20
0.893264
 40
0.003
 41
0.003
 10
0.459563
 20
0.510303
 40
0.003
 41
0.003
  0
LWPOLYLINE
  5
24F
100
AcDbEntity
  8
0
 62
   254
100
AcDbPolyline
 90
        2
 70
     0
 39
0.003
 10
0.459563
 20
0.510303
 40
0.003
 41
0.003
 10
0.481051
 20
0.530913
 40
0.003
 41
0.003
  0
LWPOLYLINE
  5
250
100
AcDbEntity
  8
0
 62
   254
100
AcDbPolyline
 90
        2
 70
     0
 39
0.003
 10
0.481051
 20
0.530913
 40
0.003
 41
0.003
 10
-0.166472
 20
0.913874
 40
0.003
 41
0.003
  0
LWPOLYLINE
  5
251
100
AcDbEntity
  8
0
 62
   254
100
AcDbPolyline
 90
        2
 70
     0
 39
0.003
 10
-0.166472
 20
0.913874
 40
0.003
 41
0.003
 10
-0.187961
 20
0.893264
 40
0.003
 41
0.003
  0
LWPOLYLINE
  5
252
100
AcDbEntity
  8
0
 62
   254
100
AcDbPolyline
 90
        2
 70
     0
 39
0.003
 10
-0.166472
 20
0.913874
 40
0.003
 41
0.003
 10
0.481051
 20
0.530913
 40
0.003
 41
0.003
  0
LWPOLYLINE
  5
253
100
AcDbEntity
  8
0
 62
   254
100
AcDbPolyline
 90
        2
 70
     0
 39
0.003
 10
0.481051
 20
0.530913
 40
0.003
 41
0.003
 10
0.501839
 20
0.552063
 40
0.003
 41
0.003
  0
LWPOLYLINE
  5
254
100
AcDbEntity
  8
0
 62
   254
100
AcDbPolyline
 90
        2
 70
     0
 39
0.003
 10
0.501839
 20
0.552063
 40
0.003
 41
0.003
 10
-0.145685
 20
0.935024
 40
0.003
 41
0.003
  0
LWPOLYLINE
  5
255
100
AcDbEntity
  8
0
 62
   254
100
AcDbPolyline
 90
        2
 70
     0
 39
0.003
 10
-0.145685
 20
0.935024
 40
0.003
 41
0.003
 10
-0.166472
 20
0.913874
 40
0.003
 41
0.003
  0
LWPOLYLINE
  5
256
100
AcDbEntity
  8
0
 62
   254
100
AcDbPolyline
 90
        2
 70
     0
 39
0.003
 10
-0.145685
 20
0.935024
 40
0.003
 41
0.003
 10
0.501839
 20
0.552063
 40
0.003
 41
0.003
  0
LWPOLYLINE
  5
257
100
AcDbEntity
  8
0
 62
   254
100
AcDbPolyline
 90
        2
 70
     0
 39
0.003
 10
0.501839
 20
0.552063
 40
0.003
 41
0.003
 10
0.521898
 20
0.57372
 40
0.003
 41
0.003
  0
LWPOLYLINE
  5
258
100
AcDbEntity
  8
0
 62
   254
100
AcDbPolyline
 90
        2
 70
     0
 39
0.003
 10
0.521898
 20
0.57372
 40
0.003
 41
0.003
 10
-0.125626
 20
0.956681
 40
0.003
 41
0.003
  0
LWPOLYLINE
  5
259
100
AcDbEntity
  8
0
 62
   254
100
AcDbPolyline
 90
        2
 70
     0
 39
0.003
 10
-0.125626
 20
0.956681
 40
0.003
 41
0.003
 10
-0.145685
 20
0.935024
 40
0.003
 41
0.003
  0
LWPOLYLINE
  5
25A
100
AcDbEntity
  8
0
 62
   254
100
AcDbPolyline
 90
        2
 70
     0
 39
0.003
 10
-0.125626
 20
0.956681
 40
0.003
 41
0.003
 10
0.521898
 20
0.57372
 40
0.003
 41
0.003
  0
LWPOLYLINE
  5
25B
100
AcDbEntity
  8
0
 62
   254
100
AcDbPolyline
 90
        2
 70
     0
 39
0.003
 10
0.521898
 20
0.57372
 40
0.003
 41
0.003
 10
0.54122
 20
0.595878
 40
0.003
 41
0.003
  0
LWPOLYLINE
  5
25C
100
AcDbEntity
  8
0
 62
   254
100
AcDbPolyline
 90
        2
 70
     0
 39
0.003
 10
0.54122
 20
0.595878
 40
0.003
 41
0.003
 10
-0.106303
 20
0.978839
 40
0.003
 41
0.003
  0
LWPOLYLINE
  5
25D
100
AcDbEntity
  8
0
 62
   254
100
AcDbPolyline
 90
        2
 70
     0
 39
0.003
 10
-0.106303
 20
0.978839
 40
0.003
 41
0.003
 10
-0.125626
 20
0.956681
 40
0.003
 41
0.003
  0
LWPOLYLINE
  5
25E
100
AcDbEntity
  8
0
 62
   254
100
AcDbPolyline
 90
        2
 70
     0
 39
0.003
 10
-0.106303
 20
0.978839
 40
0.003
 41
0.003
 10
0.54122
 20
0.595878
 40
0.003
 41
0.003
  0
LWPOLYLINE
  5
25F
100
AcDbEntity
  8
0
 62
   254
100
AcDbPolyline
 90
        2
 70
     0
 39
0.003
 10
0.54122
 20
0.595878
 40
0.003
 41
0.003
 10
0.559768
 20
0.618504
 40
0.003
 41
0.003
  0
LWPOLYLINE
  5
260
100
AcDbEntity
  8
0
 62
   254
100
AcDbPolyline
 90
        2
 70
     0
 39
0.003
 10
0.559768
 20
0.618504
 40
0.003
 41
0.003
 10
-0.087756
 20
1.001465
 40
0.003
 41
0.003
  0
LWPOLYLINE
  5
261
100
AcDbEntity
  8
0
 62
   254
100
AcDbPolyline
 90
        2
 70
     0
 39
0.003
 10
-0.087756
 20
1.001465
 40
0.003
 41
0.003
 10
-0.106303
 20
0.978839
 40
0.003
 41
0.003
  0
LWPOLYLINE
  5
262
100
AcDbEntity
  8
0
 62
   254
100
AcDbPolyline
 90
        2
 70
     0
 39
0.003
 10
-0.087756
 20
1.001465
 40
0.003
 41
0.003
 10
0.559768
 20
0.618504
 40
0.003
 41
0.003
  0
LWPOLYLINE
  5
263
100
AcDbEntity
  8
0
 62
   254
100
AcDbPolyline
 90
        2
 70
     0
 39
0.003
 10
0.559768
 20
0.618504
 40
0.003
 41
0.003
 10
0.577535
 20
0.641583
 40
0.003
 41
0.003
  0
LWPOLYLINE
  5
264
100
AcDbEntity
  8
0
 62
   254
100
AcDbPolyline
 90
        2
 70
     0
 39
0.003
 10
0.577535
 20
0.641583
 40
0.003
 41
0.003
 10
-0.069988
 20
1.024543
 40
0.003
 41
0.003
  0
LWPOLYLINE
  5
265
100
AcDbEntity
  8
0
 62
   254
100
AcDbPolyline
 90
        2
 70
     0
 39
0.003
 10
-0.069988
 20
1.024543
 40
0.003
 41
0.003
 10
-0.087756
 20
1.001465
 40
0.003
 41
0.003
  0
LWPOLYLINE
  5
266
100
AcDbEntity
  8
0
 62
   254
100
AcDbPolyline
 90
        2
 70
     0
 39
0.003
 10
-0.069988
 20
1.024543
 40
0.003
 41
0.003
 10
0.577535
 20
0.641583
 40
0.003
 41
0.003
  0
LWPOLYLINE
  5
267
100
AcDbEntity
  8
0
 62
   254
100
AcDbPolyline
 90
        2
 70
     0
 39
0.003
 10
0.577535
 20
0.641583
 40
0.003
 41
0.003
 10
0.594492
 20
0.665091
 40
0.003
 41
0.003
  0
LWPOLYLINE
  5
268
100
AcDbEntity
  8
0
 62
   254
100
AcDbPolyline
 90
        2
 70
     0
 39
0.003
 10
0.594492
 20
0.665091
 40
0.003
 41
0.003
 10
-0.053031
 20
1.048051
 40
0.003
 41
0.003
  0
LWPOLYLINE
  5
269
100
AcDbEntity
  8
0
 62
   254
100
AcDbPolyline
 90
        2
 70
     0
 39
0.003
 10
-0.053031
 20
1.048051
 40
0.003
 41
0.003
 10
-0.069988
 20
1.024543
 40
0.003
 41
0.003
  0
LWPOLYLINE
  5
26A
100
AcDbEntity
  8
0
 62
   254
100
AcDbPolyline
 90
        2
 70
     0
 39
0.003
 10
-0.053031
 20
1.048051
 40
0.003
 41
0.003
 10
0.594492
 20
0.665091
 40
0.003
 41
0.003
  0
LWPOLYLINE
  5
26B
100
AcDbEntity
  8
0
 62
   254
100
AcDbPolyline
 90
        2
 70
     0
 39
0.003
 10
0.594492
 20
0.665091
 40
0.003
 41
0.003
 10
0.610622
 20
0.68902
 40
0.003
 41
0.003
  0
LWPOLYLINE
  5
26C
100
AcDbEntity
  8
0
 62
   254
100
AcDbPolyline
 90
        2
 70
     0
 39
0.003
 10
0.610622
 20
0.68902
 40
0.003
 41
0.003
 10
-0.036902
 20
1.07198
 40
0.003
 41
0.003
  0
LWPOLYLINE
  5
26D
100
AcDbEntity
  8
0
 62
   254
100
AcDbPolyline
 90
        2
 70
     0
 39
0.003
 10
-0.036902
 20
1.07198
 40
0.003
 41
0.003
 10
-0.053031
 20
1.048051
 40
0.003
 41
0.003
  0
LWPOLYLINE
  5
26E
100
AcDbEntity
  8
0
 62
   254
100
AcDbPolyline
 90
        2
 70
     0
 39
0.003
 10
-0.036902
 20
1.07198
 40
0.003
 41
0.003
 10
0.610622
 20
0.68902
 40
0.003
 41
0.003
  0
LWPOLYLINE
  5
26F
100
AcDbEntity
  8
0
 62
   254
100
AcDbPolyline
 90
        2
 70
     0
 39
0.003
 10
0.610622
 20
0.68902
 40
0.003
 41
0.003
 10
0.625902
 20
0.713331
 40
0.003
 41
0.003
  0
LWPOLYLINE
  5
270
100
AcDbEntity
  8
0
 62
   254
100
AcDbPolyline
 90
        2
 70
     0
 39
0.003
 10
0.625902
 20
0.713331
 40
0.003
 41
0.003
 10
-0.021622
 20
1.096291
 40
0.003
 41
0.003
  0
LWPOLYLINE
  5
271
100
AcDbEntity
  8
0
 62
   254
100
AcDbPolyline
 90
        2
 70
     0
 39
0.003
 10
-0.021622
 20
1.096291
 40
0.003
 41
0.003
 10
-0.036902
 20
1.07198
 40
0.003
 41
0.003
  0
LWPOLYLINE
  5
272
100
AcDbEntity
  8
0
 62
   254
100
AcDbPolyline
 90
        2
 70
     0
 39
0.003
 10
-0.021622
 20
1.096291
 40
0.003
 41
0.003
 10
0.625902
 20
0.713331
 40
0.003
 41
0.003
  0
LWPOLYLINE
  5
273
100
AcDbEntity
  8
0
 62
   254
100
AcDbPolyline
 90
        2
 70
     0
 39
0.003
 10
0.625902
 20
0.713331
 40
0.003
 41
0.003
 10
0.640311
 20
0.738024
 40
0.003
 41
0.003
  0
LWPOLYLINE
  5
274
100
AcDbEntity
  8
0
 62
   254
100
AcDbPolyline
 90
        2
 70
     0
 39
0.003
 10
0.640311
 20
0.738024
 40
0.003
 41
0.003
 10
-0.007213
 20
1.120984
 40
0.003
 41
0.003
  0
LWPOLYLINE
  5
275
100
AcDbEntity
  8
0
 62
   254
100
AcDbPolyline
 90
        2
 70
     0
 39
0.003
 10
-0.007213
 20
1.120984
 40
0.003
 41
0.003
 10
-0.021622
 20
1.096291
 40
0.003
 41
0.003
  0
LWPOLYLINE
  5
276
100
AcDbEntity
  8
0
 62
   254
100
AcDbPolyline
 90
        2
 70
     0
 39
0.003
 10
-0.007213
 20
1.120984
 40
0.003
 41
0.003
 10
0.640311
 20
0.738024
 40
0.003
 41
0.003
  0
LWPOLYLINE
  5
277
100
AcDbEntity
  8
0
 62
   254
100
AcDbPolyline
 90
        2
 70
     0
 39
0.003
 10
0.640311
 20
0.738024
 40
0.003
 41
0.003
 10
0.653827
 20
0.763071
 40
0.003
 41
0.003
  0
LWPOLYLINE
  5
278
100
AcDbEntity
  8
0
 62
   254
100
AcDbPolyline
 90
        2
 70
     0
 39
0.003
 10
0.653827
 20
0.763071
 40
0.003
 41
0.003
 10
0.006303
 20
1.146031
 40
0.003
 41
0.003
  0
LWPOLYLINE
  5
279
100
AcDbEntity
  8
0
 62
   254
100
AcDbPolyline
 90
        2
 70
     0
 39
0.003
 10
0.006303
 20
1.146031
 40
0.003
 41
0.003
 10
-0.007213
 20
1.120984
 40
0.003
 41
0.003
  0
LWPOLYLINE
  5
27A
100
AcDbEntity
  8
0
 62
   254
100
AcDbPolyline
 90
        2
 70
     0
 39
0.003
 10
0.006303
 20
1.146031
 40
0.003
 41
0.003
 10
0.653827
 20
0.763071
 40
0.003
 41
0.003
  0
LWPOLYLINE
  5
27B
100
AcDbEntity
  8
0
 62
   254
100
AcDbPolyline
 90
        2
 70
     0
 39
0.003
 10
0.653827
 20
0.763071
 40
0.003
 41
0.003
 10
0.666441
 20
0.788453
 40
0.003
 41
0.003
  0
LWPOLYLINE
  5
27C
100
AcDbEntity
  8
0
 62
   254
100
AcDbPolyline
 90
        2
 70
     0
 39
0.003
 10
0.666441
 20
0.788453
 40
0.003
 41
0.003
 10
0.018917
 20
1.171413
 40
0.003
 41
0.003
  0
LWPOLYLINE
  5
27D
100
AcDbEntity
  8
0
 62
   254
100
AcDbPolyline
 90
        2
 70
     0
 39
0.003
 10
0.018917
 20
1.171413
 40
0.003
 41
0.003
 10
0.006303
 20
1.146031
 40
0.003
 41
0.003
  0
LWPOLYLINE
  5
27E
100
AcDbEntity
  8
0
 62
   254
100
AcDbPolyline
 90
        2
 70
     0
 39
0.003
 10
0.018917
 20
1.171413
 40
0.003
 41
0.003
 10
0.666441
 20
0.788453
 40
0.003
 41
0.003
  0
LWPOLYLINE
  5
27F
100
AcDbEntity
  8
0
 62
   254
100
AcDbPolyline
 90
        2
 70
     0
 39
0.003
 10
0.666441
 20
0.788453
 40
0.003
 41
0.003
 10
0.67811
 20
0.814138
 40
0.003
 41
0.003
  0
LWPOLYLINE
  5
280
100
AcDbEntity
  8
0
 62
   254
100
AcDbPolyline
 90
        2
 70
     0
 39
0.003
 10
0.67811
 20
0.814138
 40
0.003
 41
0.003
 10
0.030587
 20
1.197098
 40
0.003
 41
0.003
  0
LWPOLYLINE
  5
281
100
AcDbEntity
  8
0
 62
   254
100
AcDbPolyline
 90
        2
 70
     0
 39
0.003
 10
0.030587
 20
1.197098
 40
0.003
 41
0.003
 10
0.018917
 20
1.171413
 40
0.003
 41
0.003
  0
LWPOLYLINE
  5
282
100
AcDbEntity
  8
0
 62
   254
100
AcDbPolyline
 90
        2
 70
     0
 39
0.003
 10
0.030587
 20
1.197098
 40
0.003
 41
0.003
 10
0.67811
 20
0.814138
 40
0.003
 41
0.003
  0
LWPOLYLINE
  5
283
100
AcDbEntity
  8
0
 62
   254
100
AcDbPolyline
 90
        2
 70
     0
 39
0.003
 10
0.67811
 20
0.814138
 40
0.003
 41
0.003
 10
0.688831
 20
0.840126
 40
0.003
 41
0.003
  0
LWPOLYLINE
  5
284
100
AcDbEntity
  8
0
 62
   254
100
AcDbPolyline
 90
        2
 70
     0
 39
0.003
 10
0.688831
 20
0.840126
 40
0.003
 41
0.003
 10
0.041307
 20
1.223087
 40
0.003
 41
0.003
  0
LWPOLYLINE
  5
285
100
AcDbEntity
  8
0
 62
   254
100
AcDbPolyline
 90
        2
 70
     0
 39
0.003
 10
0.041307
 20
1.223087
 40
0.003
 41
0.003
 10
0.030587
 20
1.197098
 40
0.003
 41
0.003
  0
LWPOLYLINE
  5
286
100
AcDbEntity
  8
0
 62
   254
100
AcDbPolyline
 90
        2
 70
     0
 39
0.003
 10
0.041307
 20
1.223087
 40
0.003
 41
0.003
 10
0.688831
 20
0.840126
 40
0.003
 41
0.003
  0
LWPOLYLINE
  5
287
100
AcDbEntity
  8
0
 62
   254
100
AcDbPolyline
 90
        2
 70
     0
 39
0.003
 10
0.688831
 20
0.840126
 40
0.003
 41
0.003
 10
0.698571
 20
0.866382
 40
0.003
 41
0.003
  0
LWPOLYLINE
  5
288
100
AcDbEntity
  8
0
 62
   254
100
AcDbPolyline
 90
        2
 70
     0
 39
0.003
 10
0.698571
 20
0.866382
 40
0.003
 41
0.003
 10
0.051047
 20
1.249343
 40
0.003
 41
0.003
  0
LWPOLYLINE
  5
289
100
AcDbEntity
  8
0
 62
   254
100
AcDbPolyline
 90
        2
 70
     0
 39
0.003
 10
0.051047
 20
1.249343
 40
0.003
 41
0.003
 10
0.041307
 20
1.223087
 40
0.003
 41
0.003
  0
LWPOLYLINE
  5
28A
100
AcDbEntity
  8
0
 62
   254
100
AcDbPolyline
 90
        2
 70
     0
 39
0.003
 10
0.051047
 20
1.249343
 40
0.003
 41
0.003
 10
0.698571
 20
0.866382
 40
0.003
 41
0.003
  0
LWPOLYLINE
  5
28B
100
AcDbEntity
  8
0
 62
   254
100
AcDbPolyline
 90
        2
 70
     0
 39
0.003
 10
0.698571
 20
0.866382
 40
0.003
 41
0.003
 10
0.707323
 20
0.892902
 40
0.003
 41
0.003
  0
LWPOLYLINE
  5
28C
100
AcDbEntity
  8
0
 62
   254
100
AcDbPolyline
 90
        2
 70
     0
 39
0.003
 10
0.707323
 20
0.892902
 40
0.003
 41
0.003
 10
0.059799
 20
1.275862
 40
0.003
 41
0.003
  0
LWPOLYLINE
  5
28D
100
AcDbEntity
  8
0
 62
   254
100
AcDbPolyline
 90
        2
 70
     0
 39
0.003
 10
0.059799
 20
1.275862
 40
0.003
 41
0.003
 10
0.051047
 20
1.249343
 40
0.003
 41
0.003
  0
LWPOLYLINE
  5
28E
100
AcDbEntity
  8
0
 62
   254
100
AcDbPolyline
 90
        2
 70
     0
 39
0.003
 10
0.059799
 20
1.275862
 40
0.003
 41
0.003
 10
0.707323
 20
0.892902
 40
0.003
 41
0.003
  0
LWPOLYLINE
  5
28F
100
AcDbEntity
  8
0
 62
   254
100
AcDbPolyline
 90
        2
 70
     0
 39
0.003
 10
0.707323
 20
0.892902
 40
0.003
 41
0.003
 10
0.715055
 20
0.91965
 40
0.003
 41
0.003
  0
LWPOLYLINE
  5
290
100
AcDbEntity
  8
0
 62
   254
100
AcDbPolyline
 90
        2
 70
     0
 39
0.003
 10
0.715055
 20
0.91965
 40
0.003
 41
0.003
 10
0.067531
 20
1.30261
 40
0.003
 41
0.003
  0
LWPOLYLINE
  5
291
100
AcDbEntity
  8
0
 62
   254
100
AcDbPolyline
 90
        2
 70
     0
 39
0.003
 10
0.067531
 20
1.30261
 40
0.003
 41
0.003
 10
0.059799
 20
1.275862
 40
0.003
 41
0.003
  0
LWPOLYLINE
  5
292
100
AcDbEntity
  8
0
 62
   254
100
AcDbPolyline
 90
        2
 70
     0
 39
0.003
 10
0.067531
 20
1.30261
 40
0.003
 41
0.003
 10
0.715055
 20
0.91965
 40
0.003
 41
0.003
  0
LWPOLYLINE
  5
293
100
AcDbEntity
  8
0
 62
   254
100
AcDbPolyline
 90
        2
 70
     0
 39
0.003
 10
0.715055
 20
0.91965
 40
0.003
 41
0.003
 10
0.721748
 20
0.946614
 40
0.003
 41
0.003
  0
LWPOLYLINE
  5
294
100
AcDbEntity
  8
0
 62
   254
100
AcDbPolyline
 90
        2
 70
     0
 39
0.003
 10
0.721748
 20
0.946614
 40
0.003
 41
0.003
 10
0.074224
 20
1.329575
 40
0.003
 41
0.003
  0
LWPOLYLINE
  5
295
100
AcDbEntity
  8
0
 62
   254
100
AcDbPolyline
 90
        2
 70
     0
 39
0.003
 10
0.074224
 20
1.329575
 40
0.003
 41
0.003
 10
0.067531
 20
1.30261
 40
0.003
 41
0.003
  0
LWPOLYLINE
  5
296
100
AcDbEntity
  8
0
 62
   254
100
AcDbPolyline
 90
        2
 70
     0
 39
0.003
 10
0.074224
 20
1.329575
 40
0.003
 41
0.003
 10
0.721748
 20
0.946614
 40
0.003
 41
0.003
  0
LWPOLYLINE
  5
297
100
AcDbEntity
  8
0
 62
   254
100
AcDbPolyline
 90
        2
 70
     0
 39
0.003
 10
0.721748
 20
0.946614
 40
0.003
 41
0.003
 10
0.727386
 20
0.973772
 40
0.003
 41
0.003
  0
LWPOLYLINE
  5
298
100
AcDbEntity
  8
0
 62
   254
100
AcDbPolyline
 90
        2
 70
     0
 39
0.003
 10
0.727386
 20
0.973772
 40
0.003
 41
0.003
 10
0.079862
 20
1.356732
 40
0.003
 41
0.003
  0
LWPOLYLINE
  5
299
100
AcDbEntity
  8
0
 62
   254
100
AcDbPolyline
 90
        2
 70
     0
 39
0.003
 10
0.079862
 20
1.356732
 40
0.003
 41
0.003
 10
0.074224
 20
1.329575
 40
0.003
 41
0.003
  0
LWPOLYLINE
  5
29A
100
AcDbEntity
  8
0
 62
   254
100
AcDbPolyline
 90
        2
 70
     0
 39
0.003
 10
0.079862
 20
1.356732
 40
0.003
 41
0.003
 10
0.727386
 20
0.973772
 40
0.003
 41
0.003
  0
LWPOLYLINE
  5
29B
100
AcDbEntity
  8
0
 62
   254
100
AcDbPolyline
 90
        2
 70
     0
 39
0.003
 10
0.727386
 20
0.973772
 40
0.003
 41
0.003
 10
0.731945
 20
1.001106
 40
0.003
 41
0.003
  0
LWPOLYLINE
  5
29C
100
AcDbEntity
  8
0
 62
   254
100
AcDbPolyline
 90
        2
 70
     0
 39
0.003
 10
0.731945
 20
1.001106
 40
0.003
 41
0.003
 10
0.084421
 20
1.384067
 40
0.003
 41
0.003
  0
LWPOLYLINE
  5
29D
100
AcDbEntity
  8
0
 62
   254
100
AcDbPolyline
 90
        2
 70
     0
 39
0.003
 10
0.084421
 20
1.384067
 40
0.003
 41
0.003
 10
0.079862
 20
1.356732
 40
0.003
 41
0.003
  0
LWPOLYLINE
  5
29E
100
AcDbEntity
  8
0
 62
   254
100
AcDbPolyline
 90
        2
 70
     0
 39
0.003
 10
0.084421
 20
1.384067
 40
0.003
 41
0.003
 10
0.731945
 20
1.001106
 40
0.003
 41
0.003
  0
LWPOLYLINE
  5
29F
100
AcDbEntity
  8
0
 62
   254
100
AcDbPolyline
 90
        2
 70
     0
 39
0.003
 10
0.731945
 20
1.001106
 40
0.003
 41
0.003
 10
0.735398
 20
1.028591
 40
0.003
 41
0.003
  0
LWPOLYLINE
  5
2A0
100
AcDbEntity
  8
0
 62
   254
100
AcDbPolyline
 90
        2
 70
     0
 39
0.003
 10
0.735398
 20
1.028591
 40
0.003
 41
0.003
 10
0.087874
 20
1.411551
 40
0.003
 41
0.003
  0
LWPOLYLINE
  5
2A1
100
AcDbEntity
  8
0
 62
   254
100
AcDbPolyline
 90
        2
 70
     0
 39
0.003
 10
0.087874
 20
1.411551
 40
0.003
 41
0.003
 10
0.084421
 20
1.384067
 40
0.003
 41
0.003
  0
LWPOLYLINE
  5
2A2
100
AcDbEntity
  8
0
 62
   254
100
AcDbPolyline
 90
        2
 70
     0
 39
0.003
 10
0.087874
 20
1.411551
 40
0.003
 41
0.003
 10
0.735398
 20
1.028591
 40
0.003
 41
0.003
  0
LWPOLYLINE
  5
2A3
100
AcDbEntity
  8
0
 62
   254
100
AcDbPolyline
 90
        2
 70
     0
 39
0.003
 10
0.735398
 20
1.028591
 40
0.003
 41
0.003
 10
0.737732
 20
1.056213
 40
0.003
 41
0.003
  0
LWPOLYLINE
  5
2A4
100
AcDbEntity
  8
0
 62
   254
100
AcDbPolyline
 90
        2
 70
     0
 39
0.003
 10
0.737732
 20
1.056213
 40
0.003
 41
0.003
 10
0.090209
 20
1.439173
 40
0.003
 41
0.003
  0
LWPOLYLINE
  5
2A5
100
AcDbEntity
  8
0
 62
   254
100
AcDbPolyline
 90
        2
 70
     0
 39
0.003
 10
0.090209
 20
1.439173
 40
0.003
 41
0.003
 10
0.087874
 20
1.411551
 40
0.003
 41
0.003
  0
LWPOLYLINE
  5
2A6
100
AcDbEntity
  8
0
 62
   254
100
AcDbPolyline
 90
        2
 70
     0
 39
0.003
 10
0.090209
 20
1.439173
 40
0.003
 41
0.003
 10
0.737732
 20
1.056213
 40
0.003
 41
0.003
  0
LWPOLYLINE
  5
2A7
100
AcDbEntity
  8
0
 62
   254
100
AcDbPolyline
 90
        2
 70
     0
 39
0.003
 10
0.737732
 20
1.056213
 40
0.003
 41
0.003
 10
0.738925
 20
1.083953
 40
0.003
 41
0.003
  0
LWPOLYLINE
  5
2A8
100
AcDbEntity
  8
0
 62
   254
100
AcDbPolyline
 90
        2
 70
     0
 39
0.003
 10
0.738925
 20
1.083953
 40
0.003
 41
0.003
 10
0.091402
 20
1.466913
 40
0.003
 41
0.003
  0
LWPOLYLINE
  5
2A9
100
AcDbEntity
  8
0
 62
   254
100
AcDbPolyline
 90
        2
 70
     0
 39
0.003
 10
0.091402
 20
1.466913
 40
0.003
 41
0.003
 10
0.090209
 20
1.439173
 40
0.003
 41
0.003
  0
LWPOLYLINE
  5
2AA
100
AcDbEntity
  8
0
 62
   254
100
AcDbPolyline
 90
        2
 70
     0
 39
0.003
 10
0.091402
 20
1.466913
 40
0.003
 41
0.003
 10
0.738925
 20
1.083953
 40
0.003
 41
0.003
  0
LWPOLYLINE
  5
2AB
100
AcDbEntity
  8
0
 62
   254
100
AcDbPolyline
 90
        2
 70
     0
 39
0.003
 10
0.738925
 20
1.083953
 40
0.003
 41
0.003
 10
0.738961
 20
1.111787
 40
0.003
 41
0.003
  0
LWPOLYLINE
  5
2AC
100
AcDbEntity
  8
0
 62
   254
100
AcDbPolyline
 90
        2
 70
     0
 39
0.003
 10
0.738961
 20
1.111787
 40
0.003
 41
0.003
 10
0.091437
 20
1.494748
 40
0.003
 41
0.003
  0
LWPOLYLINE
  5
2AD
100
AcDbEntity
  8
0
 62
   254
100
AcDbPolyline
 90
        2
 70
     0
 39
0.003
 10
0.091437
 20
1.494748
 40
0.003
 41
0.003
 10
0.091402
 20
1.466913
 40
0.003
 41
0.003
  0
LWPOLYLINE
  5
2AE
100
AcDbEntity
  8
0
 62
   254
100
AcDbPolyline
 90
        2
 70
     0
 39
0.003
 10
0.091437
 20
1.494748
 40
0.003
 41
0.003
 10
0.738961
 20
1.111787
 40
0.003
 41
0.003
  0
LWPOLYLINE
  5
2AF
100
AcDbEntity
  8
0
 62
   254
100
AcDbPolyline
 90
        2
 70
     0
 39
0.003
 10
0.738961
 20
1.111787
 40
0.003
 41
0.003
 10
0.737803
 20
1.139693
 40
0.003
 41
0.003
  0
LWPOLYLINE
  5
2B0
100
AcDbEntity
  8
0
 62
   254
100
AcDbPolyline
 90
        2
 70
     0
 39
0.003
 10
0.737803
 20
1.139693
 40
0.003
 41
0.003
 10
0.09028
 20
1.522654
 40
0.003
 41
0.003
  0
LWPOLYLINE
  5
2B1
100
AcDbEntity
  8
0
 62
   254
100
AcDbPolyline
 90
        2
 70
     0
 39
0.003
 10
0.09028
 20
1.522654
 40
0.003
 41
0.003
 10
0.091437
 20
1.494748
 40
0.003
 41
0.003
  0
LWPOLYLINE
  5
2B2
100
AcDbEntity
  8
0
 62
     9
100
AcDbPolyline
 90
        2
 70
     0
 39
0.003
 10
0.09028
 20
1.522654
 40
0.003
 41
0.003
 10
0.737803
 20
1.139693
 40
0.003
 41
0.003
  0
LWPOLYLINE
  5
2B3
100
AcDbEntity
  8
0
 62
     9
100
AcDbPolyline
 90
        2
 70
     0
 39
0.003
 10
0.737803
 20
1.139693
 40
0.003
 41
0.003
 10
0.735449
 20
1.167657
 40
0.003
 41
0.003
  0
LWPOLYLINE
  5
2B4
100
AcDbEntity
  8
0
 62
     9
100
AcDbPolyline
 90
        2
 70
     0
 39
0.003
 10
0.735449
 20
1.167657
 40
0.003
 41
0.003
 10
0.087925
 20
1.550618
 40
0.003
 41
0.003
  0
LWPOLYLINE
  5
2B5
100
AcDbEntity
  8
0
 62
     9
100
AcDbPolyline
 90
        2
 70
     0
 39
0.003
 10
0.087925
 20
1.550618
 40
0.003
 41
0.003
 10
0.09028
 20
1.522654
 40
0.003
 41
0.003
  0
LWPOLYLINE
  5
2B6
100
AcDbEntity
  8
0
 62
     9
100
AcDbPolyline
 90
        2
 70
     0
 39
0.003
 10
0.087925
 20
1.550618
 40
0.003
 41
0.003
 10
0.735449
 20
1.167657
 40
0.003
 41
0.003
  0
LWPOLYLINE
  5
2B7
100
AcDbEntity
  8
0
 62
     9
100
AcDbPolyline
 90
        2
 70
     0
 39
0.003
 10
0.735449
 20
1.167657
 40
0.003
 41
0.003
 10
0.731866
 20
1.195654
 40
0.003
 41
0.003
  0
LWPOLYLINE
  5
2B8
100
AcDbEntity
  8
0
 62
     9
100
AcDbPolyline
 90
        2
 70
     0
 39
0.003
 10
0.731866
 20
1.195654
 40
0.003
 41
0.003
 10
0.084343
 20
1.578614
 40
0.003
 41
0.003
  0
LWPOLYLINE
  5
2B9
100
AcDbEntity
  8
0
 62
     9
100
AcDbPolyline
 90
        2
 70
     0
 39
0.003
 10
0.084343
 20
1.578614
 40
0.003
 41
0.003
 10
0.087925
 20
1.550618
 40
0.003
 41
0.003
  0
LWPOLYLINE
  5
2BA
100
AcDbEntity
  8
0
 62
     9
100
AcDbPolyline
 90
        2
 70
     0
 39
0.003
 10
0.084343
 20
1.578614
 40
0.003
 41
0.003
 10
0.731866
 20
1.195654
 40
0.003
 41
0.003
  0
LWPOLYLINE
  5
2BB
100
AcDbEntity
  8
0
 62
     9
100
AcDbPolyline
 90
        2
 70
     0
 39
0.003
 10
0.731866
 20
1.195654
 40
0.003
 41
0.003
 10
0.727039
 20
1.223673
 40
0.003
 41
0.003
  0
LWPOLYLINE
  5
2BC
100
AcDbEntity
  8
0
 62
     9
100
AcDbPolyline
 90
        2
 70
     0
 39
0.003
 10
0.727039
 20
1.223673
 40
0.003
 41
0.003
 10
0.079516
 20
1.606634
 40
0.003
 41
0.003
  0
LWPOLYLINE
  5
2BD
100
AcDbEntity
  8
0
 62
     9
100
AcDbPolyline
 90
        2
 70
     0
 39
0.003
 10
0.079516
 20
1.606634
 40
0.003
 41
0.003
 10
0.084343
 20
1.578614
 40
0.003
 41
0.003
  0
LWPOLYLINE
  5
2BE
100
AcDbEntity
  8
0
 62
     0
100
AcDbPolyline
 90
        2
 70
     0
 39
0.003
 10
-1.371524
 20
-0.185941
 40
0.003
 41
0.003
 10
-0.724
 20
-0.568902
 40
0.003
 41
0.003
  0
LWPOLYLINE
  5
2BF
100
AcDbEntity
  8
0
 62
     0
100
AcDbPolyline
 90
        2
 70
     0
 39
0.003
 10
-0.724
 20
-0.568902
 40
0.003
 41
0.003
 10
-0.718484
 20
-0.49324
 40
0.003
 41
0.003
  0
LWPOLYLINE
  5
2C0
100
AcDbEntity
  8
0
 62
     0
100
AcDbPolyline
 90
        2
 70
     0
 39
0.003
 10
-0.718484
 20
-0.49324
 40
0.003
 41
0.003
 10
-0.708764
 20
-0.42239
 40
0.003
 41
0.003
  0
LWPOLYLINE
  5
2C1
100
AcDbEntity
  8
0
 62
     0
100
AcDbPolyline
 90
        2
 70
     0
 39
0.003
 10
-0.708764
 20
-0.42239
 40
0.003
 41
0.003
 10
-0.695059
 20
-0.356169
 40
0.003
 41
0.003
  0
LWPOLYLINE
  5
2C2
100
AcDbEntity
  8
0
 62
     0
100
AcDbPolyline
 90
        2
 70
     0
 39
0.003
 10
-0.695059
 20
-0.356169
 40
0.003
 41
0.003
 10
-0.677618
 20
-0.29437
 40
0.003
 41
0.003
  0
LWPOLYLINE
  5
2C3
100
AcDbEntity
  8
0
 62
     0
100
AcDbPolyline
 90
        2
 70
     0
 39
0.003
 10
-0.677618
 20
-0.29437
 40
0.003
 41
0.003
 10
-0.656665
 20
-0.236815
 40
0.003
 41
0.003
  0
LWPOLYLINE
  5
2C4
100
AcDbEntity
  8
0
 62
     0
100
AcDbPolyline
 90
        2
 70
     0
 39
0.003
 10
-0.656665
 20
-0.236815
 40
0.003
 41
0.003
 10
-0.632453
 20
-0.183291
 40
0.003
 41
0.003
  0
LWPOLYLINE
  5
2C5
100
AcDbEntity
  8
0
 62
     0
100
AcDbPolyline
 90
        2
 70
     0
 39
0.003
 10
-0.632453
 20
-0.183291
 40
0.003
 41
0.003
 10
-0.605205
 20
-0.13361
 40
0.003
 41
0.003
  0
LWPOLYLINE
  5
2C6
100
AcDbEntity
  8
0
 62
     0
100
AcDbPolyline
 90
        2
 70
     0
 39
0.003
 10
-0.605205
 20
-0.13361
 40
0.003
 41
0.003
 10
-0.575173
 20
-0.087571
 40
0.003
 41
0.003
  0
LWPOLYLINE
  5
2C7
100
AcDbEntity
  8
0
 62
     0
100
AcDbPolyline
 90
        2
 70
     0
 39
0.003
 10
-0.575173
 20
-0.087571
 40
0.003
 41
0.003
 10
-0.542575
 20
-0.044988
 40
0.003
 41
0.003
  0
LWPOLYLINE
  5
2C8
100
AcDbEntity
  8
0
 62
     0
100
AcDbPolyline
 90
        2
 70
     0
 39
0.003
 10
-0.542575
 20
-0.044988
 40
0.003
 41
0.003
 10
-0.507665
 20
-0.005654
 40
0.003
 41
0.003
  0
LWPOLYLINE
  5
2C9
100
AcDbEntity
  8
0
 62
     0
100
AcDbPolyline
 90
        2
 70
     0
 39
0.003
 10
-0.507665
 20
-0.005654
 40
0.003
 41
0.003
 10
-0.470669
 20
0.030618
 40
0.003
 41
0.003
  0
LWPOLYLINE
  5
2CA
100
AcDbEntity
  8
0
 62
     0
100
AcDbPolyline
 90
        2
 70
     0
 39
0.003
 10
-0.470669
 20
0.030618
 40
0.003
 41
0.003
 10
-0.431839
 20
0.064039
 40
0.003
 41
0.003
  0
LWPOLYLINE
  5
2CB
100
AcDbEntity
  8
0
 62
     0
100
AcDbPolyline
 90
        2
 70
     0
 39
0.003
 10
-0.431839
 20
0.064039
 40
0.003
 41
0.003
 10
-0.39139
 20
0.094787
 40
0.003
 41
0.003
  0
LWPOLYLINE
  5
2CC
100
AcDbEntity
  8
0
 62
     0
100
AcDbPolyline
 90
        2
 70
     0
 39
0.003
 10
-0.39139
 20
0.094787
 40
0.003
 41
0.003
 10
-0.349583
 20
0.123071
 40
0.003
 41
0.003
  0
LWPOLYLINE
  5
2CD
100
AcDbEntity
  8
0
 62
     0
100
AcDbPolyline
 90
        2
 70
     0
 39
0.003
 10
-0.349583
 20
0.123071
 40
0.003
 41
0.003
 10
-0.306634
 20
0.149083
 40
0.003
 41
0.003
  0
LWPOLYLINE
  5
2CE
100
AcDbEntity
  8
0
 62
     0
100
AcDbPolyline
 90
        2
 70
     0
 39
0.003
 10
-0.306634
 20
0.149083
 40
0.003
 41
0.003
 10
-0.262795
 20
0.17302
 40
0.003
 41
0.003
  0
LWPOLYLINE
  5
2CF
100
AcDbEntity
  8
0
 62
     0
100
AcDbPolyline
 90
        2
 70
     0
 39
0.003
 10
-0.262795
 20
0.17302
 40
0.003
 41
0.003
 10
-0.218291
 20
0.195067
 40
0.003
 41
0.003
  0
LWPOLYLINE
  5
2D0
100
AcDbEntity
  8
0
 62
     0
100
AcDbPolyline
 90
        2
 70
     0
 39
0.003
 10
-0.218291
 20
0.195067
 40
0.003
 41
0.003
 10
-0.173366
 20
0.215437
 40
0.003
 41
0.003
  0
LWPOLYLINE
  5
2D1
100
AcDbEntity
  8
0
 62
     0
100
AcDbPolyline
 90
        2
 70
     0
 39
0.003
 10
-0.173366
 20
0.215437
 40
0.003
 41
0.003
 10
-0.12826
 20
0.234315
 40
0.003
 41
0.003
  0
LWPOLYLINE
  5
2D2
100
AcDbEntity
  8
0
 62
     0
100
AcDbPolyline
 90
        2
 70
     0
 39
0.003
 10
-0.12826
 20
0.234315
 40
0.003
 41
0.003
 10
-0.083209
 20
0.251906
 40
0.003
 41
0.003
  0
LWPOLYLINE
  5
2D3
100
AcDbEntity
  8
0
 62
     0
100
AcDbPolyline
 90
        2
 70
     0
 39
0.003
 10
-0.083209
 20
0.251906
 40
0.003
 41
0.003
 10
-0.038441
 20
0.268394
 40
0.003
 41
0.003
  0
LWPOLYLINE
  5
2D4
100
AcDbEntity
  8
0
 62
     0
100
AcDbPolyline
 90
        2
 70
     0
 39
0.003
 10
-0.038441
 20
0.268394
 40
0.003
 41
0.003
 10
0.005795
 20
0.283988
 40
0.003
 41
0.003
  0
LWPOLYLINE
  5
2D5
100
AcDbEntity
  8
0
 62
     0
100
AcDbPolyline
 90
        2
 70
     0
 39
0.003
 10
0.005795
 20
0.283988
 40
0.003
 41
0.003
 10
0.049272
 20
0.298878
 40
0.003
 41
0.003
  0
LWPOLYLINE
  5
2D6
100
AcDbEntity
  8
0
 62
     0
100
AcDbPolyline
 90
        2
 70
     0
 39
0.003
 10
0.049272
 20
0.298878
 40
0.003
 41
0.003
 10
0.091736
 20
0.313264
 40
0.003
 41
0.003
  0
LWPOLYLINE
  5
2D7
100
AcDbEntity
  8
0
 62
     0
100
AcDbPolyline
 90
        2
 70
     0
 39
0.003
 10
0.091736
 20
0.313264
 40
0.003
 41
0.003
 10
0.132972
 20
0.327327
 40
0.003
 41
0.003
  0
LWPOLYLINE
  5
2D8
100
AcDbEntity
  8
0
 62
     0
100
AcDbPolyline
 90
        2
 70
     0
 39
0.003
 10
0.132972
 20
0.327327
 40
0.003
 41
0.003
 10
0.172724
 20
0.341283
 40
0.003
 41
0.003
  0
LWPOLYLINE
  5
2D9
100
AcDbEntity
  8
0
 62
     0
100
AcDbPolyline
 90
        2
 70
     0
 39
0.003
 10
0.172724
 20
0.341283
 40
0.003
 41
0.003
 10
0.210764
 20
0.355315
 40
0.003
 41
0.003
  0
LWPOLYLINE
  5
2DA
100
AcDbEntity
  8
0
 62
     0
100
AcDbPolyline
 90
        2
 70
     0
 39
0.003
 10
0.210764
 20
0.355315
 40
0.003
 41
0.003
 10
0.246862
 20
0.36963
 40
0.003
 41
0.003
  0
LWPOLYLINE
  5
2DB
100
AcDbEntity
  8
0
 62
     0
100
AcDbPolyline
 90
        2
 70
     0
 39
0.003
 10
0.246862
 20
0.36963
 40
0.003
 41
0.003
 10
0.280764
 20
0.384413
 40
0.003
 41
0.003
  0
LWPOLYLINE
  5
2DC
100
AcDbEntity
  8
0
 62
     0
100
AcDbPolyline
 90
        2
 70
     0
 39
0.003
 10
0.280764
 20
0.384413
 40
0.003
 41
0.003
 10
0.312252
 20
0.399866
 40
0.003
 41
0.003
  0
LWPOLYLINE
  5
2DD
100
AcDbEntity
  8
0
 62
     0
100
AcDbPolyline
 90
        2
 70
     0
 39
0.003
 10
0.312252
 20
0.399866
 40
0.003
 41
0.003
 10
0.341075
 20
0.416185
 40
0.003
 41
0.003
  0
LWPOLYLINE
  5
2DE
100
AcDbEntity
  8
0
 62
     0
100
AcDbPolyline
 90
        2
 70
     0
 39
0.003
 10
0.341075
 20
0.416185
 40
0.003
 41
0.003
 10
0.367
 20
0.433567
 40
0.003
 41
0.003
  0
LWPOLYLINE
  5
2DF
100
AcDbEntity
  8
0
 62
     0
100
AcDbPolyline
 90
        2
 70
     0
 39
0.003
 10
0.367
 20
0.433567
 40
0.003
 41
0.003
 10
0.391083
 20
0.451846
 40
0.003
 41
0.003
  0
LWPOLYLINE
  5
2E0
100
AcDbEntity
  8
0
 62
     0
100
AcDbPolyline
 90
        2
 70
     0
 39
0.003
 10
0.391083
 20
0.451846
 40
0.003
 41
0.003
 10
0.414559
 20
0.470748
 40
0.003
 41
0.003
  0
LWPOLYLINE
  5
2E1
100
AcDbEntity
  8
0
 62
     0
100
AcDbPolyline
 90
        2
 70
     0
 39
0.003
 10
0.414559
 20
0.470748
 40
0.003
 41
0.003
 10
0.437386
 20
0.490236
 40
0.003
 41
0.003
  0
LWPOLYLINE
  5
2E2
100
AcDbEntity
  8
0
 62
     0
100
AcDbPolyline
 90
        2
 70
     0
 39
0.003
 10
0.437386
 20
0.490236
 40
0.003
 41
0.003
 10
0.459563
 20
0.510303
 40
0.003
 41
0.003
  0
LWPOLYLINE
  5
2E3
100
AcDbEntity
  8
0
 62
     0
100
AcDbPolyline
 90
        2
 70
     0
 39
0.003
 10
0.459563
 20
0.510303
 40
0.003
 41
0.003
 10
0.481051
 20
0.530913
 40
0.003
 41
0.003
  0
LWPOLYLINE
  5
2E4
100
AcDbEntity
  8
0
 62
     0
100
AcDbPolyline
 90
        2
 70
     0
 39
0.003
 10
0.481051
 20
0.530913
 40
0.003
 41
0.003
 10
0.501839
 20
0.552063
 40
0.003
 41
0.003
  0
LWPOLYLINE
  5
2E5
100
AcDbEntity
  8
0
 62
     0
100
AcDbPolyline
 90
        2
 70
     0
 39
0.003
 10
0.501839
 20
0.552063
 40
0.003
 41
0.003
 10
0.521898
 20
0.57372
 40
0.003
 41
0.003
  0
LWPOLYLINE
  5
2E6
100
AcDbEntity
  8
0
 62
     0
100
AcDbPolyline
 90
        2
 70
     0
 39
0.003
 10
0.521898
 20
0.57372
 40
0.003
 41
0.003
 10
0.54122
 20
0.595878
 40
0.003
 41
0.003
  0
LWPOLYLINE
  5
2E7
100
AcDbEntity
  8
0
 62
     0
100
AcDbPolyline
 90
        2
 70
     0
 39
0.003
 10
0.54122
 20
0.595878
 40
0.003
 41
0.003
 10
0.559768
 20
0.618504
 40
0.003
 41
0.003
  0
LWPOLYLINE
  5
2E8
100
AcDbEntity
  8
0
 62
     0
100
AcDbPolyline
 90
        2
 70
     0
 39
0.003
 10
0.559768
 20
0.618504
 40
0.003
 41
0.003
 10
0.577535
 20
0.641583
 40
0.003
 41
0.003
  0
LWPOLYLINE
  5
2E9
100
AcDbEntity
  8
0
 62
     0
100
AcDbPolyline
 90
        2
 70
     0
 39
0.003
 10
0.577535
 20
0.641583
 40
0.003
 41
0.003
 10
0.594492
 20
0.665091
 40
0.003
 41
0.003
  0
LWPOLYLINE
  5
2EA
100
AcDbEntity
  8
0
 62
     0
100
AcDbPolyline
 90
        2
 70
     0
 39
0.003
 10
0.594492
 20
0.665091
 40
0.003
 41
0.003
 10
0.610622
 20
0.68902
 40
0.003
 41
0.003
  0
LWPOLYLINE
  5
2EB
100
AcDbEntity
  8
0
 62
     0
100
AcDbPolyline
 90
        2
 70
     0
 39
0.003
 10
0.610622
 20
0.68902
 40
0.003
 41
0.003
 10
0.625902
 20
0.713331
 40
0.003
 41
0.003
  0
LWPOLYLINE
  5
2EC
100
AcDbEntity
  8
0
 62
     0
100
AcDbPolyline
 90
        2
 70
     0
 39
0.003
 10
0.625902
 20
0.713331
 40
0.003
 41
0.003
 10
0.640311
 20
0.738024
 40
0.003
 41
0.003
  0
LWPOLYLINE
  5
2ED
100
AcDbEntity
  8
0
 62
     0
100
AcDbPolyline
 90
        2
 70
     0
 39
0.003
 10
0.640311
 20
0.738024
 40
0.003
 41
0.003
 10
0.653827
 20
0.763071
 40
0.003
 41
0.003
  0
LWPOLYLINE
  5
2EE
100
AcDbEntity
  8
0
 62
     0
100
AcDbPolyline
 90
        2
 70
     0
 39
0.003
 10
0.653827
 20
0.763071
 40
0.003
 41
0.003
 10
0.666441
 20
0.788453
 40
0.003
 41
0.003
  0
LWPOLYLINE
  5
2EF
100
AcDbEntity
  8
0
 62
     0
100
AcDbPolyline
 90
        2
 70
     0
 39
0.003
 10
0.666441
 20
0.788453
 40
0.003
 41
0.003
 10
0.67811
 20
0.814138
 40
0.003
 41
0.003
  0
LWPOLYLINE
  5
2F0
100
AcDbEntity
  8
0
 62
     0
100
AcDbPolyline
 90
        2
 70
     0
 39
0.003
 10
0.67811
 20
0.814138
 40
0.003
 41
0.003
 10
0.688831
 20
0.840126
 40
0.003
 41
0.003
  0
LWPOLYLINE
  5
2F1
100
AcDbEntity
  8
0
 62
     0
100
AcDbPolyline
 90
        2
 70
     0
 39
0.003
 10
0.688831
 20
0.840126
 40
0.003
 41
0.003
 10
0.698571
 20
0.866382
 40
0.003
 41
0.003
  0
LWPOLYLINE
  5
2F2
100
AcDbEntity
  8
0
 62
     0
100
AcDbPolyline
 90
        2
 70
     0
 39
0.003
 10
0.698571
 20
0.866382
 40
0.003
 41
0.003
 10
0.707323
 20
0.892902
 40
0.003
 41
0.003
  0
LWPOLYLINE
  5
2F3
100
AcDbEntity
  8
0
 62
     0
100
AcDbPolyline
 90
        2
 70
     0
 39
0.003
 10
0.707323
 20
0.892902
 40
0.003
 41
0.003
 10
0.715055
 20
0.91965
 40
0.003
 41
0.003
  0
LWPOLYLINE
  5
2F4
100
AcDbEntity
  8
0
 62
     0
100
AcDbPolyline
 90
        2
 70
     0
 39
0.003
 10
0.715055
 20
0.91965
 40
0.003
 41
0.003
 10
0.721748
 20
0.946614
 40
0.003
 41
0.003
  0
LWPOLYLINE
  5
2F5
100
AcDbEntity
  8
0
 62
     0
100
AcDbPolyline
 90
        2
 70
     0
 39
0.003
 10
0.721748
 20
0.946614
 40
0.003
 41
0.003
 10
0.727386
 20
0.973772
 40
0.003
 41
0.003
  0
LWPOLYLINE
  5
2F6
100
AcDbEntity
  8
0
 62
     0
100
AcDbPolyline
 90
        2
 70
     0
 39
0.003
 10
0.727386
 20
0.973772
 40
0.003
 41
0.003
 10
0.731945
 20
1.001106
 40
0.003
 41
0.003
  0
LWPOLYLINE
  5
2F7
100
AcDbEntity
  8
0
 62
     0
100
AcDbPolyline
 90
        2
 70
     0
 39
0.003
 10
0.731945
 20
1.001106
 40
0.003
 41
0.003
 10
0.735398
 20
1.028591
 40
0.003
 41
0.003
  0
LWPOLYLINE
  5
2F8
100
AcDbEntity
  8
0
 62
     0
100
AcDbPolyline
 90
        2
 70
     0
 39
0.003
 10
0.735398
 20
1.028591
 40
0.003
 41
0.003
 10
0.737732
 20
1.056213
 40
0.003
 41
0.003
  0
LWPOLYLINE
  5
2F9
100
AcDbEntity
  8
0
 62
     0
100
AcDbPolyline
 90
        2
 70
     0
 39
0.003
 10
0.737732
 20
1.056213
 40
0.003
 41
0.003
 10
0.738925
 20
1.083953
 40
0.003
 41
0.003
  0
LWPOLYLINE
  5
2FA
100
AcDbEntity
  8
0
 62
     0
100
AcDbPolyline
 90
        2
 70
     0
 39
0.003
 10
0.738925
 20
1.083953
 40
0.003
 41
0.003
 10
0.738961
 20
1.111787
 40
0.003
 41
0.003
  0
LWPOLYLINE
  5
2FB
100
AcDbEntity
  8
0
 62
     0
100
AcDbPolyline
 90
        2
 70
     0
 39
0.003
 10
0.738961
 20
1.111787
 40
0.003
 41
0.003
 10
0.737803
 20
1.139693
 40
0.003
 41
0.003
  0
LWPOLYLINE
  5
2FC
100
AcDbEntity
  8
0
 62
     0
100
AcDbPolyline
 90
        2
 70
     0
 39
0.003
 10
0.737803
 20
1.139693
 40
0.003
 41
0.003
 10
0.735449
 20
1.167657
 40
0.003
 41
0.003
  0
LWPOLYLINE
  5
2FD
100
AcDbEntity
  8
0
 62
     0
100
AcDbPolyline
 90
        2
 70
     0
 39
0.003
 10
0.735449
 20
1.167657
 40
0.003
 41
0.003
 10
0.731866
 20
1.195654
 40
0.003
 41
0.003
  0
LWPOLYLINE
  5
2FE
100
AcDbEntity
  8
0
 62
     0
100
AcDbPolyline
 90
        2
 70
     0
 39
0.003
 10
0.731866
 20
1.195654
 40
0.003
 41
0.003
 10
0.727039
 20
1.223673
 40
0.003
 41
0.003
  0
LWPOLYLINE
  5
2FF
100
AcDbEntity
  8
0
 62
     0
100
AcDbPolyline
 90
        2
 70
     0
 39
0.003
 10
0.727039
 20
1.223673
 40
0.003
 41
0.003
 10
0.079516
 20
1.606634
 40
0.003
 41
0.003
  0
LWPOLYLINE
  5
300
100
AcDbEntity
  8
0
 62
     0
100
AcDbPolyline
 90
        2
 70
     0
 39
0.003
 10
0.079516
 20
1.606634
 40
0.003
 41
0.003
 10
0.084343
 20
1.578614
 40
0.003
 41
0.003
  0
LWPOLYLINE
  5
301
100
AcDbEntity
  8
0
 62
     0
100
AcDbPolyline
 90
        2
 70
     0
 39
0.003
 10
0.084343
 20
1.578614
 40
0.003
 41
0.003
 10
0.087925
 20
1.550618
 40
0.003
 41
0.003
  0
LWPOLYLINE
  5
302
100
AcDbEntity
  8
0
 62
     0
100
AcDbPolyline
 90
        2
 70
     0
 39
0.003
 10
0.087925
 20
1.550618
 40
0.003
 41
0.003
 10
0.09028
 20
1.522654
 40
0.003
 41
0.003
  0
LWPOLYLINE
  5
303
100
AcDbEntity
  8
0
 62
     0
100
AcDbPolyline
 90
        2
 70
     0
 39
0.003
 10
0.09028
 20
1.522654
 40
0.003
 41
0.003
 10
0.091437
 20
1.494748
 40
0.003
 41
0.003
  0
LWPOLYLINE
  5
304
100
AcDbEntity
  8
0
 62
     0
100
AcDbPolyline
 90
        2
 70
     0
 39
0.003
 10
0.091437
 20
1.494748
 40
0.003
 41
0.003
 10
0.091402
 20
1.466913
 40
0.003
 41
0.003
  0
LWPOLYLINE
  5
305
100
AcDbEntity
  8
0
 62
     0
100
AcDbPolyline
 90
        2
 70
     0
 39
0.003
 10
0.091402
 20
1.466913
 40
0.003
 41
0.003
 10
0.090209
 20
1.439173
 40
0.003
 41
0.003
  0
LWPOLYLINE
  5
306
100
AcDbEntity
  8
0
 62
     0
100
AcDbPolyline
 90
        2
 70
     0
 39
0.003
 10
0.090209
 20
1.439173
 40
0.003
 41
0.003
 10
0.087874
 20
1.411551
 40
0.003
 41
0.003
  0
LWPOLYLINE
  5
307
100
AcDbEntity
  8
0
 62
     0
100
AcDbPolyline
 90
        2
 70
     0
 39
0.003
 10
0.087874
 20
1.411551
 40
0.003
 41
0.003
 10
0.084421
 20
1.384067
 40
0.003
 41
0.003
  0
LWPOLYLINE
  5
308
100
AcDbEntity
  8
0
 62
     0
100
AcDbPolyline
 90
        2
 70
     0
 39
0.003
 10
0.084421
 20
1.384067
 40
0.003
 41
0.003
 10
0.079862
 20
1.356732
 40
0.003
 41
0.003
  0
LWPOLYLINE
  5
309
100
AcDbEntity
  8
0
 62
     0
100
AcDbPolyline
 90
        2
 70
     0
 39
0.003
 10
0.079862
 20
1.356732
 40
0.003
 41
0.003
 10
0.074224
 20
1.329575
 40
0.003
 41
0.003
  0
LWPOLYLINE
  5
30A
100
AcDbEntity
  8
0
 62
     0
100
AcDbPolyline
 90
        2
 70
     0
 39
0.003
 10
0.074224
 20
1.329575
 40
0.003
 41
0.003
 10
0.067531
 20
1.30261
 40
0.003
 41
0.003
  0
LWPOLYLINE
  5
30B
100
AcDbEntity
  8
0
 62
     0
100
AcDbPolyline
 90
        2
 70
     0
 39
0.003
 10
0.067531
 20
1.30261
 40
0.003
 41
0.003
 10
0.059799
 20
1.275862
 40
0.003
 41
0.003
  0
LWPOLYLINE
  5
30C
100
AcDbEntity
  8
0
 62
     0
100
AcDbPolyline
 90
        2
 70
     0
 39
0.003
 10
0.059799
 20
1.275862
 40
0.003
 41
0.003
 10
0.051047
 20
1.249343
 40
0.003
 41
0.003
  0
LWPOLYLINE
  5
30D
100
AcDbEntity
  8
0
 62
     0
100
AcDbPolyline
 90
        2
 70
     0
 39
0.003
 10
0.051047
 20
1.249343
 40
0.003
 41
0.003
 10
0.041307
 20
1.223087
 40
0.003
 41
0.003
  0
LWPOLYLINE
  5
30E
100
AcDbEntity
  8
0
 62
     0
100
AcDbPolyline
 90
        2
 70
     0
 39
0.003
 10
0.041307
 20
1.223087
 40
0.003
 41
0.003
 10
0.030587
 20
1.197098
 40
0.003
 41
0.003
  0
LWPOLYLINE
  5
30F
100
AcDbEntity
  8
0
 62
     0
100
AcDbPolyline
 90
        2
 70
     0
 39
0.003
 10
0.030587
 20
1.197098
 40
0.003
 41
0.003
 10
0.018917
 20
1.171413
 40
0.003
 41
0.003
  0
LWPOLYLINE
  5
310
100
AcDbEntity
  8
0
 62
     0
100
AcDbPolyline
 90
        2
 70
     0
 39
0.003
 10
0.018917
 20
1.171413
 40
0.003
 41
0.003
 10
0.006303
 20
1.146031
 40
0.003
 41
0.003
  0
LWPOLYLINE
  5
311
100
AcDbEntity
  8
0
 62
     0
100
AcDbPolyline
 90
        2
 70
     0
 39
0.003
 10
0.006303
 20
1.146031
 40
0.003
 41
0.003
 10
-0.007213
 20
1.120984
 40
0.003
 41
0.003
  0
LWPOLYLINE
  5
312
100
AcDbEntity
  8
0
 62
     0
100
AcDbPolyline
 90
        2
 70
     0
 39
0.003
 10
-0.007213
 20
1.120984
 40
0.003
 41
0.003
 10
-0.021622
 20
1.096291
 40
0.003
 41
0.003
  0
LWPOLYLINE
  5
313
100
AcDbEntity
  8
0
 62
     0
100
AcDbPolyline
 90
        2
 70
     0
 39
0.003
 10
-0.021622
 20
1.096291
 40
0.003
 41
0.003
 10
-0.036902
 20
1.07198
 40
0.003
 41
0.003
  0
LWPOLYLINE
  5
314
100
AcDbEntity
  8
0
 62
     0
100
AcDbPolyline
 90
        2
 70
     0
 39
0.003
 10
-0.036902
 20
1.07198
 40
0.003
 41
0.003
 10
-0.053031
 20
1.048051
 40
0.003
 41
0.003
  0
LWPOLYLINE
  5
315
100
AcDbEntity
  8
0
 62
     0
100
AcDbPolyline
 90
        2
 70
     0
 39
0.003
 10
-0.053031
 20
1.048051
 40
0.003
 41
0.003
 10
-0.069988
 20
1.024543
 40
0.003
 41
0.003
  0
LWPOLYLINE
  5
316
100
AcDbEntity
  8
0
 62
     0
100
AcDbPolyline
 90
        2
 70
     0
 39
0.003
 10
-0.069988
 20
1.024543
 40
0.003
 41
0.003
 10
-0.087756
 20
1.001465
 40
0.003
 41
0.003
  0
LWPOLYLINE
  5
317
100
AcDbEntity
  8
0
 62
     0
100
AcDbPolyline
 90
        2
 70
     0
 39
0.003
 10
-0.087756
 20
1.001465
 40
0.003
 41
0.003
 10
-0.106303
 20
0.978839
 40
0.003
 41
0.003
  0
LWPOLYLINE
  5
318
100
AcDbEntity
  8
0
 62
     0
100
AcDbPolyline
 90
        2
 70
     0
 39
0.003
 10
-0.106303
 20
0.978839
 40
0.003
 41
0.003
 10
-0.125626
 20
0.956681
 40
0.003
 41
0.003
  0
LWPOLYLINE
  5
319
100
AcDbEntity
  8
0
 62
     0
100
AcDbPolyline
 90
        2
 70
     0
 39
0.003
 10
-0.125626
 20
0.956681
 40
0.003
 41
0.003
 10
-0.145685
 20
0.935024
 40
0.003
 41
0.003
  0
LWPOLYLINE
  5
31A
100
AcDbEntity
  8
0
 62
     0
100
AcDbPolyline
 90
        2
 70
     0
 39
0.003
 10
-0.145685
 20
0.935024
 40
0.003
 41
0.003
 10
-0.166472
 20
0.913874
 40
0.003
 41
0.003
  0
LWPOLYLINE
  5
31B
100
AcDbEntity
  8
0
 62
     0
100
AcDbPolyline
 90
        2
 70
     0
 39
0.003
 10
-0.166472
 20
0.913874
 40
0.003
 41
0.003
 10
-0.187961
 20
0.893264
 40
0.003
 41
0.003
  0
LWPOLYLINE
  5
31C
100
AcDbEntity
  8
0
 62
     0
100
AcDbPolyline
 90
        2
 70
     0
 39
0.003
 10
-0.187961
 20
0.893264
 40
0.003
 41
0.003
 10
-0.210138
 20
0.873197
 40
0.003
 41
0.003
  0
LWPOLYLINE
  5
31D
100
AcDbEntity
  8
0
 62
     0
100
AcDbPolyline
 90
        2
 70
     0
 39
0.003
 10
-0.210138
 20
0.873197
 40
0.003
 41
0.003
 10
-0.232965
 20
0.853709
 40
0.003
 41
0.003
  0
LWPOLYLINE
  5
31E
100
AcDbEntity
  8
0
 62
     0
100
AcDbPolyline
 90
        2
 70
     0
 39
0.003
 10
-0.232965
 20
0.853709
 40
0.003
 41
0.003
 10
-0.256441
 20
0.834807
 40
0.003
 41
0.003
  0
LWPOLYLINE
  5
31F
100
AcDbEntity
  8
0
 62
     0
100
AcDbPolyline
 90
        2
 70
     0
 39
0.003
 10
-0.256441
 20
0.834807
 40
0.003
 41
0.003
 10
-0.280524
 20
0.816528
 40
0.003
 41
0.003
  0
LWPOLYLINE
  5
320
100
AcDbEntity
  8
0
 62
     0
100
AcDbPolyline
 90
        2
 70
     0
 39
0.003
 10
-0.280524
 20
0.816528
 40
0.003
 41
0.003
 10
-0.306449
 20
0.799146
 40
0.003
 41
0.003
  0
LWPOLYLINE
  5
321
100
AcDbEntity
  8
0
 62
     0
100
AcDbPolyline
 90
        2
 70
     0
 39
0.003
 10
-0.306449
 20
0.799146
 40
0.003
 41
0.003
 10
-0.335272
 20
0.782827
 40
0.003
 41
0.003
  0
LWPOLYLINE
  5
322
100
AcDbEntity
  8
0
 62
     0
100
AcDbPolyline
 90
        2
 70
     0
 39
0.003
 10
-0.335272
 20
0.782827
 40
0.003
 41
0.003
 10
-0.36676
 20
0.767374
 40
0.003
 41
0.003
  0
LWPOLYLINE
  5
323
100
AcDbEntity
  8
0
 62
     0
100
AcDbPolyline
 90
        2
 70
     0
 39
0.003
 10
-0.36676
 20
0.767374
 40
0.003
 41
0.003
 10
-0.400661
 20
0.752591
 40
0.003
 41
0.003
  0
LWPOLYLINE
  5
324
100
AcDbEntity
  8
0
 62
     0
100
AcDbPolyline
 90
        2
 70
     0
 39
0.003
 10
-0.400661
 20
0.752591
 40
0.003
 41
0.003
 10
-0.43676
 20
0.738276
 40
0.003
 41
0.003
  0
LWPOLYLINE
  5
325
100
AcDbEntity
  8
0
 62
     0
100
AcDbPolyline
 90
        2
 70
     0
 39
0.003
 10
-0.43676
 20
0.738276
 40
0.003
 41
0.003
 10
-0.474799
 20
0.724244
 40
0.003
 41
0.003
  0
LWPOLYLINE
  5
326
100
AcDbEntity
  8
0
 62
     0
100
AcDbPolyline
 90
        2
 70
     0
 39
0.003
 10
-0.474799
 20
0.724244
 40
0.003
 41
0.003
 10
-0.514551
 20
0.710287
 40
0.003
 41
0.003
  0
LWPOLYLINE
  5
327
100
AcDbEntity
  8
0
 62
     0
100
AcDbPolyline
 90
        2
 70
     0
 39
0.003
 10
-0.514551
 20
0.710287
 40
0.003
 41
0.003
 10
-0.555787
 20
0.696224
 40
0.003
 41
0.003
  0
LWPOLYLINE
  5
328
100
AcDbEntity
  8
0
 62
     0
100
AcDbPolyline
 90
        2
 70
     0
 39
0.003
 10
-0.555787
 20
0.696224
 40
0.003
 41
0.003
 10
-0.598252
 20
0.681839
 40
0.003
 41
0.003
  0
LWPOLYLINE
  5
329
100
AcDbEntity
  8
0
 62
     0
100
AcDbPolyline
 90
        2
 70
     0
 39
0.003
 10
-0.598252
 20
0.681839
 40
0.003
 41
0.003
 10
-0.641728
 20
0.666949
 40
0.003
 41
0.003
  0
LWPOLYLINE
  5
32A
100
AcDbEntity
  8
0
 62
     0
100
AcDbPolyline
 90
        2
 70
     0
 39
0.003
 10
-0.641728
 20
0.666949
 40
0.003
 41
0.003
 10
-0.685965
 20
0.651354
 40
0.003
 41
0.003
  0
LWPOLYLINE
  5
32B
100
AcDbEntity
  8
0
 62
     0
100
AcDbPolyline
 90
        2
 70
     0
 39
0.003
 10
-0.685965
 20
0.651354
 40
0.003
 41
0.003
 10
-0.730732
 20
0.634866
 40
0.003
 41
0.003
  0
LWPOLYLINE
  5
32C
100
AcDbEntity
  8
0
 62
     0
100
AcDbPolyline
 90
        2
 70
     0
 39
0.003
 10
-0.730732
 20
0.634866
 40
0.003
 41
0.003
 10
-0.775783
 20
0.617276
 40
0.003
 41
0.003
  0
LWPOLYLINE
  5
32D
100
AcDbEntity
  8
0
 62
     0
100
AcDbPolyline
 90
        2
 70
     0
 39
0.003
 10
-0.775783
 20
0.617276
 40
0.003
 41
0.003
 10
-0.82089
 20
0.598398
 40
0.003
 41
0.003
  0
LWPOLYLINE
  5
32E
100
AcDbEntity
  8
0
 62
     0
100
AcDbPolyline
 90
        2
 70
     0
 39
0.003
 10
-0.82089
 20
0.598398
 40
0.003
 41
0.003
 10
-0.865815
 20
0.578028
 40
0.003
 41
0.003
  0
LWPOLYLINE
  5
32F
100
AcDbEntity
  8
0
 62
     0
100
AcDbPolyline
 90
        2
 70
     0
 39
0.003
 10
-0.865815
 20
0.578028
 40
0.003
 41
0.003
 10
-0.910319
 20
0.55598
 40
0.003
 41
0.003
  0
LWPOLYLINE
  5
330
100
AcDbEntity
  8
0
 62
     0
100
AcDbPolyline
 90
        2
 70
     0
 39
0.003
 10
-0.910319
 20
0.55598
 40
0.003
 41
0.003
 10
-0.954157
 20
0.532043
 40
0.003
 41
0.003
  0
LWPOLYLINE
  5
331
100
AcDbEntity
  8
0
 62
     0
100
AcDbPolyline
 90
        2
 70
     0
 39
0.003
 10
-0.954157
 20
0.532043
 40
0.003
 41
0.003
 10
-0.997106
 20
0.506031
 40
0.003
 41
0.003
  0
LWPOLYLINE
  5
332
100
AcDbEntity
  8
0
 62
     0
100
AcDbPolyline
 90
        2
 70
     0
 39
0.003
 10
-0.997106
 20
0.506031
 40
0.003
 41
0.003
 10
-1.038913
 20
0.477748
 40
0.003
 41
0.003
  0
LWPOLYLINE
  5
333
100
AcDbEntity
  8
0
 62
     0
100
AcDbPolyline
 90
        2
 70
     0
 39
0.003
 10
-1.038913
 20
0.477748
 40
0.003
 41
0.003
 10
-1.079362
 20
0.447
 40
0.003
 41
0.003
  0
LWPOLYLINE
  5
334
100
AcDbEntity
  8
0
 62
     0
100
AcDbPolyline
 90
        2
 70
     0
 39
0.003
 10
-1.079362
 20
0.447
 40
0.003
 41
0.003
 10
-1.118193
 20
0.413579
 40
0.003
 41
0.003
  0
LWPOLYLINE
  5
335
100
AcDbEntity
  8
0
 62
     0
100
AcDbPolyline
 90
        2
 70
     0
 39
0.003
 10
-1.118193
 20
0.413579
 40
0.003
 41
0.003
 10
-1.155189
 20
0.377307
 40
0.003
 41
0.003
  0
LWPOLYLINE
  5
336
100
AcDbEntity
  8
0
 62
     0
100
AcDbPolyline
 90
        2
 70
     0
 39
0.003
 10
-1.155189
 20
0.377307
 40
0.003
 41
0.003
 10
-1.190098
 20
0.337972
 40
0.003
 41
0.003
  0
LWPOLYLINE
  5
337
100
AcDbEntity
  8
0
 62
     0
100
AcDbPolyline
 90
        2
 70
     0
 39
0.003
 10
-1.190098
 20
0.337972
 40
0.003
 41
0.003
 10
-1.222697
 20
0.29539
 40
0.003
 41
0.003
  0
LWPOLYLINE
  5
338
100
AcDbEntity
  8
0
 62
     0
100
AcDbPolyline
 90
        2
 70
     0
 39
0.003
 10
-1.222697
 20
0.29539
 40
0.003
 41
0.003
 10
-1.252728
 20
0.24935
 40
0.003
 41
0.003
  0
LWPOLYLINE
  5
339
100
AcDbEntity
  8
0
 62
     0
100
AcDbPolyline
 90
        2
 70
     0
 39
0.003
 10
-1.252728
 20
0.24935
 40
0.003
 41
0.003
 10
-1.279976
 20
0.199669
 40
0.003
 41
0.003
  0
LWPOLYLINE
  5
33A
100
AcDbEntity
  8
0
 62
     0
100
AcDbPolyline
 90
        2
 70
     0
 39
0.003
 10
-1.279976
 20
0.199669
 40
0.003
 41
0.003
 10
-1.304189
 20
0.146146
 40
0.003
 41
0.003
  0
LWPOLYLINE
  5
33B
100
AcDbEntity
  8
0
 62
     0
100
AcDbPolyline
 90
        2
 70
     0
 39
0.003
 10
-1.304189
 20
0.146146
 40
0.003
 41
0.003
 10
-1.325142
 20
0.088591
 40
0.003
 41
0.003
  0
LWPOLYLINE
  5
33C
100
AcDbEntity
  8
0
 62
     0
100
AcDbPolyline
 90
        2
 70
     0
 39
0.003
 10
-1.325142
 20
0.088591
 40
0.003
 41
0.003
 10
-1.342583
 20
0.026791
 40
0.003
 41
0.003
  0
LWPOLYLINE
  5
33D
100
AcDbEntity
  8
0
 62
     0
100
AcDbPolyline
 90
        2
 70
     0
 39
0.003
 10
-1.342583
 20
0.026791
 40
0.003
 41
0.003
 10
-1.356287
 20
-0.039429
 40
0.003
 41
0.003
  0
LWPOLYLINE
  5
33E
100
AcDbEntity
  8
0
 62
     0
100
AcDbPolyline
 90
        2
 70
     0
 39
0.003
 10
-1.356287
 20
-0.039429
 40
0.003
 41
0.003
 10
-1.366008
 20
-0.11028
 40
0.003
 41
0.003
  0
LWPOLYLINE
  5
33F
100
AcDbEntity
  8
0
 62
     0
100
AcDbPolyline
 90
        2
 70
     0
 39
0.003
 10
-1.366008
 20
-0.11028
 40
0.003
 41
0.003
 10
-1.371524
 20
-0.185941
 40
0.003
 41
0.003
  0
LWPOLYLINE
  5
340
100
AcDbEntity
  8
0
 62
     7
100
AcDbPolyline
 90
        2
 70
     0
 39
0.003
 10
-1.730866
 20
0.671795
 40
0.003
 41
0.003
 10
-1.728031
 20
-0.187118
 40
0.003
 41
0.003
  0
LWPOLYLINE
  5
341
100
AcDbEntity
  8
0
 62
     7
100
AcDbPolyline
 90
        2
 70
     0
 39
0.003
 10
-1.728031
 20
-0.187118
 40
0.003
 41
0.003
 10
-1.371524
 20
-0.185941
 40
0.003
 41
0.003
  0
SPLINE
  5
342
100
AcDbEntity
  8
0
 62
     7
100
AcDbSpline
210
0.0
220
0.0
230
1.0
 70
     0
 71
     3
 72
     0
 73
     0
 74
    32
 44
0.0000000001
 11
-1.371523622047244
 21
-0.1859409448818898
 31
0.0
 11
-1.3562874015748032
 21
-0.0394212598425197
 31
0.0
 11
-1.3251417322834647
 21
0.0885905511811024
 31
0.0
 11
-1.279976377952756
 21
0.1996692913385827
 31
0.0
 11
-1.2226968503937008
 21
0.2953897637795276
 31
0.0
 11
-1.1551889763779528
 21
0.3773070866141732
 31
0.0
 11
-1.0793622047244094
 21
0.447
 31
0.0
 11
-0.9971062992125984
 21
0.5060314960629921
 31
0.0
 11
-0.9103188976377953
 21
0.5559803149606299
 31
0.0
 11
-0.8208897637795276
 21
0.5983976377952756
 31
0.0
 11
-0.730732283464567
 21
0.6348661417322835
 31
0.0
 11
-0.641728346456693
 21
0.6669488188976378
 31
0.0
 11
-0.5557874015748031
 21
0.6962244094488189
 31
0.0
 11
-0.4747952755905512
 21
0.7242440944881889
 31
0.0
 11
-0.4006574803149606
 21
0.7525905511811024
 31
0.0
 11
-0.335263779527559
 21
0.7828267716535433
 31
0.0
 11
-0.2805236220472441
 21
0.8165275590551181
 31
0.0
 11
-0.2329527559055118
 21
0.8537086614173228
 31
0.0
 11
-0.1879488188976378
 21
0.8932637795275591
 31
0.0
 11
-0.1456692913385827
 21
0.9350236220472441
 31
0.0
 11
-0.1062913385826772
 21
0.9788385826771654
 31
0.0
 11
-0.0699685039370079
 21
1.0245433070866141
 31
0.0
 11
-0.0368897637795276
 21
1.07198031496063
 31
0.0
 11
-0.0072007874015748
 21
1.120984251968504
 31
0.0
 11
0.0189173228346457
 21
1.1714133858267717
 31
0.0
 11
0.0413070866141732
 21
1.2230866141732284
 31
0.0
 11
0.0597992125984252
 21
1.2758622047244095
 31
0.0
 11
0.0742244094488189
 21
1.3295748031496064
 31
0.0
 11
0.0844212598425197
 21
1.3840669291338583
 31
0.0
 11
0.0902086614173228
 21
1.4391732283464567
 31
0.0
 11
0.0914370078740157
 21
1.4947480314960631
 31
0.0
 11
0.0879251968503937
 21
1.5506181102362204
 31
0.0
  0
LWPOLYLINE
  5
343
100
AcDbEntity
  8
0
 62
     7
100
AcDbPolyline
 90
        2
 70
     0
 39
0.003
 10
0.087925
 20
1.550618
 40
0.003
 41
0.003
 10
0.079516
 20
1.606634
 40
0.003
 41
0.003
  0
LWPOLYLINE
  5
344
100
AcDbEntity
  8
0
 62
     7
100
AcDbPolyline
 90
        2
 70
     0
 39
0.003
 10
0.079516
 20
1.606634
 40
0.003
 41
0.003
 10
-0.699681
 20
1.606441
 40
0.003
 41
0.003
  0
LWPOLYLINE
  5
345
100
AcDbEntity
  8
0
 62
     7
100
AcDbPolyline
 90
        2
 70
     0
 39
0.003
 10
-0.699681
 20
1.606441
 40
0.003
 41
0.003
 10
-1.730866
 20
0.671795
 40
0.003
 41
0.003
  0
MTEXT
  5
346
100
AcDbEntity
  8
0
 62
     0
100
AcDbMText
 10
-1.161587
 20
-0.058157
 30
0.0
 40
0.166665
 41
0.0
 71
     1
 72
     1
  1
{\fBookman Old Style|b0|i0|c0|p32;BA  1437}
 73
     1
 44
1.0
  0
MTEXT
  5
347
100
AcDbEntity
  8
0
 62
     0
100
AcDbMText
 10
-1.161587
 20
-0.245657
 30
0.0
 40
0.166665
 41
0.0
 71
     1
 72
     1
  1
{\fBookman Old Style|b0|i0|c0|p32;7/8" x 2-1/2"}
 73
     1
 44
1.0
  0
ENDSEC
  0
SECTION
  2
OBJECTS
  0
DICTIONARY
  5
19
100
AcDbDictionary
280
     0
281
     1
  3
ACAD_GROUP
350
1A
  3
ACAD_MLINESTYLE
350
1B
  3
ACAD_LAYOUT
350
1E
  3
ACAD_PLOTSETTINGS
350
22
  3
ACAD_PLOTSTYLENAME
350
1F
  3
ACAD_WIPEOUT_VARS
350
23
  0
DICTIONARY
  5
1A
102
{ACAD_REACTORS
330
19
102
}
100
AcDbDictionary
280
     0
281
     1
  0
DICTIONARY
  5
1B
102
{ACAD_REACTORS
330
19
102
}
100
AcDbDictionary
280
     0
281
     1
  3
Standard
350
1C
  0
MLINESTYLE
  5
1C
102
{ACAD_REACTORS
330
1B
102
}
100
AcDbMlineStyle
  2
Standard
 70
     0
  3

 62
     0
 51
90.0
 52
90.0
 71
     2
 49
0.5
 62
   256
  6
BYLAYER
 49
-0.5
 62
   256
  6
BYLAYER
  0
ACDBDICTIONARYWDFLT
  5
1F
102
{ACAD_REACTORS
330
19
102
}
100
AcDbDictionary
281
     1
  3
Normal
350
1D
100
AcDbDictionaryWithDefault
340
1D
  0
ACDBPLACEHOLDER
  5
1D
102
{ACAD_REACTORS
330
1F
102
}
  0
LAYOUT
  5
20
102
{ACAD_REACTORS
330
1E
102
}
100
AcDbPlotSettings
  1

  2

  4

  6

 40
0.0
 41
0.0
 42
0.0
 43
0.0
 44
0.0
 45
0.0
 46
0.0
 47
0.0
 48
0.0
 49
0.0
140
0.0
141
0.0
142
1.0
143
1.0
 70
  1024
 72
     0
 73
     0
 74
     0
  7

 75
     0
147
1.0
148
0.0
149
0.0
100
AcDbLayout
  1
Model
 70
     0
 71
     0
 10
0.0
 20
0.0
 11
0.0
 21
0.0
 12
0.0
 22
0.0
 32
0.0
 14
0.0
 24
0.0
 34
0.0
 15
0.0
 25
0.0
 35
0.0
146
0.0
 13
0.0
 23
0.0
 33
0.0
 16
0.0
 26
0.0
 36
0.0
 17
0.0
 27
0.0
 37
0.0
 76
     0
330
A
331
0
345
0
346
0
  0
LAYOUT
  5
21
102
{ACAD_REACTORS
330
1E
102
}
100
AcDbPlotSettings
  1

  2

  4

  6

 40
0.0
 41
0.0
 42
0.0
 43
0.0
 44
0.0
 45
0.0
 46
0.0
 47
0.0
 48
0.0
 49
0.0
140
0.0
141
0.0
142
1.0
143
1.0
 70
     0
 72
     0
 73
     0
 74
     0
  7

 75
     0
147
1.0
148
0.0
149
0.0
100
AcDbLayout
  1
Layout1
 70
     0
 71
     0
 10
0.0
 20
0.0
 11
0.0
 21
0.0
 12
0.0
 22
0.0
 32
0.0
 14
0.0
 24
0.0
 34
0.0
 15
0.0
 25
0.0
 35
0.0
146
0.0
 13
0.0
 23
0.0
 33
0.0
 16
0.0
 26
0.0
 36
0.0
 17
0.0
 27
0.0
 37
0.0
 76
     0
330
B
331
0
345
0
346
0
  0
DICTIONARY
  5
1E
102
{ACAD_REACTORS
330
19
102
}
100
AcDbDictionary
280
     0
281
     1
  3
Layout1
350
21
  3
Model
350
20
  0
DICTIONARY
  5
22
102
{ACAD_REACTORS
330
19
102
}
100
AcDbDictionary
280
     0
281
     1
  0
WIPEOUTVARIABLES
  5
23
100
AcDbWipeoutVariables
 70
     1
  0
ENDSEC
  0
EOF
