  0
SECTION
  2
HEADER
  9
$ACADVER
  1
AC1015
  9
$ACADMAINTVER
 70
     6
  9
$DWGCODEPAGE
  3
DOS850
  9
$INSBASE
 10
0.0
 20
0.0
 30
0.0
  9
$EXTMIN
 10
1.000000E+20
 20
1.000000E+20
 30
1.000000E+20
  9
$EXTMAX
 10
-1.000000E+20
 20
-1.000000E+20
 30
-1.000000E+20
  9
$LIMMIN
 10
0.0
 20
0.0
  9
$LIMMAX
 10
0.0
 20
0.0
  9
$ORTHOMODE
 70
     0
  9
$REGENMODE
 70
     1
  9
$FILLMODE
 70
     1
  9
$QTEXTMODE
 70
     0
  9
$MIRRTEXT
 70
     1
  9
$LTSCALE
 40
1.0
  9
$ATTMODE
 70
     1
  9
$TEXTSIZE
 40
0.2
  9
$TRACEWID
 40
0.05
  9
$TEXTSTYLE
  7
Standard
  9
$CLAYER
  8
0
  9
$CELTYPE
  6
Continuous
  9
$CECOLOR
 62
   256
  9
$CELTSCALE
 40
1.0
  9
$DISPSILH
 70
     0
  9
$DIMSCALE
 40
1.0
  9
$DIMASZ
 40
0.18
  9
$DIMEXO
 40
0.0625
  9
$DIMDLI
 40
0.38
  9
$DIMRND
 40
0.0
  9
$DIMDLE
 40
0.0
  9
$DIMEXE
 40
0.18
  9
$DIMTP
 40
0.0
  9
$DIMTM
 40
0.0
  9
$DIMTXT
 40
0.18
  9
$DIMCEN
 40
0.09
  9
$DIMTSZ
 40
0.0
  9
$DIMTOL
 70
     0
  9
$DIMLIM
 70
     0
  9
$DIMTIH
 70
     1
  9
$DIMTOH
 70
     1
  9
$DIMSE1
 70
     0
  9
$DIMSE2
 70
     0
  9
$DIMTAD
 70
     0
  9
$DIMZIN
 70
     0
  9
$DIMBLK
  1

  9
$DIMASO
 70
     1
  9
$DIMSHO
 70
     1
  9
$DIMPOST
  1

  9
$DIMAPOST
  1

  9
$DIMALT
 70
     0
  9
$DIMALTD
 70
     2
  9
$DIMALTF
 40
25.4
  9
$DIMLFAC
 40
1.0
  9
$DIMTOFL
 70
     0
  9
$DIMTVP
 40
0.0
  9
$DIMTIX
 70
     0
  9
$DIMSOXD
 70
     0
  9
$DIMSAH
 70
     0
  9
$DIMBLK1
  1

  9
$DIMBLK2
  1

  9
$DIMSTYLE
  2
Standard
  9
$DIMCLRD
 70
     0
  9
$DIMCLRE
 70
     0
  9
$DIMCLRT
 70
     0
  9
$DIMTFAC
 40
1.0
  9
$DIMGAP
 40
0.09
  9
$DIMJUST
 70
     0
  9
$DIMSD1
 70
     0
  9
$DIMSD2
 70
     0
  9
$DIMTOLJ
 70
     1
  9
$DIMTZIN
 70
     0
  9
$DIMALTZ
 70
     0
  9
$DIMALTTZ
 70
     0
  9
$DIMUPT
 70
     0
  9
$DIMDEC
 70
     4
  9
$DIMTDEC
 70
     4
  9
$DIMALTU
 70
     2
  9
$DIMALTTD
 70
     2
  9
$DIMTXSTY
  7
Standard
  9
$DIMAUNIT
 70
     0
  9
$DIMADEC
 70
     0
  9
$DIMALTRND
 40
0.0
  9
$DIMAZIN
 70
     0
  9
$DIMDSEP
 70
     0
  9
$DIMATFIT
 70
     3
  9
$DIMFRAC
 70
     0
  9
$DIMLDRBLK
  1

  9
$DIMLUNIT
 70
     2
  9
$DIMLWD
 70
     0
  9
$DIMLWE
 70
     0
  9
$DIMTMOVE
 70
     0
  9
$LUNITS
 70
     2
  9
$LUPREC
 70
     4
  9
$SKETCHINC
 40
0.1
  9
$FILLETRAD
 40
0.0
  9
$AUNITS
 70
     0
  9
$AUPREC
 70
     0
  9
$MENU
  1
acad
  9
$ELEVATION
 40
0.0
  9
$PELEVATION
 40
0.0
  9
$THICKNESS
 40
0.0
  9
$LIMCHECK
 70
     0
  9
$CHAMFERA
 40
0.0
  9
$CHAMFERB
 40
0.0
  9
$CHAMFERC
 40
0.0
  9
$CHAMFERD
 40
0.0
  9
$SKPOLY
 70
     0
  9
$TDCREATE
 40
0.000000000
  9
$TDUCREATE
 40
0.000000000
  9
$TDUPDATE
 40
0.000000000
  9
$TDUUPDATE
 40
0.000000000
  9
$TDINDWG
 40
0.0000000000
  9
$TDUSRTIMER
 40
0.0000000000
  9
$USRTIMER
 70
     1
  9
$ANGBASE
 50
0.0
  9
$ANGDIR
 70
     0
  9
$PDMODE
 70
     0
  9
$PDSIZE
 40
0.0
  9
$PLINEWID
 40
0.0
  9
$SPLFRAME
 70
     0
  9
$SPLINETYPE
 70
     6
  9
$SPLINESEGS
 70
     8
  9
$HANDSEED
  5
10E
  9
$SURFTAB1
 70
     6
  9
$SURFTAB2
 70
     6
  9
$SURFTYPE
 70
     6
  9
$SURFU
 70
     6
  9
$SURFV
 70
     6
  9
$UCSBASE
  2

  9
$UCSNAME
  2

  9
$UCSORG
 10
0.0
 20
0.0
 30
0.0
  9
$UCSXDIR
 10
1.0
 20
0.0
 30
0.0
  9
$UCSYDIR
 10
0.0
 20
1.0
 30
0.0
  9
$UCSORTHOREF
  2

  9
$UCSORTHOVIEW
 70
     0
  9
$UCSORGTOP
 10
0.0
 20
0.0
 30
0.0
  9
$UCSORGBOTTOM
 10
0.0
 20
0.0
 30
0.0
  9
$UCSORGLEFT
 10
0.0
 20
0.0
 30
0.0
  9
$UCSORGRIGHT
 10
0.0
 20
0.0
 30
0.0
  9
$UCSORGFRONT
 10
0.0
 20
0.0
 30
0.0
  9
$UCSORGBACK
 10
0.0
 20
0.0
 30
0.0
  9
$PUCSBASE
  2

  9
$PUCSNAME
  2

  9
$PUCSORG
 10
0.0
 20
0.0
 30
0.0
  9
$PUCSXDIR
 10
1.0
 20
0.0
 30
0.0
  9
$PUCSYDIR
 10
0.0
 20
1.0
 30
0.0
  9
$PUCSORTHOREF
  2

  9
$PUCSORTHOVIEW
 70
     0
  9
$PUCSORGTOP
 10
0.0
 20
0.0
 30
0.0
  9
$PUCSORGBOTTOM
 10
0.0
 20
0.0
 30
0.0
  9
$PUCSORGLEFT
 10
0.0
 20
0.0
 30
0.0
  9
$PUCSORGRIGHT
 10
0.0
 20
0.0
 30
0.0
  9
$PUCSORGFRONT
 10
0.0
 20
0.0
 30
0.0
  9
$PUCSORGBACK
 10
0.0
 20
0.0
 30
0.0
  9
$USERI1
 70
     0
  9
$USERI2
 70
     0
  9
$USERI3
 70
     0
  9
$USERI4
 70
     0
  9
$USERI5
 70
     0
  9
$USERR1
 40
0.0
  9
$USERR2
 40
0.0
  9
$USERR3
 40
0.0
  9
$USERR4
 40
0.0
  9
$USERR5
 40
0.0
  9
$WORLDVIEW
 70
     1
  9
$SHADEDGE
 70
     3
  9
$SHADEDIF
 70
    70
  9
$TILEMODE
 70
     1
  9
$MAXACTVP
 70
    16
  9
$PINSBASE
 10
0.0
 20
0.0
 30
0.0
  9
$PLIMCHECK
 70
     0
  9
$PEXTMIN
 10
1.000000E+20
 20
1.000000E+20
 30
1.000000E+20
  9
$PEXTMAX
 10
-1.000000E+20
 20
-1.000000E+20
 30
-1.000000E+20
  9
$PLIMMIN
 10
0.0
 20
0.0
  9
$PLIMMAX
 10
12.0
 20
9.0
  9
$UNITMODE
 70
     0
  9
$VISRETAIN
 70
     0
  9
$PLINEGEN
 70
     1
  9
$PSLTSCALE
 70
     0
  9
$TREEDEPTH
 70
  3020
  9
$CMLSTYLE
  2
Standard
  9
$CMLJUST
 70
     0
  9
$CMLSCALE
 40
1.0
  9
$PROXYGRAPHICS
 70
     0
  9
$MEASUREMENT
 70
     0
  9
$CELWEIGHT
370
     0
  9
$ENDCAPS
280
     0
  9
$JOINSTYLE
280
     0
  9
$LWDISPLAY
290
     0
  9
$INSUNITS
 70
     0
  9
$HYPERLINKBASE
  1

  9
$XEDIT
290
     1
  9
$CEPSNTYPE
380
     0
  9
$PSTYLEMODE
290
     1
  9
$FINGERPRINTGUID
  2

  9
$VERSIONGUID
  2

  9
$EXTNAMES
290
     1
  9
$PSVPSCALE
 40
0.0
  0
ENDSEC
  0
SECTION
  2
CLASSES
  0
CLASS
  1
LWPOLYLINE
  2
AcDbPolyline
  3
AutoCAD 2000
 90
        0
280
     0
281
     1
  0
CLASS
  1
IMAGE
  2
AcDbRasterImage
  3
ISM
 90
    32895
280
     0
281
     1
  0
CLASS
  1
OLE2FRAME
  2
AcDbOle2Frame
  3
AutoCAD 2000
 90
    32768
280
     0
281
     1
  0
CLASS
  1
HATCH
  2
AcDbHatch
  3
AutoCAD 2000
 90
    32768
280
     0
281
     1
  0
CLASS
  1
DICTIONARYVAR
  2
AcDbDictionaryVar
  3
AutoCAD 2000
 90
    32768
280
     0
281
     0
  0
CLASS
  1
RASTERVARIABLES
  2
AcDbRasterVariables
  3
ISM
 90
    32768
280
     0
281
     0
  0
CLASS
  1
IMAGEDEF
  2
AcDbRasterImageDef
  3
ISM
 90
    32768
280
     0
281
     0
  0
CLASS
  1
IMAGEDEF_REACTOR
  2
AcDbRasterImageDefReactor
  3
ISM
 90
    32769
280
     0
281
     0
  0
CLASS
  1
IDBUFFER
  2
AcDbIdBuffer
  3
AutoCAD 2000
 90
    32768
280
     0
281
     0
  0
CLASS
  1
SPATIAL_FILTER
  2
AcDbSpatialFilter
  3
AutoCAD 2000
 90
    32768
280
     0
281
     0
  0
CLASS
  1
XRECORD
  2
AcDbXrecord
  3
AutoCAD 2000
 90
    32768
280
     0
281
     0
  0
CLASS
  1
SORTENTSTABLE
  2
AcDbSortentsTable
  3
AutoCAD 2000
 90
    32768
280
     0
281
     0
  0
CLASS
  1
LAYER_INDEX
  2
AcDbLayerIndex
  3
AutoCAD 2000
 90
    32768
280
     0
281
     0
  0
CLASS
  1
SPATIAL_INDEX
  2
AcDbSpatialIndex
  3
AutoCAD 2000
 90
    32768
280
     0
281
     0
  0
CLASS
  1
OBJECT_PTR
  2
CAseDLPNTableRecord
  3
"ASE-LPNTableRecord"
 90
    32769
280
     0
281
     0
  0
CLASS
  1
LAYOUT
  2
AcDbLayout
  3
AutoCAD 2000
 90
        0
280
     0
281
     0
  0
CLASS
  1
PLOTSETTINGS
  2
AcDbPlotSettings
  3
AutoCAD 2000
 90
    32768
280
     0
281
     0
  0
CLASS
  1
ACDBDICTIONARYWDFLT
  2
AcDbDictionaryWithDefault
  3
AutoCAD 2000
 90
        0
280
     0
281
     0
  0
CLASS
  1
ACDBPLACEHOLDER
  2
AcDbPlaceHolder
  3
AutoCAD 2000
 90
        0
280
     0
281
     0
  0
CLASS
  1
VBA_PROJECT
  2
AcDbVbaProject
  3
acadvba
 90
    32768
280
     0
281
     0
  0
CLASS
  1
WIPEOUT
  2
AcDbWipeout
  3
WipeOut|AutoCAD Express Tool|expresstools@autodesk.com
 90
    32895
280
     0
281
     1
  0
CLASS
  1
WIPEOUTVARIABLES
  2
AcDbWipeoutVariables
  3
WipeOut|AutoCAD Express Tool|expresstools@autodesk.com
 90
        0
280
     0
281
     0
  0
CLASS
  1
RTEXT
  2
RText
  3
RText|AutoCAD Express Tool|expresstools@autodesk.com
 90
    32768
280
     0
281
     1
  0
CLASS
  1
ARCALIGNEDTEXT
  2
AcDbArcAlignedText
  3
ATEXT|AutoCAD Express Tool|expresstools@autodesk.com
 90
    32768
280
     0
281
     1
  0
ENDSEC
  0
SECTION
  2
TABLES
  0
TABLE
  2
VPORT
  5
7
100
AcDbSymbolTable
 70
     1
  0
VPORT
  5
15
100
AcDbSymbolTableRecord
100
AcDbViewportTableRecord
  2
*ACTIVE
 70
     0
 10
0.0
 20
0.0
 11
1.0
 21
1.0
 12
6.591288
 22
4.579184
 13
0.0
 23
0.0
 14
1.0
 24
1.0
 15
0.0
 25
0.0
 16
0.0
 26
0.0
 36
1.0
 17
0.0
 27
0.0
 37
0.0
 40
9.158369
 41
0.688564
 42
50.0
 43
0.0
 44
0.0
 50
0.0
 51
0.0
 71
     0
 72
   100
 73
     1
 74
     1
 75
     0
 76
     0
 77
     0
 78
     0
281
     0
 65
     0
110
0.0
120
0.0
130
0.0
111
1.0
121
0.0
131
0.0
112
0.0
122
1.0
132
0.0
345
0
346
0
 79
     0
146
0.0
  0
ENDTAB
  0
TABLE
  2
LTYPE
  5
4
100
AcDbSymbolTable
 70
     3
  0
LTYPE
  5
11
100
AcDbSymbolTableRecord
100
AcDbLinetypeTableRecord
  2
ByBlock
 70
    64
  3

 72
    65
 73
     0
 40
0.0
  0
LTYPE
  5
12
100
AcDbSymbolTableRecord
100
AcDbLinetypeTableRecord
  2
ByLayer
 70
    64
  3

 72
    65
 73
     0
 40
0.0
  0
LTYPE
  5
13
100
AcDbSymbolTableRecord
100
AcDbLinetypeTableRecord
  2
Continuous
 70
    64
  3
Solid line
 72
    65
 73
     0
 40
0.0
  0
ENDTAB
  0
TABLE
  2
LAYER
  5
2
100
AcDbSymbolTable
 70
     1
  0
LAYER
  5
14
100
AcDbSymbolTableRecord
100
AcDbLayerTableRecord
  2
0
 70
     0
 62
     7
  6
Continuous
290
     1
370
    -3
390
1D
  0
ENDTAB
  0
TABLE
  2
STYLE
  5
3
100
AcDbSymbolTable
 70
     1
  0
STYLE
  5
17
100
AcDbSymbolTableRecord
100
AcDbTextStyleTableRecord
  2
Standard
 70
     0
 40
0.0
 41
1.0
 50
0.0
 71
     0
 42
0.0
  3
txt
  4

  0
ENDTAB
  0
TABLE
  2
VIEW
  5
5
100
AcDbSymbolTable
 70
     0
  0
ENDTAB
  0
TABLE
  2
UCS
  5
6
100
AcDbSymbolTable
 70
     0
  0
ENDTAB
  0
TABLE
  2
APPID
  5
8
100
AcDbSymbolTable
 70
     1
  0
APPID
  5
16
100
AcDbSymbolTableRecord
100
AcDbRegAppTableRecord
  2
ACAD
 70
     0
  0
ENDTAB
  0
TABLE
  2
DIMSTYLE
  5
9
100
AcDbSymbolTable
 70
     1
100
AcDbDimStyleTable
 71
     0
  0
DIMSTYLE
105
18
100
AcDbSymbolTableRecord
100
AcDbDimStyleTableRecord
  2
Standard
 70
     0
  3

  4

 40
1.0
 41
0.18
 42
0.0625
 43
0.38
 44
0.18
 45
0.0
 46
0.0
 47
0.0
 48
0.0
 71
     0
 72
     0
 73
     1
 74
     1
 75
     0
 76
     0
 77
     0
 78
     0
 79
     0
140
0.18
141
0.09
142
0.0
143
25.4
144
1.0
145
0.0
146
1.0
147
0.09
148
0.0
170
     0
171
     2
172
     0
173
     0
174
     0
175
     0
176
     0
177
     0
178
     0
179
     0
271
     4
272
     4
273
     2
274
     2
275
     0
276
     0
277
     2
278
    46
279
     0
280
     0
281
     0
282
     0
283
     1
284
     0
285
     0
286
     0
288
     0
340
17
341
0
342
0
343
0
344
0
371
    -2
372
    -2
  0
ENDTAB
  0
TABLE
  2
BLOCK_RECORD
  5
1
100
AcDbSymbolTable
 70
     0
  0
BLOCK_RECORD
  5
A
100
AcDbSymbolTableRecord
100
AcDbBlockTableRecord
  2
*MODEL_SPACE
340
20
  0
BLOCK_RECORD
  5
B
100
AcDbSymbolTableRecord
100
AcDbBlockTableRecord
  2
*PAPER_SPACE
340
21
  0
ENDTAB
  0
ENDSEC
  0
SECTION
  2
BLOCKS
  0
BLOCK
  5
D
100
AcDbEntity
  8
0
100
AcDbBlockBegin
  2
*MODEL_SPACE
 70
     0
 10
0.0
 20
0.0
 30
0.0
  3
*MODEL_SPACE
  1

  0
ENDBLK
  5
E
100
AcDbEntity
  8
0
100
AcDbBlockEnd
  0
BLOCK
  5
F
100
AcDbEntity
 67
     1
  8
0
100
AcDbBlockBegin
  2
*PAPER_SPACE
 70
     0
 10
0.0
 20
0.0
 30
0.0
  3
*PAPER_SPACE
  1

  0
ENDBLK
  5
10
100
AcDbEntity
 67
     1
  8
0
100
AcDbBlockEnd
  0
ENDSEC
  0
SECTION
  2
ENTITIES
  0
LWPOLYLINE
  5
24
100
AcDbEntity
  8
0
 62
     0
100
AcDbPolyline
 90
        2
 70
     0
 39
0.003
 10
-0.473705
 20
2.783717
 40
0.003
 41
0.003
 10
0.389563
 20
2.783717
 40
0.003
 41
0.003
  0
SPLINE
  5
25
100
AcDbEntity
  8
0
 62
     0
100
AcDbSpline
210
0.0
220
0.0
230
1.0
 70
     0
 71
     3
 72
     0
 73
     0
 74
    16
 44
0.0000000001
 11
0.3895629921259843
 21
2.7837165354330708
 31
0.0
 11
0.3905984251968504
 21
2.7836574803149605
 31
0.0
 11
0.3916102362204724
 21
2.783503937007874
 31
0.0
 11
0.3925866141732283
 21
2.783251968503937
 31
0.0
 11
0.3935275590551181
 21
2.7829094488188977
 31
0.0
 11
0.3944173228346457
 21
2.7824724409448818
 31
0.0
 11
0.395263779527559
 21
2.7819606299212598
 31
0.0
 11
0.3960472440944882
 21
2.7813700787401574
 31
0.0
 11
0.3967795275590551
 21
2.7807125984251968
 31
0.0
 11
0.3974370078740158
 21
2.7799803149606301
 31
0.0
 11
0.3980275590551181
 21
2.7791968503937006
 31
0.0
 11
0.3985393700787402
 21
2.7783503937007872
 31
0.0
 11
0.3989763779527559
 21
2.7774606299212596
 31
0.0
 11
0.3993188976377953
 21
2.7765196850393701
 31
0.0
 11
0.3995748031496063
 21
2.7755433070866142
 31
0.0
 11
0.3997283464566929
 21
2.7745314960629921
 31
0.0
  0
LWPOLYLINE
  5
26
100
AcDbEntity
  8
0
 62
     0
100
AcDbPolyline
 90
        2
 70
     0
 39
0.003
 10
0.399728
 20
2.774531
 40
0.003
 41
0.003
 10
0.399787
 20
2.773496
 40
0.003
 41
0.003
  0
LWPOLYLINE
  5
27
100
AcDbEntity
  8
0
 62
     0
100
AcDbPolyline
 90
        2
 70
     0
 39
0.003
 10
0.399787
 20
2.773496
 40
0.003
 41
0.003
 10
0.399787
 20
1.293941
 40
0.003
 41
0.003
  0
SPLINE
  5
28
100
AcDbEntity
  8
0
 62
     0
100
AcDbSpline
210
0.0
220
0.0
230
1.0
 70
     0
 71
     3
 72
     0
 73
     0
 74
    16
 44
0.0000000001
 11
0.3997874015748031
 21
1.2939409448818897
 31
0.0
 11
0.3997283464566929
 21
1.2928937007874015
 31
0.0
 11
0.3995748031496063
 21
1.2918818897637796
 31
0.0
 11
0.3993188976377953
 21
1.2909015748031496
 31
0.0
 11
0.3989763779527559
 21
1.2899685039370079
 31
0.0
 11
0.3985393700787402
 21
1.2890708661417323
 31
0.0
 11
0.3980275590551181
 21
1.2882283464566928
 31
0.0
 11
0.3974370078740158
 21
1.2874370078740158
 31
0.0
 11
0.3967795275590551
 21
1.286716535433071
 31
0.0
 11
0.3960472440944882
 21
1.2860511811023623
 31
0.0
 11
0.395263779527559
 21
1.2854606299212599
 31
0.0
 11
0.3944173228346457
 21
1.2849488188976379
 31
0.0
 11
0.3935275590551181
 21
1.2845196850393701
 31
0.0
 11
0.3925866141732283
 21
1.2841692913385827
 31
0.0
 11
0.3916102362204724
 21
1.2839212598425196
 31
0.0
 11
0.3905984251968504
 21
1.2837677165354331
 31
0.0
  0
LWPOLYLINE
  5
29
100
AcDbEntity
  8
0
 62
     0
100
AcDbPolyline
 90
        2
 70
     0
 39
0.003
 10
0.390598
 20
1.283768
 40
0.003
 41
0.003
 10
0.389563
 20
1.283717
 40
0.003
 41
0.003
  0
LWPOLYLINE
  5
2A
100
AcDbEntity
  8
0
 62
     0
100
AcDbPolyline
 90
        2
 70
     0
 39
0.003
 10
0.389563
 20
1.283717
 40
0.003
 41
0.003
 10
-0.473705
 20
1.283717
 40
0.003
 41
0.003
  0
SPLINE
  5
2B
100
AcDbEntity
  8
0
 62
     0
100
AcDbSpline
210
0.0
220
0.0
230
1.0
 70
     0
 71
     3
 72
     0
 73
     0
 74
    16
 44
0.0000000001
 11
-0.4737047244094488
 21
1.2837165354330708
 31
0.0
 11
-0.474740157480315
 21
1.2837677165354331
 31
0.0
 11
-0.475751968503937
 21
1.2839212598425196
 31
0.0
 11
-0.4767283464566929
 21
1.2841692913385827
 31
0.0
 11
-0.4776692913385827
 21
1.2845196850393701
 31
0.0
 11
-0.4785590551181103
 21
1.2849488188976379
 31
0.0
 11
-0.4794055118110236
 21
1.2854606299212599
 31
0.0
 11
-0.4801889763779528
 21
1.2860511811023623
 31
0.0
 11
-0.4809212598425197
 21
1.286716535433071
 31
0.0
 11
-0.4815787401574803
 21
1.2874370078740158
 31
0.0
 11
-0.4821692913385827
 21
1.2882283464566928
 31
0.0
 11
-0.4826811023622047
 21
1.2890708661417323
 31
0.0
 11
-0.4831181102362205
 21
1.2899685039370079
 31
0.0
 11
-0.4834606299212598
 21
1.2909015748031496
 31
0.0
 11
-0.4837165354330709
 21
1.2918818897637796
 31
0.0
 11
-0.4838700787401575
 21
1.2928937007874015
 31
0.0
  0
LWPOLYLINE
  5
2C
100
AcDbEntity
  8
0
 62
     0
100
AcDbPolyline
 90
        2
 70
     0
 39
0.003
 10
-0.48387
 20
1.292894
 40
0.003
 41
0.003
 10
-0.483929
 20
1.293941
 40
0.003
 41
0.003
  0
LWPOLYLINE
  5
2D
100
AcDbEntity
  8
0
 62
     0
100
AcDbPolyline
 90
        2
 70
     0
 39
0.003
 10
-0.483929
 20
1.293941
 40
0.003
 41
0.003
 10
-0.483929
 20
2.773496
 40
0.003
 41
0.003
  0
SPLINE
  5
2E
100
AcDbEntity
  8
0
 62
     0
100
AcDbSpline
210
0.0
220
0.0
230
1.0
 70
     0
 71
     3
 72
     0
 73
     0
 74
    17
 44
0.0000000001
 11
-0.4839291338582677
 21
2.7734960629921259
 31
0.0
 11
-0.4838700787401575
 21
2.7745314960629921
 31
0.0
 11
-0.4837165354330709
 21
2.7755433070866142
 31
0.0
 11
-0.4834606299212598
 21
2.7765196850393701
 31
0.0
 11
-0.4831181102362205
 21
2.7774606299212596
 31
0.0
 11
-0.4826811023622047
 21
2.7783503937007872
 31
0.0
 11
-0.4821692913385827
 21
2.7791968503937006
 31
0.0
 11
-0.4815787401574803
 21
2.7799803149606301
 31
0.0
 11
-0.4809212598425197
 21
2.7807125984251968
 31
0.0
 11
-0.4801889763779528
 21
2.7813700787401574
 31
0.0
 11
-0.4794055118110236
 21
2.7819606299212598
 31
0.0
 11
-0.4785590551181103
 21
2.7824724409448818
 31
0.0
 11
-0.4776692913385827
 21
2.7829094488188977
 31
0.0
 11
-0.4767283464566929
 21
2.783251968503937
 31
0.0
 11
-0.475751968503937
 21
2.783503937007874
 31
0.0
 11
-0.474740157480315
 21
2.7836574803149605
 31
0.0
 11
-0.4737047244094488
 21
2.7837165354330708
 31
0.0
  0
MTEXT
  5
2F
100
AcDbEntity
  8
0
 62
     0
100
AcDbMText
 10
-2.012594
 20
1.298724
 30
0.0
 40
0.166665
 41
0.0
 71
     1
 72
     1
  1
{\fBookman Old Style|b0|i0|c0|p32;BA  1435}
 73
     1
 44
1.0
  0
MTEXT
  5
30
100
AcDbEntity
  8
0
 62
     0
100
AcDbMText
 10
-2.012594
 20
1.111224
 30
0.0
 40
0.166665
 41
0.0
 71
     1
 72
     1
  1
{\fBookman Old Style|b0|i0|c0|p32;1-1/2" x specified widths}
 73
     1
 44
1.0
  0
LWPOLYLINE
  5
31
100
AcDbEntity
  8
0
 62
   127
100
AcDbPolyline
 90
        2
 70
     0
 39
0.003
 10
-0.819598
 20
-0.074677
 40
0.003
 41
0.003
 10
-0.174465
 20
0.296547
 40
0.003
 41
0.003
  0
LWPOLYLINE
  5
32
100
AcDbEntity
  8
0
 62
   127
100
AcDbPolyline
 90
        2
 70
     0
 39
0.003
 10
-0.174465
 20
0.296547
 40
0.003
 41
0.003
 10
-0.172551
 20
0.297142
 40
0.003
 41
0.003
  0
LWPOLYLINE
  5
33
100
AcDbEntity
  8
0
 62
   127
100
AcDbPolyline
 90
        2
 70
     0
 39
0.003
 10
-0.172551
 20
0.297142
 40
0.003
 41
0.003
 10
-0.817685
 20
-0.074083
 40
0.003
 41
0.003
  0
LWPOLYLINE
  5
34
100
AcDbEntity
  8
0
 62
   127
100
AcDbPolyline
 90
        2
 70
     0
 39
0.003
 10
-0.817685
 20
-0.074083
 40
0.003
 41
0.003
 10
-0.819598
 20
-0.074677
 40
0.003
 41
0.003
  0
LWPOLYLINE
  5
35
100
AcDbEntity
  8
0
 62
   253
100
AcDbPolyline
 90
        2
 70
     0
 39
0.003
 10
-0.817685
 20
-0.074083
 40
0.003
 41
0.003
 10
-0.172551
 20
0.297142
 40
0.003
 41
0.003
  0
LWPOLYLINE
  5
36
100
AcDbEntity
  8
0
 62
   253
100
AcDbPolyline
 90
        2
 70
     0
 39
0.003
 10
-0.172551
 20
0.297142
 40
0.003
 41
0.003
 10
-0.170492
 20
0.297354
 40
0.003
 41
0.003
  0
LWPOLYLINE
  5
37
100
AcDbEntity
  8
0
 62
   253
100
AcDbPolyline
 90
        2
 70
     0
 39
0.003
 10
-0.170492
 20
0.297354
 40
0.003
 41
0.003
 10
-0.815626
 20
-0.07387
 40
0.003
 41
0.003
  0
LWPOLYLINE
  5
38
100
AcDbEntity
  8
0
 62
   253
100
AcDbPolyline
 90
        2
 70
     0
 39
0.003
 10
-0.815626
 20
-0.07387
 40
0.003
 41
0.003
 10
-0.817685
 20
-0.074083
 40
0.003
 41
0.003
  0
LWPOLYLINE
  5
39
100
AcDbEntity
  8
0
 62
   253
100
AcDbPolyline
 90
        2
 70
     0
 39
0.003
 10
-0.815626
 20
-0.07387
 40
0.003
 41
0.003
 10
-0.170492
 20
0.297354
 40
0.003
 41
0.003
  0
LWPOLYLINE
  5
3A
100
AcDbEntity
  8
0
 62
   253
100
AcDbPolyline
 90
        2
 70
     0
 39
0.003
 10
-0.170492
 20
0.297354
 40
0.003
 41
0.003
 10
0.692776
 20
0.297354
 40
0.003
 41
0.003
  0
LWPOLYLINE
  5
3B
100
AcDbEntity
  8
0
 62
   253
100
AcDbPolyline
 90
        2
 70
     0
 39
0.003
 10
0.692776
 20
0.297354
 40
0.003
 41
0.003
 10
0.047642
 20
-0.07387
 40
0.003
 41
0.003
  0
LWPOLYLINE
  5
3C
100
AcDbEntity
  8
0
 62
   253
100
AcDbPolyline
 90
        2
 70
     0
 39
0.003
 10
0.047642
 20
-0.07387
 40
0.003
 41
0.003
 10
-0.815626
 20
-0.07387
 40
0.003
 41
0.003
  0
LWPOLYLINE
  5
3D
100
AcDbEntity
  8
0
 62
     9
100
AcDbPolyline
 90
        2
 70
     0
 39
0.003
 10
0.047642
 20
-0.07387
 40
0.003
 41
0.003
 10
0.692776
 20
0.297354
 40
0.003
 41
0.003
  0
LWPOLYLINE
  5
3E
100
AcDbEntity
  8
0
 62
     9
100
AcDbPolyline
 90
        2
 70
     0
 39
0.003
 10
0.692776
 20
0.297354
 40
0.003
 41
0.003
 10
0.694823
 20
0.297142
 40
0.003
 41
0.003
  0
LWPOLYLINE
  5
3F
100
AcDbEntity
  8
0
 62
     9
100
AcDbPolyline
 90
        2
 70
     0
 39
0.003
 10
0.694823
 20
0.297142
 40
0.003
 41
0.003
 10
0.049689
 20
-0.074083
 40
0.003
 41
0.003
  0
LWPOLYLINE
  5
40
100
AcDbEntity
  8
0
 62
     9
100
AcDbPolyline
 90
        2
 70
     0
 39
0.003
 10
0.049689
 20
-0.074083
 40
0.003
 41
0.003
 10
0.047642
 20
-0.07387
 40
0.003
 41
0.003
  0
LWPOLYLINE
  5
41
100
AcDbEntity
  8
0
 62
     9
100
AcDbPolyline
 90
        2
 70
     0
 39
0.003
 10
0.049689
 20
-0.074083
 40
0.003
 41
0.003
 10
0.694823
 20
0.297142
 40
0.003
 41
0.003
  0
LWPOLYLINE
  5
42
100
AcDbEntity
  8
0
 62
     9
100
AcDbPolyline
 90
        2
 70
     0
 39
0.003
 10
0.694823
 20
0.297142
 40
0.003
 41
0.003
 10
0.69674
 20
0.296547
 40
0.003
 41
0.003
  0
LWPOLYLINE
  5
43
100
AcDbEntity
  8
0
 62
     9
100
AcDbPolyline
 90
        2
 70
     0
 39
0.003
 10
0.69674
 20
0.296547
 40
0.003
 41
0.003
 10
0.051606
 20
-0.074677
 40
0.003
 41
0.003
  0
LWPOLYLINE
  5
44
100
AcDbEntity
  8
0
 62
     9
100
AcDbPolyline
 90
        2
 70
     0
 39
0.003
 10
0.051606
 20
-0.074677
 40
0.003
 41
0.003
 10
0.049689
 20
-0.074083
 40
0.003
 41
0.003
  0
LWPOLYLINE
  5
45
100
AcDbEntity
  8
0
 62
     9
100
AcDbPolyline
 90
        2
 70
     0
 39
0.003
 10
0.051606
 20
-0.074677
 40
0.003
 41
0.003
 10
0.69674
 20
0.296547
 40
0.003
 41
0.003
  0
LWPOLYLINE
  5
46
100
AcDbEntity
  8
0
 62
     9
100
AcDbPolyline
 90
        2
 70
     0
 39
0.003
 10
0.69674
 20
0.296547
 40
0.003
 41
0.003
 10
0.698476
 20
0.295598
 40
0.003
 41
0.003
  0
LWPOLYLINE
  5
47
100
AcDbEntity
  8
0
 62
     9
100
AcDbPolyline
 90
        2
 70
     0
 39
0.003
 10
0.698476
 20
0.295598
 40
0.003
 41
0.003
 10
0.053343
 20
-0.075626
 40
0.003
 41
0.003
  0
LWPOLYLINE
  5
48
100
AcDbEntity
  8
0
 62
     9
100
AcDbPolyline
 90
        2
 70
     0
 39
0.003
 10
0.053343
 20
-0.075626
 40
0.003
 41
0.003
 10
0.051606
 20
-0.074677
 40
0.003
 41
0.003
  0
LWPOLYLINE
  5
49
100
AcDbEntity
  8
0
 62
     9
100
AcDbPolyline
 90
        2
 70
     0
 39
0.003
 10
0.053343
 20
-0.075626
 40
0.003
 41
0.003
 10
0.698476
 20
0.295598
 40
0.003
 41
0.003
  0
LWPOLYLINE
  5
4A
100
AcDbEntity
  8
0
 62
     9
100
AcDbPolyline
 90
        2
 70
     0
 39
0.003
 10
0.698476
 20
0.295598
 40
0.003
 41
0.003
 10
0.699992
 20
0.29435
 40
0.003
 41
0.003
  0
LWPOLYLINE
  5
4B
100
AcDbEntity
  8
0
 62
     9
100
AcDbPolyline
 90
        2
 70
     0
 39
0.003
 10
0.699992
 20
0.29435
 40
0.003
 41
0.003
 10
0.054858
 20
-0.076874
 40
0.003
 41
0.003
  0
LWPOLYLINE
  5
4C
100
AcDbEntity
  8
0
 62
     9
100
AcDbPolyline
 90
        2
 70
     0
 39
0.003
 10
0.054858
 20
-0.076874
 40
0.003
 41
0.003
 10
0.053343
 20
-0.075626
 40
0.003
 41
0.003
  0
LWPOLYLINE
  5
4D
100
AcDbEntity
  8
0
 62
     9
100
AcDbPolyline
 90
        2
 70
     0
 39
0.003
 10
0.054858
 20
-0.076874
 40
0.003
 41
0.003
 10
0.699992
 20
0.29435
 40
0.003
 41
0.003
  0
LWPOLYLINE
  5
4E
100
AcDbEntity
  8
0
 62
     9
100
AcDbPolyline
 90
        2
 70
     0
 39
0.003
 10
0.699992
 20
0.29435
 40
0.003
 41
0.003
 10
0.70124
 20
0.292835
 40
0.003
 41
0.003
  0
LWPOLYLINE
  5
4F
100
AcDbEntity
  8
0
 62
     9
100
AcDbPolyline
 90
        2
 70
     0
 39
0.003
 10
0.70124
 20
0.292835
 40
0.003
 41
0.003
 10
0.056106
 20
-0.07839
 40
0.003
 41
0.003
  0
LWPOLYLINE
  5
50
100
AcDbEntity
  8
0
 62
     9
100
AcDbPolyline
 90
        2
 70
     0
 39
0.003
 10
0.056106
 20
-0.07839
 40
0.003
 41
0.003
 10
0.054858
 20
-0.076874
 40
0.003
 41
0.003
  0
LWPOLYLINE
  5
51
100
AcDbEntity
  8
0
 62
     9
100
AcDbPolyline
 90
        2
 70
     0
 39
0.003
 10
0.056106
 20
-0.07839
 40
0.003
 41
0.003
 10
0.70124
 20
0.292835
 40
0.003
 41
0.003
  0
LWPOLYLINE
  5
52
100
AcDbEntity
  8
0
 62
     9
100
AcDbPolyline
 90
        2
 70
     0
 39
0.003
 10
0.70124
 20
0.292835
 40
0.003
 41
0.003
 10
0.702189
 20
0.291098
 40
0.003
 41
0.003
  0
LWPOLYLINE
  5
53
100
AcDbEntity
  8
0
 62
     9
100
AcDbPolyline
 90
        2
 70
     0
 39
0.003
 10
0.702189
 20
0.291098
 40
0.003
 41
0.003
 10
0.057055
 20
-0.080126
 40
0.003
 41
0.003
  0
LWPOLYLINE
  5
54
100
AcDbEntity
  8
0
 62
     9
100
AcDbPolyline
 90
        2
 70
     0
 39
0.003
 10
0.057055
 20
-0.080126
 40
0.003
 41
0.003
 10
0.056106
 20
-0.07839
 40
0.003
 41
0.003
  0
LWPOLYLINE
  5
55
100
AcDbEntity
  8
0
 62
   254
100
AcDbPolyline
 90
        2
 70
     0
 39
0.003
 10
0.057055
 20
-0.080126
 40
0.003
 41
0.003
 10
0.702189
 20
0.291098
 40
0.003
 41
0.003
  0
LWPOLYLINE
  5
56
100
AcDbEntity
  8
0
 62
   254
100
AcDbPolyline
 90
        2
 70
     0
 39
0.003
 10
0.702189
 20
0.291098
 40
0.003
 41
0.003
 10
0.702787
 20
0.289181
 40
0.003
 41
0.003
  0
LWPOLYLINE
  5
57
100
AcDbEntity
  8
0
 62
   254
100
AcDbPolyline
 90
        2
 70
     0
 39
0.003
 10
0.702787
 20
0.289181
 40
0.003
 41
0.003
 10
0.057654
 20
-0.082043
 40
0.003
 41
0.003
  0
LWPOLYLINE
  5
58
100
AcDbEntity
  8
0
 62
   254
100
AcDbPolyline
 90
        2
 70
     0
 39
0.003
 10
0.057654
 20
-0.082043
 40
0.003
 41
0.003
 10
0.057055
 20
-0.080126
 40
0.003
 41
0.003
  0
LWPOLYLINE
  5
59
100
AcDbEntity
  8
0
 62
   254
100
AcDbPolyline
 90
        2
 70
     0
 39
0.003
 10
0.057654
 20
-0.082043
 40
0.003
 41
0.003
 10
0.702787
 20
0.289181
 40
0.003
 41
0.003
  0
LWPOLYLINE
  5
5A
100
AcDbEntity
  8
0
 62
   254
100
AcDbPolyline
 90
        2
 70
     0
 39
0.003
 10
0.702787
 20
0.289181
 40
0.003
 41
0.003
 10
0.703
 20
0.287134
 40
0.003
 41
0.003
  0
LWPOLYLINE
  5
5B
100
AcDbEntity
  8
0
 62
   254
100
AcDbPolyline
 90
        2
 70
     0
 39
0.003
 10
0.703
 20
0.287134
 40
0.003
 41
0.003
 10
0.057866
 20
-0.084091
 40
0.003
 41
0.003
  0
LWPOLYLINE
  5
5C
100
AcDbEntity
  8
0
 62
   254
100
AcDbPolyline
 90
        2
 70
     0
 39
0.003
 10
0.057866
 20
-0.084091
 40
0.003
 41
0.003
 10
0.057654
 20
-0.082043
 40
0.003
 41
0.003
  0
LWPOLYLINE
  5
5D
100
AcDbEntity
  8
0
 62
   254
100
AcDbPolyline
 90
        2
 70
     0
 39
0.003
 10
0.057866
 20
-0.084091
 40
0.003
 41
0.003
 10
0.703
 20
0.287134
 40
0.003
 41
0.003
  0
LWPOLYLINE
  5
5E
100
AcDbEntity
  8
0
 62
   254
100
AcDbPolyline
 90
        2
 70
     0
 39
0.003
 10
0.703
 20
0.287134
 40
0.003
 41
0.003
 10
0.703
 20
-1.192421
 40
0.003
 41
0.003
  0
LWPOLYLINE
  5
5F
100
AcDbEntity
  8
0
 62
   254
100
AcDbPolyline
 90
        2
 70
     0
 39
0.003
 10
0.703
 20
-1.192421
 40
0.003
 41
0.003
 10
0.057866
 20
-1.563646
 40
0.003
 41
0.003
  0
LWPOLYLINE
  5
60
100
AcDbEntity
  8
0
 62
   254
100
AcDbPolyline
 90
        2
 70
     0
 39
0.003
 10
0.057866
 20
-1.563646
 40
0.003
 41
0.003
 10
0.057866
 20
-0.084091
 40
0.003
 41
0.003
  0
LWPOLYLINE
  5
61
100
AcDbEntity
  8
0
 62
   254
100
AcDbPolyline
 90
        2
 70
     0
 39
0.003
 10
0.057866
 20
-1.563646
 40
0.003
 41
0.003
 10
0.703
 20
-1.192421
 40
0.003
 41
0.003
  0
LWPOLYLINE
  5
62
100
AcDbEntity
  8
0
 62
   254
100
AcDbPolyline
 90
        2
 70
     0
 39
0.003
 10
0.703
 20
-1.192421
 40
0.003
 41
0.003
 10
0.702787
 20
-1.19448
 40
0.003
 41
0.003
  0
LWPOLYLINE
  5
63
100
AcDbEntity
  8
0
 62
   254
100
AcDbPolyline
 90
        2
 70
     0
 39
0.003
 10
0.702787
 20
-1.19448
 40
0.003
 41
0.003
 10
0.057654
 20
-1.565705
 40
0.003
 41
0.003
  0
LWPOLYLINE
  5
64
100
AcDbEntity
  8
0
 62
   254
100
AcDbPolyline
 90
        2
 70
     0
 39
0.003
 10
0.057654
 20
-1.565705
 40
0.003
 41
0.003
 10
0.057866
 20
-1.563646
 40
0.003
 41
0.003
  0
LWPOLYLINE
  5
65
100
AcDbEntity
  8
0
 62
     9
100
AcDbPolyline
 90
        2
 70
     0
 39
0.003
 10
0.057654
 20
-1.565705
 40
0.003
 41
0.003
 10
0.702787
 20
-1.19448
 40
0.003
 41
0.003
  0
LWPOLYLINE
  5
66
100
AcDbEntity
  8
0
 62
     9
100
AcDbPolyline
 90
        2
 70
     0
 39
0.003
 10
0.702787
 20
-1.19448
 40
0.003
 41
0.003
 10
0.702189
 20
-1.196394
 40
0.003
 41
0.003
  0
LWPOLYLINE
  5
67
100
AcDbEntity
  8
0
 62
     9
100
AcDbPolyline
 90
        2
 70
     0
 39
0.003
 10
0.702189
 20
-1.196394
 40
0.003
 41
0.003
 10
0.057055
 20
-1.567618
 40
0.003
 41
0.003
  0
LWPOLYLINE
  5
68
100
AcDbEntity
  8
0
 62
     9
100
AcDbPolyline
 90
        2
 70
     0
 39
0.003
 10
0.057055
 20
-1.567618
 40
0.003
 41
0.003
 10
0.057654
 20
-1.565705
 40
0.003
 41
0.003
  0
LWPOLYLINE
  5
69
100
AcDbEntity
  8
0
 62
     9
100
AcDbPolyline
 90
        2
 70
     0
 39
0.003
 10
0.057055
 20
-1.567618
 40
0.003
 41
0.003
 10
0.702189
 20
-1.196394
 40
0.003
 41
0.003
  0
LWPOLYLINE
  5
6A
100
AcDbEntity
  8
0
 62
     9
100
AcDbPolyline
 90
        2
 70
     0
 39
0.003
 10
0.702189
 20
-1.196394
 40
0.003
 41
0.003
 10
0.70124
 20
-1.198134
 40
0.003
 41
0.003
  0
LWPOLYLINE
  5
6B
100
AcDbEntity
  8
0
 62
     9
100
AcDbPolyline
 90
        2
 70
     0
 39
0.003
 10
0.70124
 20
-1.198134
 40
0.003
 41
0.003
 10
0.056106
 20
-1.569358
 40
0.003
 41
0.003
  0
LWPOLYLINE
  5
6C
100
AcDbEntity
  8
0
 62
     9
100
AcDbPolyline
 90
        2
 70
     0
 39
0.003
 10
0.056106
 20
-1.569358
 40
0.003
 41
0.003
 10
0.057055
 20
-1.567618
 40
0.003
 41
0.003
  0
LWPOLYLINE
  5
6D
100
AcDbEntity
  8
0
 62
     9
100
AcDbPolyline
 90
        2
 70
     0
 39
0.003
 10
0.056106
 20
-1.569358
 40
0.003
 41
0.003
 10
0.70124
 20
-1.198134
 40
0.003
 41
0.003
  0
LWPOLYLINE
  5
6E
100
AcDbEntity
  8
0
 62
     9
100
AcDbPolyline
 90
        2
 70
     0
 39
0.003
 10
0.70124
 20
-1.198134
 40
0.003
 41
0.003
 10
0.699992
 20
-1.199646
 40
0.003
 41
0.003
  0
LWPOLYLINE
  5
6F
100
AcDbEntity
  8
0
 62
     9
100
AcDbPolyline
 90
        2
 70
     0
 39
0.003
 10
0.699992
 20
-1.199646
 40
0.003
 41
0.003
 10
0.054858
 20
-1.57087
 40
0.003
 41
0.003
  0
LWPOLYLINE
  5
70
100
AcDbEntity
  8
0
 62
     9
100
AcDbPolyline
 90
        2
 70
     0
 39
0.003
 10
0.054858
 20
-1.57087
 40
0.003
 41
0.003
 10
0.056106
 20
-1.569358
 40
0.003
 41
0.003
  0
LWPOLYLINE
  5
71
100
AcDbEntity
  8
0
 62
     9
100
AcDbPolyline
 90
        2
 70
     0
 39
0.003
 10
0.054858
 20
-1.57087
 40
0.003
 41
0.003
 10
0.699992
 20
-1.199646
 40
0.003
 41
0.003
  0
LWPOLYLINE
  5
72
100
AcDbEntity
  8
0
 62
     9
100
AcDbPolyline
 90
        2
 70
     0
 39
0.003
 10
0.699992
 20
-1.199646
 40
0.003
 41
0.003
 10
0.698476
 20
-1.200902
 40
0.003
 41
0.003
  0
LWPOLYLINE
  5
73
100
AcDbEntity
  8
0
 62
     9
100
AcDbPolyline
 90
        2
 70
     0
 39
0.003
 10
0.698476
 20
-1.200902
 40
0.003
 41
0.003
 10
0.053343
 20
-1.572126
 40
0.003
 41
0.003
  0
LWPOLYLINE
  5
74
100
AcDbEntity
  8
0
 62
     9
100
AcDbPolyline
 90
        2
 70
     0
 39
0.003
 10
0.053343
 20
-1.572126
 40
0.003
 41
0.003
 10
0.054858
 20
-1.57087
 40
0.003
 41
0.003
  0
LWPOLYLINE
  5
75
100
AcDbEntity
  8
0
 62
     0
100
AcDbPolyline
 90
        2
 70
     0
 39
0.003
 10
-0.819598
 20
-0.074677
 40
0.003
 41
0.003
 10
-0.174465
 20
0.296547
 40
0.003
 41
0.003
  0
LWPOLYLINE
  5
76
100
AcDbEntity
  8
0
 62
     0
100
AcDbPolyline
 90
        2
 70
     0
 39
0.003
 10
-0.174465
 20
0.296547
 40
0.003
 41
0.003
 10
-0.172551
 20
0.297142
 40
0.003
 41
0.003
  0
LWPOLYLINE
  5
77
100
AcDbEntity
  8
0
 62
     0
100
AcDbPolyline
 90
        2
 70
     0
 39
0.003
 10
-0.172551
 20
0.297142
 40
0.003
 41
0.003
 10
-0.170492
 20
0.297354
 40
0.003
 41
0.003
  0
LWPOLYLINE
  5
78
100
AcDbEntity
  8
0
 62
     0
100
AcDbPolyline
 90
        2
 70
     0
 39
0.003
 10
-0.170492
 20
0.297354
 40
0.003
 41
0.003
 10
0.692776
 20
0.297354
 40
0.003
 41
0.003
  0
LWPOLYLINE
  5
79
100
AcDbEntity
  8
0
 62
     0
100
AcDbPolyline
 90
        2
 70
     0
 39
0.003
 10
0.692776
 20
0.297354
 40
0.003
 41
0.003
 10
0.694823
 20
0.297142
 40
0.003
 41
0.003
  0
LWPOLYLINE
  5
7A
100
AcDbEntity
  8
0
 62
     0
100
AcDbPolyline
 90
        2
 70
     0
 39
0.003
 10
0.694823
 20
0.297142
 40
0.003
 41
0.003
 10
0.69674
 20
0.296547
 40
0.003
 41
0.003
  0
LWPOLYLINE
  5
7B
100
AcDbEntity
  8
0
 62
     0
100
AcDbPolyline
 90
        2
 70
     0
 39
0.003
 10
0.69674
 20
0.296547
 40
0.003
 41
0.003
 10
0.698476
 20
0.295598
 40
0.003
 41
0.003
  0
LWPOLYLINE
  5
7C
100
AcDbEntity
  8
0
 62
     0
100
AcDbPolyline
 90
        2
 70
     0
 39
0.003
 10
0.698476
 20
0.295598
 40
0.003
 41
0.003
 10
0.699992
 20
0.29435
 40
0.003
 41
0.003
  0
LWPOLYLINE
  5
7D
100
AcDbEntity
  8
0
 62
     0
100
AcDbPolyline
 90
        2
 70
     0
 39
0.003
 10
0.699992
 20
0.29435
 40
0.003
 41
0.003
 10
0.70124
 20
0.292835
 40
0.003
 41
0.003
  0
LWPOLYLINE
  5
7E
100
AcDbEntity
  8
0
 62
     0
100
AcDbPolyline
 90
        2
 70
     0
 39
0.003
 10
0.70124
 20
0.292835
 40
0.003
 41
0.003
 10
0.702189
 20
0.291098
 40
0.003
 41
0.003
  0
LWPOLYLINE
  5
7F
100
AcDbEntity
  8
0
 62
     0
100
AcDbPolyline
 90
        2
 70
     0
 39
0.003
 10
0.702189
 20
0.291098
 40
0.003
 41
0.003
 10
0.702787
 20
0.289181
 40
0.003
 41
0.003
  0
LWPOLYLINE
  5
80
100
AcDbEntity
  8
0
 62
     0
100
AcDbPolyline
 90
        2
 70
     0
 39
0.003
 10
0.702787
 20
0.289181
 40
0.003
 41
0.003
 10
0.703
 20
0.287134
 40
0.003
 41
0.003
  0
LWPOLYLINE
  5
81
100
AcDbEntity
  8
0
 62
     0
100
AcDbPolyline
 90
        2
 70
     0
 39
0.003
 10
0.703
 20
0.287134
 40
0.003
 41
0.003
 10
0.703
 20
-1.192421
 40
0.003
 41
0.003
  0
LWPOLYLINE
  5
82
100
AcDbEntity
  8
0
 62
     0
100
AcDbPolyline
 90
        2
 70
     0
 39
0.003
 10
0.703
 20
-1.192421
 40
0.003
 41
0.003
 10
0.702787
 20
-1.19448
 40
0.003
 41
0.003
  0
LWPOLYLINE
  5
83
100
AcDbEntity
  8
0
 62
     0
100
AcDbPolyline
 90
        2
 70
     0
 39
0.003
 10
0.702787
 20
-1.19448
 40
0.003
 41
0.003
 10
0.702189
 20
-1.196394
 40
0.003
 41
0.003
  0
LWPOLYLINE
  5
84
100
AcDbEntity
  8
0
 62
     0
100
AcDbPolyline
 90
        2
 70
     0
 39
0.003
 10
0.702189
 20
-1.196394
 40
0.003
 41
0.003
 10
0.70124
 20
-1.198134
 40
0.003
 41
0.003
  0
LWPOLYLINE
  5
85
100
AcDbEntity
  8
0
 62
     0
100
AcDbPolyline
 90
        2
 70
     0
 39
0.003
 10
0.70124
 20
-1.198134
 40
0.003
 41
0.003
 10
0.699992
 20
-1.199646
 40
0.003
 41
0.003
  0
LWPOLYLINE
  5
86
100
AcDbEntity
  8
0
 62
     0
100
AcDbPolyline
 90
        2
 70
     0
 39
0.003
 10
0.699992
 20
-1.199646
 40
0.003
 41
0.003
 10
0.698476
 20
-1.200902
 40
0.003
 41
0.003
  0
LWPOLYLINE
  5
87
100
AcDbEntity
  8
0
 62
     0
100
AcDbPolyline
 90
        2
 70
     0
 39
0.003
 10
0.698476
 20
-1.200902
 40
0.003
 41
0.003
 10
0.053343
 20
-1.572126
 40
0.003
 41
0.003
  0
LWPOLYLINE
  5
88
100
AcDbEntity
  8
0
 62
     0
100
AcDbPolyline
 90
        2
 70
     0
 39
0.003
 10
0.053343
 20
-1.572126
 40
0.003
 41
0.003
 10
0.054858
 20
-1.57087
 40
0.003
 41
0.003
  0
LWPOLYLINE
  5
89
100
AcDbEntity
  8
0
 62
     0
100
AcDbPolyline
 90
        2
 70
     0
 39
0.003
 10
0.054858
 20
-1.57087
 40
0.003
 41
0.003
 10
0.056106
 20
-1.569358
 40
0.003
 41
0.003
  0
LWPOLYLINE
  5
8A
100
AcDbEntity
  8
0
 62
     0
100
AcDbPolyline
 90
        2
 70
     0
 39
0.003
 10
0.056106
 20
-1.569358
 40
0.003
 41
0.003
 10
0.057055
 20
-1.567618
 40
0.003
 41
0.003
  0
LWPOLYLINE
  5
8B
100
AcDbEntity
  8
0
 62
     0
100
AcDbPolyline
 90
        2
 70
     0
 39
0.003
 10
0.057055
 20
-1.567618
 40
0.003
 41
0.003
 10
0.057654
 20
-1.565705
 40
0.003
 41
0.003
  0
LWPOLYLINE
  5
8C
100
AcDbEntity
  8
0
 62
     0
100
AcDbPolyline
 90
        2
 70
     0
 39
0.003
 10
0.057654
 20
-1.565705
 40
0.003
 41
0.003
 10
0.057866
 20
-1.563646
 40
0.003
 41
0.003
  0
LWPOLYLINE
  5
8D
100
AcDbEntity
  8
0
 62
     0
100
AcDbPolyline
 90
        2
 70
     0
 39
0.003
 10
0.057866
 20
-1.563646
 40
0.003
 41
0.003
 10
0.057866
 20
-0.084091
 40
0.003
 41
0.003
  0
LWPOLYLINE
  5
8E
100
AcDbEntity
  8
0
 62
     0
100
AcDbPolyline
 90
        2
 70
     0
 39
0.003
 10
0.057866
 20
-0.084091
 40
0.003
 41
0.003
 10
0.057654
 20
-0.082043
 40
0.003
 41
0.003
  0
LWPOLYLINE
  5
8F
100
AcDbEntity
  8
0
 62
     0
100
AcDbPolyline
 90
        2
 70
     0
 39
0.003
 10
0.057654
 20
-0.082043
 40
0.003
 41
0.003
 10
0.057055
 20
-0.080126
 40
0.003
 41
0.003
  0
LWPOLYLINE
  5
90
100
AcDbEntity
  8
0
 62
     0
100
AcDbPolyline
 90
        2
 70
     0
 39
0.003
 10
0.057055
 20
-0.080126
 40
0.003
 41
0.003
 10
0.056106
 20
-0.07839
 40
0.003
 41
0.003
  0
LWPOLYLINE
  5
91
100
AcDbEntity
  8
0
 62
     0
100
AcDbPolyline
 90
        2
 70
     0
 39
0.003
 10
0.056106
 20
-0.07839
 40
0.003
 41
0.003
 10
0.054858
 20
-0.076874
 40
0.003
 41
0.003
  0
LWPOLYLINE
  5
92
100
AcDbEntity
  8
0
 62
     0
100
AcDbPolyline
 90
        2
 70
     0
 39
0.003
 10
0.054858
 20
-0.076874
 40
0.003
 41
0.003
 10
0.053343
 20
-0.075626
 40
0.003
 41
0.003
  0
LWPOLYLINE
  5
93
100
AcDbEntity
  8
0
 62
     0
100
AcDbPolyline
 90
        2
 70
     0
 39
0.003
 10
0.053343
 20
-0.075626
 40
0.003
 41
0.003
 10
0.051606
 20
-0.074677
 40
0.003
 41
0.003
  0
LWPOLYLINE
  5
94
100
AcDbEntity
  8
0
 62
     0
100
AcDbPolyline
 90
        2
 70
     0
 39
0.003
 10
0.051606
 20
-0.074677
 40
0.003
 41
0.003
 10
0.049689
 20
-0.074083
 40
0.003
 41
0.003
  0
LWPOLYLINE
  5
95
100
AcDbEntity
  8
0
 62
     0
100
AcDbPolyline
 90
        2
 70
     0
 39
0.003
 10
0.049689
 20
-0.074083
 40
0.003
 41
0.003
 10
0.047642
 20
-0.07387
 40
0.003
 41
0.003
  0
LWPOLYLINE
  5
96
100
AcDbEntity
  8
0
 62
     0
100
AcDbPolyline
 90
        2
 70
     0
 39
0.003
 10
0.047642
 20
-0.07387
 40
0.003
 41
0.003
 10
-0.815626
 20
-0.07387
 40
0.003
 41
0.003
  0
LWPOLYLINE
  5
97
100
AcDbEntity
  8
0
 62
     0
100
AcDbPolyline
 90
        2
 70
     0
 39
0.003
 10
-0.815626
 20
-0.07387
 40
0.003
 41
0.003
 10
-0.817685
 20
-0.074083
 40
0.003
 41
0.003
  0
LWPOLYLINE
  5
98
100
AcDbEntity
  8
0
 62
     0
100
AcDbPolyline
 90
        2
 70
     0
 39
0.003
 10
-0.817685
 20
-0.074083
 40
0.003
 41
0.003
 10
-0.819598
 20
-0.074677
 40
0.003
 41
0.003
  0
LWPOLYLINE
  5
99
100
AcDbEntity
  8
0
 62
   127
100
AcDbPolyline
 90
        2
 70
     0
 39
0.003
 10
-0.819598
 20
-0.074677
 40
0.003
 41
0.003
 10
-0.174465
 20
0.296547
 40
0.003
 41
0.003
  0
LWPOLYLINE
  5
9A
100
AcDbEntity
  8
0
 62
   127
100
AcDbPolyline
 90
        2
 70
     0
 39
0.003
 10
-0.174465
 20
0.296547
 40
0.003
 41
0.003
 10
-0.172551
 20
0.297142
 40
0.003
 41
0.003
  0
LWPOLYLINE
  5
9B
100
AcDbEntity
  8
0
 62
   127
100
AcDbPolyline
 90
        2
 70
     0
 39
0.003
 10
-0.172551
 20
0.297142
 40
0.003
 41
0.003
 10
-0.817685
 20
-0.074083
 40
0.003
 41
0.003
  0
LWPOLYLINE
  5
9C
100
AcDbEntity
  8
0
 62
   127
100
AcDbPolyline
 90
        2
 70
     0
 39
0.003
 10
-0.817685
 20
-0.074083
 40
0.003
 41
0.003
 10
-0.819598
 20
-0.074677
 40
0.003
 41
0.003
  0
LWPOLYLINE
  5
9D
100
AcDbEntity
  8
0
 62
   253
100
AcDbPolyline
 90
        2
 70
     0
 39
0.003
 10
-0.817685
 20
-0.074083
 40
0.003
 41
0.003
 10
-0.172551
 20
0.297142
 40
0.003
 41
0.003
  0
LWPOLYLINE
  5
9E
100
AcDbEntity
  8
0
 62
   253
100
AcDbPolyline
 90
        2
 70
     0
 39
0.003
 10
-0.172551
 20
0.297142
 40
0.003
 41
0.003
 10
-0.170492
 20
0.297354
 40
0.003
 41
0.003
  0
LWPOLYLINE
  5
9F
100
AcDbEntity
  8
0
 62
   253
100
AcDbPolyline
 90
        2
 70
     0
 39
0.003
 10
-0.170492
 20
0.297354
 40
0.003
 41
0.003
 10
-0.815626
 20
-0.07387
 40
0.003
 41
0.003
  0
LWPOLYLINE
  5
A0
100
AcDbEntity
  8
0
 62
   253
100
AcDbPolyline
 90
        2
 70
     0
 39
0.003
 10
-0.815626
 20
-0.07387
 40
0.003
 41
0.003
 10
-0.817685
 20
-0.074083
 40
0.003
 41
0.003
  0
LWPOLYLINE
  5
A1
100
AcDbEntity
  8
0
 62
   253
100
AcDbPolyline
 90
        2
 70
     0
 39
0.003
 10
-0.815626
 20
-0.07387
 40
0.003
 41
0.003
 10
-0.170492
 20
0.297354
 40
0.003
 41
0.003
  0
LWPOLYLINE
  5
A2
100
AcDbEntity
  8
0
 62
   253
100
AcDbPolyline
 90
        2
 70
     0
 39
0.003
 10
-0.170492
 20
0.297354
 40
0.003
 41
0.003
 10
0.692776
 20
0.297354
 40
0.003
 41
0.003
  0
LWPOLYLINE
  5
A3
100
AcDbEntity
  8
0
 62
   253
100
AcDbPolyline
 90
        2
 70
     0
 39
0.003
 10
0.692776
 20
0.297354
 40
0.003
 41
0.003
 10
0.047642
 20
-0.07387
 40
0.003
 41
0.003
  0
LWPOLYLINE
  5
A4
100
AcDbEntity
  8
0
 62
   253
100
AcDbPolyline
 90
        2
 70
     0
 39
0.003
 10
0.047642
 20
-0.07387
 40
0.003
 41
0.003
 10
-0.815626
 20
-0.07387
 40
0.003
 41
0.003
  0
LWPOLYLINE
  5
A5
100
AcDbEntity
  8
0
 62
     9
100
AcDbPolyline
 90
        2
 70
     0
 39
0.003
 10
0.047642
 20
-0.07387
 40
0.003
 41
0.003
 10
0.692776
 20
0.297354
 40
0.003
 41
0.003
  0
LWPOLYLINE
  5
A6
100
AcDbEntity
  8
0
 62
     9
100
AcDbPolyline
 90
        2
 70
     0
 39
0.003
 10
0.692776
 20
0.297354
 40
0.003
 41
0.003
 10
0.694823
 20
0.297142
 40
0.003
 41
0.003
  0
LWPOLYLINE
  5
A7
100
AcDbEntity
  8
0
 62
     9
100
AcDbPolyline
 90
        2
 70
     0
 39
0.003
 10
0.694823
 20
0.297142
 40
0.003
 41
0.003
 10
0.049689
 20
-0.074083
 40
0.003
 41
0.003
  0
LWPOLYLINE
  5
A8
100
AcDbEntity
  8
0
 62
     9
100
AcDbPolyline
 90
        2
 70
     0
 39
0.003
 10
0.049689
 20
-0.074083
 40
0.003
 41
0.003
 10
0.047642
 20
-0.07387
 40
0.003
 41
0.003
  0
LWPOLYLINE
  5
A9
100
AcDbEntity
  8
0
 62
     9
100
AcDbPolyline
 90
        2
 70
     0
 39
0.003
 10
0.049689
 20
-0.074083
 40
0.003
 41
0.003
 10
0.694823
 20
0.297142
 40
0.003
 41
0.003
  0
LWPOLYLINE
  5
AA
100
AcDbEntity
  8
0
 62
     9
100
AcDbPolyline
 90
        2
 70
     0
 39
0.003
 10
0.694823
 20
0.297142
 40
0.003
 41
0.003
 10
0.69674
 20
0.296547
 40
0.003
 41
0.003
  0
LWPOLYLINE
  5
AB
100
AcDbEntity
  8
0
 62
     9
100
AcDbPolyline
 90
        2
 70
     0
 39
0.003
 10
0.69674
 20
0.296547
 40
0.003
 41
0.003
 10
0.051606
 20
-0.074677
 40
0.003
 41
0.003
  0
LWPOLYLINE
  5
AC
100
AcDbEntity
  8
0
 62
     9
100
AcDbPolyline
 90
        2
 70
     0
 39
0.003
 10
0.051606
 20
-0.074677
 40
0.003
 41
0.003
 10
0.049689
 20
-0.074083
 40
0.003
 41
0.003
  0
LWPOLYLINE
  5
AD
100
AcDbEntity
  8
0
 62
     9
100
AcDbPolyline
 90
        2
 70
     0
 39
0.003
 10
0.051606
 20
-0.074677
 40
0.003
 41
0.003
 10
0.69674
 20
0.296547
 40
0.003
 41
0.003
  0
LWPOLYLINE
  5
AE
100
AcDbEntity
  8
0
 62
     9
100
AcDbPolyline
 90
        2
 70
     0
 39
0.003
 10
0.69674
 20
0.296547
 40
0.003
 41
0.003
 10
0.698476
 20
0.295598
 40
0.003
 41
0.003
  0
LWPOLYLINE
  5
AF
100
AcDbEntity
  8
0
 62
     9
100
AcDbPolyline
 90
        2
 70
     0
 39
0.003
 10
0.698476
 20
0.295598
 40
0.003
 41
0.003
 10
0.053343
 20
-0.075626
 40
0.003
 41
0.003
  0
LWPOLYLINE
  5
B0
100
AcDbEntity
  8
0
 62
     9
100
AcDbPolyline
 90
        2
 70
     0
 39
0.003
 10
0.053343
 20
-0.075626
 40
0.003
 41
0.003
 10
0.051606
 20
-0.074677
 40
0.003
 41
0.003
  0
LWPOLYLINE
  5
B1
100
AcDbEntity
  8
0
 62
     9
100
AcDbPolyline
 90
        2
 70
     0
 39
0.003
 10
0.053343
 20
-0.075626
 40
0.003
 41
0.003
 10
0.698476
 20
0.295598
 40
0.003
 41
0.003
  0
LWPOLYLINE
  5
B2
100
AcDbEntity
  8
0
 62
     9
100
AcDbPolyline
 90
        2
 70
     0
 39
0.003
 10
0.698476
 20
0.295598
 40
0.003
 41
0.003
 10
0.699992
 20
0.29435
 40
0.003
 41
0.003
  0
LWPOLYLINE
  5
B3
100
AcDbEntity
  8
0
 62
     9
100
AcDbPolyline
 90
        2
 70
     0
 39
0.003
 10
0.699992
 20
0.29435
 40
0.003
 41
0.003
 10
0.054858
 20
-0.076874
 40
0.003
 41
0.003
  0
LWPOLYLINE
  5
B4
100
AcDbEntity
  8
0
 62
     9
100
AcDbPolyline
 90
        2
 70
     0
 39
0.003
 10
0.054858
 20
-0.076874
 40
0.003
 41
0.003
 10
0.053343
 20
-0.075626
 40
0.003
 41
0.003
  0
LWPOLYLINE
  5
B5
100
AcDbEntity
  8
0
 62
     9
100
AcDbPolyline
 90
        2
 70
     0
 39
0.003
 10
0.054858
 20
-0.076874
 40
0.003
 41
0.003
 10
0.699992
 20
0.29435
 40
0.003
 41
0.003
  0
LWPOLYLINE
  5
B6
100
AcDbEntity
  8
0
 62
     9
100
AcDbPolyline
 90
        2
 70
     0
 39
0.003
 10
0.699992
 20
0.29435
 40
0.003
 41
0.003
 10
0.70124
 20
0.292835
 40
0.003
 41
0.003
  0
LWPOLYLINE
  5
B7
100
AcDbEntity
  8
0
 62
     9
100
AcDbPolyline
 90
        2
 70
     0
 39
0.003
 10
0.70124
 20
0.292835
 40
0.003
 41
0.003
 10
0.056106
 20
-0.07839
 40
0.003
 41
0.003
  0
LWPOLYLINE
  5
B8
100
AcDbEntity
  8
0
 62
     9
100
AcDbPolyline
 90
        2
 70
     0
 39
0.003
 10
0.056106
 20
-0.07839
 40
0.003
 41
0.003
 10
0.054858
 20
-0.076874
 40
0.003
 41
0.003
  0
LWPOLYLINE
  5
B9
100
AcDbEntity
  8
0
 62
     9
100
AcDbPolyline
 90
        2
 70
     0
 39
0.003
 10
0.056106
 20
-0.07839
 40
0.003
 41
0.003
 10
0.70124
 20
0.292835
 40
0.003
 41
0.003
  0
LWPOLYLINE
  5
BA
100
AcDbEntity
  8
0
 62
     9
100
AcDbPolyline
 90
        2
 70
     0
 39
0.003
 10
0.70124
 20
0.292835
 40
0.003
 41
0.003
 10
0.702189
 20
0.291098
 40
0.003
 41
0.003
  0
LWPOLYLINE
  5
BB
100
AcDbEntity
  8
0
 62
     9
100
AcDbPolyline
 90
        2
 70
     0
 39
0.003
 10
0.702189
 20
0.291098
 40
0.003
 41
0.003
 10
0.057055
 20
-0.080126
 40
0.003
 41
0.003
  0
LWPOLYLINE
  5
BC
100
AcDbEntity
  8
0
 62
     9
100
AcDbPolyline
 90
        2
 70
     0
 39
0.003
 10
0.057055
 20
-0.080126
 40
0.003
 41
0.003
 10
0.056106
 20
-0.07839
 40
0.003
 41
0.003
  0
LWPOLYLINE
  5
BD
100
AcDbEntity
  8
0
 62
   254
100
AcDbPolyline
 90
        2
 70
     0
 39
0.003
 10
0.057055
 20
-0.080126
 40
0.003
 41
0.003
 10
0.702189
 20
0.291098
 40
0.003
 41
0.003
  0
LWPOLYLINE
  5
BE
100
AcDbEntity
  8
0
 62
   254
100
AcDbPolyline
 90
        2
 70
     0
 39
0.003
 10
0.702189
 20
0.291098
 40
0.003
 41
0.003
 10
0.702787
 20
0.289181
 40
0.003
 41
0.003
  0
LWPOLYLINE
  5
BF
100
AcDbEntity
  8
0
 62
   254
100
AcDbPolyline
 90
        2
 70
     0
 39
0.003
 10
0.702787
 20
0.289181
 40
0.003
 41
0.003
 10
0.057654
 20
-0.082043
 40
0.003
 41
0.003
  0
LWPOLYLINE
  5
C0
100
AcDbEntity
  8
0
 62
   254
100
AcDbPolyline
 90
        2
 70
     0
 39
0.003
 10
0.057654
 20
-0.082043
 40
0.003
 41
0.003
 10
0.057055
 20
-0.080126
 40
0.003
 41
0.003
  0
LWPOLYLINE
  5
C1
100
AcDbEntity
  8
0
 62
   254
100
AcDbPolyline
 90
        2
 70
     0
 39
0.003
 10
0.057654
 20
-0.082043
 40
0.003
 41
0.003
 10
0.702787
 20
0.289181
 40
0.003
 41
0.003
  0
LWPOLYLINE
  5
C2
100
AcDbEntity
  8
0
 62
   254
100
AcDbPolyline
 90
        2
 70
     0
 39
0.003
 10
0.702787
 20
0.289181
 40
0.003
 41
0.003
 10
0.703
 20
0.287134
 40
0.003
 41
0.003
  0
LWPOLYLINE
  5
C3
100
AcDbEntity
  8
0
 62
   254
100
AcDbPolyline
 90
        2
 70
     0
 39
0.003
 10
0.703
 20
0.287134
 40
0.003
 41
0.003
 10
0.057866
 20
-0.084091
 40
0.003
 41
0.003
  0
LWPOLYLINE
  5
C4
100
AcDbEntity
  8
0
 62
   254
100
AcDbPolyline
 90
        2
 70
     0
 39
0.003
 10
0.057866
 20
-0.084091
 40
0.003
 41
0.003
 10
0.057654
 20
-0.082043
 40
0.003
 41
0.003
  0
LWPOLYLINE
  5
C5
100
AcDbEntity
  8
0
 62
   254
100
AcDbPolyline
 90
        2
 70
     0
 39
0.003
 10
0.057866
 20
-0.084091
 40
0.003
 41
0.003
 10
0.703
 20
0.287134
 40
0.003
 41
0.003
  0
LWPOLYLINE
  5
C6
100
AcDbEntity
  8
0
 62
   254
100
AcDbPolyline
 90
        2
 70
     0
 39
0.003
 10
0.703
 20
0.287134
 40
0.003
 41
0.003
 10
0.703
 20
-1.192421
 40
0.003
 41
0.003
  0
LWPOLYLINE
  5
C7
100
AcDbEntity
  8
0
 62
   254
100
AcDbPolyline
 90
        2
 70
     0
 39
0.003
 10
0.703
 20
-1.192421
 40
0.003
 41
0.003
 10
0.057866
 20
-1.563646
 40
0.003
 41
0.003
  0
LWPOLYLINE
  5
C8
100
AcDbEntity
  8
0
 62
   254
100
AcDbPolyline
 90
        2
 70
     0
 39
0.003
 10
0.057866
 20
-1.563646
 40
0.003
 41
0.003
 10
0.057866
 20
-0.084091
 40
0.003
 41
0.003
  0
LWPOLYLINE
  5
C9
100
AcDbEntity
  8
0
 62
   254
100
AcDbPolyline
 90
        2
 70
     0
 39
0.003
 10
0.057866
 20
-1.563646
 40
0.003
 41
0.003
 10
0.703
 20
-1.192421
 40
0.003
 41
0.003
  0
LWPOLYLINE
  5
CA
100
AcDbEntity
  8
0
 62
   254
100
AcDbPolyline
 90
        2
 70
     0
 39
0.003
 10
0.703
 20
-1.192421
 40
0.003
 41
0.003
 10
0.702787
 20
-1.19448
 40
0.003
 41
0.003
  0
LWPOLYLINE
  5
CB
100
AcDbEntity
  8
0
 62
   254
100
AcDbPolyline
 90
        2
 70
     0
 39
0.003
 10
0.702787
 20
-1.19448
 40
0.003
 41
0.003
 10
0.057654
 20
-1.565705
 40
0.003
 41
0.003
  0
LWPOLYLINE
  5
CC
100
AcDbEntity
  8
0
 62
   254
100
AcDbPolyline
 90
        2
 70
     0
 39
0.003
 10
0.057654
 20
-1.565705
 40
0.003
 41
0.003
 10
0.057866
 20
-1.563646
 40
0.003
 41
0.003
  0
LWPOLYLINE
  5
CD
100
AcDbEntity
  8
0
 62
     9
100
AcDbPolyline
 90
        2
 70
     0
 39
0.003
 10
0.057654
 20
-1.565705
 40
0.003
 41
0.003
 10
0.702787
 20
-1.19448
 40
0.003
 41
0.003
  0
LWPOLYLINE
  5
CE
100
AcDbEntity
  8
0
 62
     9
100
AcDbPolyline
 90
        2
 70
     0
 39
0.003
 10
0.702787
 20
-1.19448
 40
0.003
 41
0.003
 10
0.702189
 20
-1.196394
 40
0.003
 41
0.003
  0
LWPOLYLINE
  5
CF
100
AcDbEntity
  8
0
 62
     9
100
AcDbPolyline
 90
        2
 70
     0
 39
0.003
 10
0.702189
 20
-1.196394
 40
0.003
 41
0.003
 10
0.057055
 20
-1.567618
 40
0.003
 41
0.003
  0
LWPOLYLINE
  5
D0
100
AcDbEntity
  8
0
 62
     9
100
AcDbPolyline
 90
        2
 70
     0
 39
0.003
 10
0.057055
 20
-1.567618
 40
0.003
 41
0.003
 10
0.057654
 20
-1.565705
 40
0.003
 41
0.003
  0
LWPOLYLINE
  5
D1
100
AcDbEntity
  8
0
 62
     9
100
AcDbPolyline
 90
        2
 70
     0
 39
0.003
 10
0.057055
 20
-1.567618
 40
0.003
 41
0.003
 10
0.702189
 20
-1.196394
 40
0.003
 41
0.003
  0
LWPOLYLINE
  5
D2
100
AcDbEntity
  8
0
 62
     9
100
AcDbPolyline
 90
        2
 70
     0
 39
0.003
 10
0.702189
 20
-1.196394
 40
0.003
 41
0.003
 10
0.70124
 20
-1.198134
 40
0.003
 41
0.003
  0
LWPOLYLINE
  5
D3
100
AcDbEntity
  8
0
 62
     9
100
AcDbPolyline
 90
        2
 70
     0
 39
0.003
 10
0.70124
 20
-1.198134
 40
0.003
 41
0.003
 10
0.056106
 20
-1.569358
 40
0.003
 41
0.003
  0
LWPOLYLINE
  5
D4
100
AcDbEntity
  8
0
 62
     9
100
AcDbPolyline
 90
        2
 70
     0
 39
0.003
 10
0.056106
 20
-1.569358
 40
0.003
 41
0.003
 10
0.057055
 20
-1.567618
 40
0.003
 41
0.003
  0
LWPOLYLINE
  5
D5
100
AcDbEntity
  8
0
 62
     9
100
AcDbPolyline
 90
        2
 70
     0
 39
0.003
 10
0.056106
 20
-1.569358
 40
0.003
 41
0.003
 10
0.70124
 20
-1.198134
 40
0.003
 41
0.003
  0
LWPOLYLINE
  5
D6
100
AcDbEntity
  8
0
 62
     9
100
AcDbPolyline
 90
        2
 70
     0
 39
0.003
 10
0.70124
 20
-1.198134
 40
0.003
 41
0.003
 10
0.699992
 20
-1.199646
 40
0.003
 41
0.003
  0
LWPOLYLINE
  5
D7
100
AcDbEntity
  8
0
 62
     9
100
AcDbPolyline
 90
        2
 70
     0
 39
0.003
 10
0.699992
 20
-1.199646
 40
0.003
 41
0.003
 10
0.054858
 20
-1.57087
 40
0.003
 41
0.003
  0
LWPOLYLINE
  5
D8
100
AcDbEntity
  8
0
 62
     9
100
AcDbPolyline
 90
        2
 70
     0
 39
0.003
 10
0.054858
 20
-1.57087
 40
0.003
 41
0.003
 10
0.056106
 20
-1.569358
 40
0.003
 41
0.003
  0
LWPOLYLINE
  5
D9
100
AcDbEntity
  8
0
 62
     9
100
AcDbPolyline
 90
        2
 70
     0
 39
0.003
 10
0.054858
 20
-1.57087
 40
0.003
 41
0.003
 10
0.699992
 20
-1.199646
 40
0.003
 41
0.003
  0
LWPOLYLINE
  5
DA
100
AcDbEntity
  8
0
 62
     9
100
AcDbPolyline
 90
        2
 70
     0
 39
0.003
 10
0.699992
 20
-1.199646
 40
0.003
 41
0.003
 10
0.698476
 20
-1.200902
 40
0.003
 41
0.003
  0
LWPOLYLINE
  5
DB
100
AcDbEntity
  8
0
 62
     9
100
AcDbPolyline
 90
        2
 70
     0
 39
0.003
 10
0.698476
 20
-1.200902
 40
0.003
 41
0.003
 10
0.053343
 20
-1.572126
 40
0.003
 41
0.003
  0
LWPOLYLINE
  5
DC
100
AcDbEntity
  8
0
 62
     9
100
AcDbPolyline
 90
        2
 70
     0
 39
0.003
 10
0.053343
 20
-1.572126
 40
0.003
 41
0.003
 10
0.054858
 20
-1.57087
 40
0.003
 41
0.003
  0
LWPOLYLINE
  5
DD
100
AcDbEntity
  8
0
 62
     0
100
AcDbPolyline
 90
        2
 70
     0
 39
0.003
 10
-0.819598
 20
-0.074677
 40
0.003
 41
0.003
 10
-0.174465
 20
0.296547
 40
0.003
 41
0.003
  0
LWPOLYLINE
  5
DE
100
AcDbEntity
  8
0
 62
     0
100
AcDbPolyline
 90
        2
 70
     0
 39
0.003
 10
-0.174465
 20
0.296547
 40
0.003
 41
0.003
 10
-0.172551
 20
0.297142
 40
0.003
 41
0.003
  0
LWPOLYLINE
  5
DF
100
AcDbEntity
  8
0
 62
     0
100
AcDbPolyline
 90
        2
 70
     0
 39
0.003
 10
-0.172551
 20
0.297142
 40
0.003
 41
0.003
 10
-0.170492
 20
0.297354
 40
0.003
 41
0.003
  0
LWPOLYLINE
  5
E0
100
AcDbEntity
  8
0
 62
     0
100
AcDbPolyline
 90
        2
 70
     0
 39
0.003
 10
-0.170492
 20
0.297354
 40
0.003
 41
0.003
 10
0.692776
 20
0.297354
 40
0.003
 41
0.003
  0
LWPOLYLINE
  5
E1
100
AcDbEntity
  8
0
 62
     0
100
AcDbPolyline
 90
        2
 70
     0
 39
0.003
 10
0.692776
 20
0.297354
 40
0.003
 41
0.003
 10
0.694823
 20
0.297142
 40
0.003
 41
0.003
  0
LWPOLYLINE
  5
E2
100
AcDbEntity
  8
0
 62
     0
100
AcDbPolyline
 90
        2
 70
     0
 39
0.003
 10
0.694823
 20
0.297142
 40
0.003
 41
0.003
 10
0.69674
 20
0.296547
 40
0.003
 41
0.003
  0
LWPOLYLINE
  5
E3
100
AcDbEntity
  8
0
 62
     0
100
AcDbPolyline
 90
        2
 70
     0
 39
0.003
 10
0.69674
 20
0.296547
 40
0.003
 41
0.003
 10
0.698476
 20
0.295598
 40
0.003
 41
0.003
  0
LWPOLYLINE
  5
E4
100
AcDbEntity
  8
0
 62
     0
100
AcDbPolyline
 90
        2
 70
     0
 39
0.003
 10
0.698476
 20
0.295598
 40
0.003
 41
0.003
 10
0.699992
 20
0.29435
 40
0.003
 41
0.003
  0
LWPOLYLINE
  5
E5
100
AcDbEntity
  8
0
 62
     0
100
AcDbPolyline
 90
        2
 70
     0
 39
0.003
 10
0.699992
 20
0.29435
 40
0.003
 41
0.003
 10
0.70124
 20
0.292835
 40
0.003
 41
0.003
  0
LWPOLYLINE
  5
E6
100
AcDbEntity
  8
0
 62
     0
100
AcDbPolyline
 90
        2
 70
     0
 39
0.003
 10
0.70124
 20
0.292835
 40
0.003
 41
0.003
 10
0.702189
 20
0.291098
 40
0.003
 41
0.003
  0
LWPOLYLINE
  5
E7
100
AcDbEntity
  8
0
 62
     0
100
AcDbPolyline
 90
        2
 70
     0
 39
0.003
 10
0.702189
 20
0.291098
 40
0.003
 41
0.003
 10
0.702787
 20
0.289181
 40
0.003
 41
0.003
  0
LWPOLYLINE
  5
E8
100
AcDbEntity
  8
0
 62
     0
100
AcDbPolyline
 90
        2
 70
     0
 39
0.003
 10
0.702787
 20
0.289181
 40
0.003
 41
0.003
 10
0.703
 20
0.287134
 40
0.003
 41
0.003
  0
LWPOLYLINE
  5
E9
100
AcDbEntity
  8
0
 62
     0
100
AcDbPolyline
 90
        2
 70
     0
 39
0.003
 10
0.703
 20
0.287134
 40
0.003
 41
0.003
 10
0.703
 20
-1.192421
 40
0.003
 41
0.003
  0
LWPOLYLINE
  5
EA
100
AcDbEntity
  8
0
 62
     0
100
AcDbPolyline
 90
        2
 70
     0
 39
0.003
 10
0.703
 20
-1.192421
 40
0.003
 41
0.003
 10
0.702787
 20
-1.19448
 40
0.003
 41
0.003
  0
LWPOLYLINE
  5
EB
100
AcDbEntity
  8
0
 62
     0
100
AcDbPolyline
 90
        2
 70
     0
 39
0.003
 10
0.702787
 20
-1.19448
 40
0.003
 41
0.003
 10
0.702189
 20
-1.196394
 40
0.003
 41
0.003
  0
LWPOLYLINE
  5
EC
100
AcDbEntity
  8
0
 62
     0
100
AcDbPolyline
 90
        2
 70
     0
 39
0.003
 10
0.702189
 20
-1.196394
 40
0.003
 41
0.003
 10
0.70124
 20
-1.198134
 40
0.003
 41
0.003
  0
LWPOLYLINE
  5
ED
100
AcDbEntity
  8
0
 62
     0
100
AcDbPolyline
 90
        2
 70
     0
 39
0.003
 10
0.70124
 20
-1.198134
 40
0.003
 41
0.003
 10
0.699992
 20
-1.199646
 40
0.003
 41
0.003
  0
LWPOLYLINE
  5
EE
100
AcDbEntity
  8
0
 62
     0
100
AcDbPolyline
 90
        2
 70
     0
 39
0.003
 10
0.699992
 20
-1.199646
 40
0.003
 41
0.003
 10
0.698476
 20
-1.200902
 40
0.003
 41
0.003
  0
LWPOLYLINE
  5
EF
100
AcDbEntity
  8
0
 62
     0
100
AcDbPolyline
 90
        2
 70
     0
 39
0.003
 10
0.698476
 20
-1.200902
 40
0.003
 41
0.003
 10
0.053343
 20
-1.572126
 40
0.003
 41
0.003
  0
LWPOLYLINE
  5
F0
100
AcDbEntity
  8
0
 62
     0
100
AcDbPolyline
 90
        2
 70
     0
 39
0.003
 10
0.053343
 20
-1.572126
 40
0.003
 41
0.003
 10
0.054858
 20
-1.57087
 40
0.003
 41
0.003
  0
LWPOLYLINE
  5
F1
100
AcDbEntity
  8
0
 62
     0
100
AcDbPolyline
 90
        2
 70
     0
 39
0.003
 10
0.054858
 20
-1.57087
 40
0.003
 41
0.003
 10
0.056106
 20
-1.569358
 40
0.003
 41
0.003
  0
LWPOLYLINE
  5
F2
100
AcDbEntity
  8
0
 62
     0
100
AcDbPolyline
 90
        2
 70
     0
 39
0.003
 10
0.056106
 20
-1.569358
 40
0.003
 41
0.003
 10
0.057055
 20
-1.567618
 40
0.003
 41
0.003
  0
LWPOLYLINE
  5
F3
100
AcDbEntity
  8
0
 62
     0
100
AcDbPolyline
 90
        2
 70
     0
 39
0.003
 10
0.057055
 20
-1.567618
 40
0.003
 41
0.003
 10
0.057654
 20
-1.565705
 40
0.003
 41
0.003
  0
LWPOLYLINE
  5
F4
100
AcDbEntity
  8
0
 62
     0
100
AcDbPolyline
 90
        2
 70
     0
 39
0.003
 10
0.057654
 20
-1.565705
 40
0.003
 41
0.003
 10
0.057866
 20
-1.563646
 40
0.003
 41
0.003
  0
LWPOLYLINE
  5
F5
100
AcDbEntity
  8
0
 62
     0
100
AcDbPolyline
 90
        2
 70
     0
 39
0.003
 10
0.057866
 20
-1.563646
 40
0.003
 41
0.003
 10
0.057866
 20
-0.084091
 40
0.003
 41
0.003
  0
LWPOLYLINE
  5
F6
100
AcDbEntity
  8
0
 62
     0
100
AcDbPolyline
 90
        2
 70
     0
 39
0.003
 10
0.057866
 20
-0.084091
 40
0.003
 41
0.003
 10
0.057654
 20
-0.082043
 40
0.003
 41
0.003
  0
LWPOLYLINE
  5
F7
100
AcDbEntity
  8
0
 62
     0
100
AcDbPolyline
 90
        2
 70
     0
 39
0.003
 10
0.057654
 20
-0.082043
 40
0.003
 41
0.003
 10
0.057055
 20
-0.080126
 40
0.003
 41
0.003
  0
LWPOLYLINE
  5
F8
100
AcDbEntity
  8
0
 62
     0
100
AcDbPolyline
 90
        2
 70
     0
 39
0.003
 10
0.057055
 20
-0.080126
 40
0.003
 41
0.003
 10
0.056106
 20
-0.07839
 40
0.003
 41
0.003
  0
LWPOLYLINE
  5
F9
100
AcDbEntity
  8
0
 62
     0
100
AcDbPolyline
 90
        2
 70
     0
 39
0.003
 10
0.056106
 20
-0.07839
 40
0.003
 41
0.003
 10
0.054858
 20
-0.076874
 40
0.003
 41
0.003
  0
LWPOLYLINE
  5
FA
100
AcDbEntity
  8
0
 62
     0
100
AcDbPolyline
 90
        2
 70
     0
 39
0.003
 10
0.054858
 20
-0.076874
 40
0.003
 41
0.003
 10
0.053343
 20
-0.075626
 40
0.003
 41
0.003
  0
LWPOLYLINE
  5
FB
100
AcDbEntity
  8
0
 62
     0
100
AcDbPolyline
 90
        2
 70
     0
 39
0.003
 10
0.053343
 20
-0.075626
 40
0.003
 41
0.003
 10
0.051606
 20
-0.074677
 40
0.003
 41
0.003
  0
LWPOLYLINE
  5
FC
100
AcDbEntity
  8
0
 62
     0
100
AcDbPolyline
 90
        2
 70
     0
 39
0.003
 10
0.051606
 20
-0.074677
 40
0.003
 41
0.003
 10
0.049689
 20
-0.074083
 40
0.003
 41
0.003
  0
LWPOLYLINE
  5
FD
100
AcDbEntity
  8
0
 62
     0
100
AcDbPolyline
 90
        2
 70
     0
 39
0.003
 10
0.049689
 20
-0.074083
 40
0.003
 41
0.003
 10
0.047642
 20
-0.07387
 40
0.003
 41
0.003
  0
LWPOLYLINE
  5
FE
100
AcDbEntity
  8
0
 62
     0
100
AcDbPolyline
 90
        2
 70
     0
 39
0.003
 10
0.047642
 20
-0.07387
 40
0.003
 41
0.003
 10
-0.815626
 20
-0.07387
 40
0.003
 41
0.003
  0
LWPOLYLINE
  5
FF
100
AcDbEntity
  8
0
 62
     0
100
AcDbPolyline
 90
        2
 70
     0
 39
0.003
 10
-0.815626
 20
-0.07387
 40
0.003
 41
0.003
 10
-0.817685
 20
-0.074083
 40
0.003
 41
0.003
  0
LWPOLYLINE
  5
100
100
AcDbEntity
  8
0
 62
     0
100
AcDbPolyline
 90
        2
 70
     0
 39
0.003
 10
-0.817685
 20
-0.074083
 40
0.003
 41
0.003
 10
-0.819598
 20
-0.074677
 40
0.003
 41
0.003
  0
LWPOLYLINE
  5
101
100
AcDbEntity
  8
0
 62
     7
100
AcDbPolyline
 90
        2
 70
     0
 39
0.003
 10
-0.815626
 20
-0.07387
 40
0.003
 41
0.003
 10
0.047642
 20
-0.07387
 40
0.003
 41
0.003
  0
SPLINE
  5
102
100
AcDbEntity
  8
0
 62
     7
100
AcDbSpline
210
0.0
220
0.0
230
1.0
 70
     0
 71
     3
 72
     0
 73
     0
 74
    16
 44
0.0000000001
 11
0.0476417322834646
 21
-0.0738700787401575
 31
0.0
 11
0.0486771653543307
 21
-0.0739212598425197
 31
0.0
 11
0.0496889763779528
 21
-0.0740748031496063
 31
0.0
 11
0.0506653543307087
 21
-0.0743228346456693
 31
0.0
 11
0.0516062992125984
 21
-0.0746732283464567
 31
0.0
 11
0.052496062992126
 21
-0.0751023622047244
 31
0.0
 11
0.0533425196850394
 21
-0.0756141732283465
 31
0.0
 11
0.0541259842519685
 21
-0.0762047244094488
 31
0.0
 11
0.0548582677165354
 21
-0.0768700787401575
 31
0.0
 11
0.0555157480314961
 21
-0.0775905511811024
 31
0.0
 11
0.0561062992125984
 21
-0.0783818897637795
 31
0.0
 11
0.0566181102362205
 21
-0.0792204724409449
 31
0.0
 11
0.0570551181102362
 21
-0.0801181102362205
 31
0.0
 11
0.0573976377952756
 21
-0.0810511811023622
 31
0.0
 11
0.0576535433070866
 21
-0.0820314960629921
 31
0.0
 11
0.0578070866141732
 21
-0.0830433070866142
 31
0.0
  0
LWPOLYLINE
  5
103
100
AcDbEntity
  8
0
 62
     7
100
AcDbPolyline
 90
        2
 70
     0
 39
0.003
 10
0.057807
 20
-0.083043
 40
0.003
 41
0.003
 10
0.057866
 20
-0.084091
 40
0.003
 41
0.003
  0
LWPOLYLINE
  5
104
100
AcDbEntity
  8
0
 62
     7
100
AcDbPolyline
 90
        2
 70
     0
 39
0.003
 10
0.057866
 20
-0.084091
 40
0.003
 41
0.003
 10
0.057866
 20
-1.563646
 40
0.003
 41
0.003
  0
SPLINE
  5
105
100
AcDbEntity
  8
0
 62
     7
100
AcDbSpline
210
0.0
220
0.0
230
1.0
 70
     0
 71
     3
 72
     0
 73
     0
 74
    16
 44
0.0000000001
 11
0.0578661417322835
 21
-1.5636456692913385
 31
0.0
 11
0.0578070866141732
 21
-1.5646811023622047
 31
0.0
 11
0.0576535433070866
 21
-1.5656929133858268
 31
0.0
 11
0.0573976377952756
 21
-1.5666692913385827
 31
0.0
 11
0.0570551181102362
 21
-1.5676102362204725
 31
0.0
 11
0.0566181102362205
 21
-1.5685
 31
0.0
 11
0.0561062992125984
 21
-1.5693464566929134
 31
0.0
 11
0.0555157480314961
 21
-1.5701299212598425
 31
0.0
 11
0.0548582677165354
 21
-1.5708622047244094
 31
0.0
 11
0.0541259842519685
 21
-1.57151968503937
 31
0.0
 11
0.0533425196850394
 21
-1.5721102362204724
 31
0.0
 11
0.052496062992126
 21
-1.5726220472440944
 31
0.0
 11
0.0516062992125984
 21
-1.5730590551181103
 31
0.0
 11
0.0506653543307087
 21
-1.5734015748031496
 31
0.0
 11
0.0496889763779528
 21
-1.5736574803149606
 31
0.0
 11
0.0486771653543307
 21
-1.5738110236220473
 31
0.0
  0
LWPOLYLINE
  5
106
100
AcDbEntity
  8
0
 62
     7
100
AcDbPolyline
 90
        2
 70
     0
 39
0.003
 10
0.048677
 20
-1.573811
 40
0.003
 41
0.003
 10
0.047642
 20
-1.57387
 40
0.003
 41
0.003
  0
LWPOLYLINE
  5
107
100
AcDbEntity
  8
0
 62
     7
100
AcDbPolyline
 90
        2
 70
     0
 39
0.003
 10
0.047642
 20
-1.57387
 40
0.003
 41
0.003
 10
-0.815626
 20
-1.57387
 40
0.003
 41
0.003
  0
SPLINE
  5
108
100
AcDbEntity
  8
0
 62
     7
100
AcDbSpline
210
0.0
220
0.0
230
1.0
 70
     0
 71
     3
 72
     0
 73
     0
 74
    16
 44
0.0000000001
 11
-0.8156259842519685
 21
-1.5738700787401574
 31
0.0
 11
-0.8166614173228346
 21
-1.5738110236220473
 31
0.0
 11
-0.8176732283464567
 21
-1.5736574803149606
 31
0.0
 11
-0.8186496062992126
 21
-1.5734015748031496
 31
0.0
 11
-0.8195905511811024
 21
-1.5730590551181103
 31
0.0
 11
-0.8204803149606299
 21
-1.5726220472440944
 31
0.0
 11
-0.8213267716535433
 21
-1.5721102362204724
 31
0.0
 11
-0.8221102362204724
 21
-1.57151968503937
 31
0.0
 11
-0.8228425196850394
 21
-1.5708622047244094
 31
0.0
 11
-0.8235
 21
-1.5701299212598425
 31
0.0
 11
-0.8240905511811024
 21
-1.5693464566929134
 31
0.0
 11
-0.8246023622047244
 21
-1.5685
 31
0.0
 11
-0.8250393700787402
 21
-1.5676102362204725
 31
0.0
 11
-0.8253818897637796
 21
-1.5666692913385827
 31
0.0
 11
-0.8256377952755906
 21
-1.5656929133858268
 31
0.0
 11
-0.8257913385826772
 21
-1.5646811023622047
 31
0.0
  0
LWPOLYLINE
  5
109
100
AcDbEntity
  8
0
 62
     7
100
AcDbPolyline
 90
        2
 70
     0
 39
0.003
 10
-0.825791
 20
-1.564681
 40
0.003
 41
0.003
 10
-0.82585
 20
-1.563646
 40
0.003
 41
0.003
  0
LWPOLYLINE
  5
10A
100
AcDbEntity
  8
0
 62
     7
100
AcDbPolyline
 90
        2
 70
     0
 39
0.003
 10
-0.82585
 20
-1.563646
 40
0.003
 41
0.003
 10
-0.82585
 20
-0.084091
 40
0.003
 41
0.003
  0
SPLINE
  5
10B
100
AcDbEntity
  8
0
 62
     7
100
AcDbSpline
210
0.0
220
0.0
230
1.0
 70
     0
 71
     3
 72
     0
 73
     0
 74
    17
 44
0.0000000001
 11
-0.8258503937007874
 21
-0.0840905511811024
 31
0.0
 11
-0.8257913385826772
 21
-0.0830433070866142
 31
0.0
 11
-0.8256377952755906
 21
-0.0820314960629921
 31
0.0
 11
-0.8253818897637796
 21
-0.0810511811023622
 31
0.0
 11
-0.8250393700787402
 21
-0.0801181102362205
 31
0.0
 11
-0.8246023622047244
 21
-0.0792204724409449
 31
0.0
 11
-0.8240905511811024
 21
-0.0783818897637795
 31
0.0
 11
-0.8235
 21
-0.0775905511811024
 31
0.0
 11
-0.8228425196850394
 21
-0.0768700787401575
 31
0.0
 11
-0.8221102362204724
 21
-0.0762047244094488
 31
0.0
 11
-0.8213267716535433
 21
-0.0756141732283465
 31
0.0
 11
-0.8204803149606299
 21
-0.0751023622047244
 31
0.0
 11
-0.8195905511811024
 21
-0.0746732283464567
 31
0.0
 11
-0.8186496062992126
 21
-0.0743228346456693
 31
0.0
 11
-0.8176732283464567
 21
-0.0740748031496063
 31
0.0
 11
-0.8166614173228346
 21
-0.0739212598425197
 31
0.0
 11
-0.8156259842519685
 21
-0.0738700787401575
 31
0.0
  0
MTEXT
  5
10C
100
AcDbEntity
  8
0
 62
     0
100
AcDbMText
 10
-2.10398
 20
-1.489224
 30
0.0
 40
0.166665
 41
0.0
 71
     1
 72
     1
  1
{\fBookman Old Style|b0|i0|c0|p32;BA  1435}
 73
     1
 44
1.0
  0
MTEXT
  5
10D
100
AcDbEntity
  8
0
 62
     0
100
AcDbMText
 10
-2.10398
 20
-1.676724
 30
0.0
 40
0.166665
 41
0.0
 71
     1
 72
     1
  1
{\fBookman Old Style|b0|i0|c0|p32;1-1/2" x specified widths}
 73
     1
 44
1.0
  0
ENDSEC
  0
SECTION
  2
OBJECTS
  0
DICTIONARY
  5
19
100
AcDbDictionary
280
     0
281
     1
  3
ACAD_GROUP
350
1A
  3
ACAD_MLINESTYLE
350
1B
  3
ACAD_LAYOUT
350
1E
  3
ACAD_PLOTSETTINGS
350
22
  3
ACAD_PLOTSTYLENAME
350
1F
  3
ACAD_WIPEOUT_VARS
350
23
  0
DICTIONARY
  5
1A
102
{ACAD_REACTORS
330
19
102
}
100
AcDbDictionary
280
     0
281
     1
  0
DICTIONARY
  5
1B
102
{ACAD_REACTORS
330
19
102
}
100
AcDbDictionary
280
     0
281
     1
  3
Standard
350
1C
  0
MLINESTYLE
  5
1C
102
{ACAD_REACTORS
330
1B
102
}
100
AcDbMlineStyle
  2
Standard
 70
     0
  3

 62
     0
 51
90.0
 52
90.0
 71
     2
 49
0.5
 62
   256
  6
BYLAYER
 49
-0.5
 62
   256
  6
BYLAYER
  0
ACDBDICTIONARYWDFLT
  5
1F
102
{ACAD_REACTORS
330
19
102
}
100
AcDbDictionary
281
     1
  3
Normal
350
1D
100
AcDbDictionaryWithDefault
340
1D
  0
ACDBPLACEHOLDER
  5
1D
102
{ACAD_REACTORS
330
1F
102
}
  0
LAYOUT
  5
20
102
{ACAD_REACTORS
330
1E
102
}
100
AcDbPlotSettings
  1

  2

  4

  6

 40
0.0
 41
0.0
 42
0.0
 43
0.0
 44
0.0
 45
0.0
 46
0.0
 47
0.0
 48
0.0
 49
0.0
140
0.0
141
0.0
142
1.0
143
1.0
 70
  1024
 72
     0
 73
     0
 74
     0
  7

 75
     0
147
1.0
148
0.0
149
0.0
100
AcDbLayout
  1
Model
 70
     0
 71
     0
 10
0.0
 20
0.0
 11
0.0
 21
0.0
 12
0.0
 22
0.0
 32
0.0
 14
0.0
 24
0.0
 34
0.0
 15
0.0
 25
0.0
 35
0.0
146
0.0
 13
0.0
 23
0.0
 33
0.0
 16
0.0
 26
0.0
 36
0.0
 17
0.0
 27
0.0
 37
0.0
 76
     0
330
A
331
0
345
0
346
0
  0
LAYOUT
  5
21
102
{ACAD_REACTORS
330
1E
102
}
100
AcDbPlotSettings
  1

  2

  4

  6

 40
0.0
 41
0.0
 42
0.0
 43
0.0
 44
0.0
 45
0.0
 46
0.0
 47
0.0
 48
0.0
 49
0.0
140
0.0
141
0.0
142
1.0
143
1.0
 70
     0
 72
     0
 73
     0
 74
     0
  7

 75
     0
147
1.0
148
0.0
149
0.0
100
AcDbLayout
  1
Layout1
 70
     0
 71
     0
 10
0.0
 20
0.0
 11
0.0
 21
0.0
 12
0.0
 22
0.0
 32
0.0
 14
0.0
 24
0.0
 34
0.0
 15
0.0
 25
0.0
 35
0.0
146
0.0
 13
0.0
 23
0.0
 33
0.0
 16
0.0
 26
0.0
 36
0.0
 17
0.0
 27
0.0
 37
0.0
 76
     0
330
B
331
0
345
0
346
0
  0
DICTIONARY
  5
1E
102
{ACAD_REACTORS
330
19
102
}
100
AcDbDictionary
280
     0
281
     1
  3
Layout1
350
21
  3
Model
350
20
  0
DICTIONARY
  5
22
102
{ACAD_REACTORS
330
19
102
}
100
AcDbDictionary
280
     0
281
     1
  0
WIPEOUTVARIABLES
  5
23
100
AcDbWipeoutVariables
 70
     1
  0
ENDSEC
  0
EOF
