  0
SECTION
  2
HEADER
  9
$ACADVER
  1
AC1015
  9
$ACADMAINTVER
 70
     6
  9
$DWGCODEPAGE
  3
DOS850
  9
$INSBASE
 10
0.0
 20
0.0
 30
0.0
  9
$EXTMIN
 10
1.000000E+20
 20
1.000000E+20
 30
1.000000E+20
  9
$EXTMAX
 10
-1.000000E+20
 20
-1.000000E+20
 30
-1.000000E+20
  9
$LIMMIN
 10
0.0
 20
0.0
  9
$LIMMAX
 10
0.0
 20
0.0
  9
$ORTHOMODE
 70
     0
  9
$REGENMODE
 70
     1
  9
$FILLMODE
 70
     1
  9
$QTEXTMODE
 70
     0
  9
$MIRRTEXT
 70
     1
  9
$LTSCALE
 40
1.0
  9
$ATTMODE
 70
     1
  9
$TEXTSIZE
 40
0.2
  9
$TRACEWID
 40
0.05
  9
$TEXTSTYLE
  7
Standard
  9
$CLAYER
  8
0
  9
$CELTYPE
  6
Continuous
  9
$CECOLOR
 62
   256
  9
$CELTSCALE
 40
1.0
  9
$DISPSILH
 70
     0
  9
$DIMSCALE
 40
1.0
  9
$DIMASZ
 40
0.18
  9
$DIMEXO
 40
0.0625
  9
$DIMDLI
 40
0.38
  9
$DIMRND
 40
0.0
  9
$DIMDLE
 40
0.0
  9
$DIMEXE
 40
0.18
  9
$DIMTP
 40
0.0
  9
$DIMTM
 40
0.0
  9
$DIMTXT
 40
0.18
  9
$DIMCEN
 40
0.09
  9
$DIMTSZ
 40
0.0
  9
$DIMTOL
 70
     0
  9
$DIMLIM
 70
     0
  9
$DIMTIH
 70
     1
  9
$DIMTOH
 70
     1
  9
$DIMSE1
 70
     0
  9
$DIMSE2
 70
     0
  9
$DIMTAD
 70
     0
  9
$DIMZIN
 70
     0
  9
$DIMBLK
  1

  9
$DIMASO
 70
     1
  9
$DIMSHO
 70
     1
  9
$DIMPOST
  1

  9
$DIMAPOST
  1

  9
$DIMALT
 70
     0
  9
$DIMALTD
 70
     2
  9
$DIMALTF
 40
25.4
  9
$DIMLFAC
 40
1.0
  9
$DIMTOFL
 70
     0
  9
$DIMTVP
 40
0.0
  9
$DIMTIX
 70
     0
  9
$DIMSOXD
 70
     0
  9
$DIMSAH
 70
     0
  9
$DIMBLK1
  1

  9
$DIMBLK2
  1

  9
$DIMSTYLE
  2
Standard
  9
$DIMCLRD
 70
     0
  9
$DIMCLRE
 70
     0
  9
$DIMCLRT
 70
     0
  9
$DIMTFAC
 40
1.0
  9
$DIMGAP
 40
0.09
  9
$DIMJUST
 70
     0
  9
$DIMSD1
 70
     0
  9
$DIMSD2
 70
     0
  9
$DIMTOLJ
 70
     1
  9
$DIMTZIN
 70
     0
  9
$DIMALTZ
 70
     0
  9
$DIMALTTZ
 70
     0
  9
$DIMUPT
 70
     0
  9
$DIMDEC
 70
     4
  9
$DIMTDEC
 70
     4
  9
$DIMALTU
 70
     2
  9
$DIMALTTD
 70
     2
  9
$DIMTXSTY
  7
Standard
  9
$DIMAUNIT
 70
     0
  9
$DIMADEC
 70
     0
  9
$DIMALTRND
 40
0.0
  9
$DIMAZIN
 70
     0
  9
$DIMDSEP
 70
     0
  9
$DIMATFIT
 70
     3
  9
$DIMFRAC
 70
     0
  9
$DIMLDRBLK
  1

  9
$DIMLUNIT
 70
     2
  9
$DIMLWD
 70
     0
  9
$DIMLWE
 70
     0
  9
$DIMTMOVE
 70
     0
  9
$LUNITS
 70
     2
  9
$LUPREC
 70
     4
  9
$SKETCHINC
 40
0.1
  9
$FILLETRAD
 40
0.0
  9
$AUNITS
 70
     0
  9
$AUPREC
 70
     0
  9
$MENU
  1
acad
  9
$ELEVATION
 40
0.0
  9
$PELEVATION
 40
0.0
  9
$THICKNESS
 40
0.0
  9
$LIMCHECK
 70
     0
  9
$CHAMFERA
 40
0.0
  9
$CHAMFERB
 40
0.0
  9
$CHAMFERC
 40
0.0
  9
$CHAMFERD
 40
0.0
  9
$SKPOLY
 70
     0
  9
$TDCREATE
 40
0.000000000
  9
$TDUCREATE
 40
0.000000000
  9
$TDUPDATE
 40
0.000000000
  9
$TDUUPDATE
 40
0.000000000
  9
$TDINDWG
 40
0.0000000000
  9
$TDUSRTIMER
 40
0.0000000000
  9
$USRTIMER
 70
     1
  9
$ANGBASE
 50
0.0
  9
$ANGDIR
 70
     0
  9
$PDMODE
 70
     0
  9
$PDSIZE
 40
0.0
  9
$PLINEWID
 40
0.0
  9
$SPLFRAME
 70
     0
  9
$SPLINETYPE
 70
     6
  9
$SPLINESEGS
 70
     8
  9
$HANDSEED
  5
10E
  9
$SURFTAB1
 70
     6
  9
$SURFTAB2
 70
     6
  9
$SURFTYPE
 70
     6
  9
$SURFU
 70
     6
  9
$SURFV
 70
     6
  9
$UCSBASE
  2

  9
$UCSNAME
  2

  9
$UCSORG
 10
0.0
 20
0.0
 30
0.0
  9
$UCSXDIR
 10
1.0
 20
0.0
 30
0.0
  9
$UCSYDIR
 10
0.0
 20
1.0
 30
0.0
  9
$UCSORTHOREF
  2

  9
$UCSORTHOVIEW
 70
     0
  9
$UCSORGTOP
 10
0.0
 20
0.0
 30
0.0
  9
$UCSORGBOTTOM
 10
0.0
 20
0.0
 30
0.0
  9
$UCSORGLEFT
 10
0.0
 20
0.0
 30
0.0
  9
$UCSORGRIGHT
 10
0.0
 20
0.0
 30
0.0
  9
$UCSORGFRONT
 10
0.0
 20
0.0
 30
0.0
  9
$UCSORGBACK
 10
0.0
 20
0.0
 30
0.0
  9
$PUCSBASE
  2

  9
$PUCSNAME
  2

  9
$PUCSORG
 10
0.0
 20
0.0
 30
0.0
  9
$PUCSXDIR
 10
1.0
 20
0.0
 30
0.0
  9
$PUCSYDIR
 10
0.0
 20
1.0
 30
0.0
  9
$PUCSORTHOREF
  2

  9
$PUCSORTHOVIEW
 70
     0
  9
$PUCSORGTOP
 10
0.0
 20
0.0
 30
0.0
  9
$PUCSORGBOTTOM
 10
0.0
 20
0.0
 30
0.0
  9
$PUCSORGLEFT
 10
0.0
 20
0.0
 30
0.0
  9
$PUCSORGRIGHT
 10
0.0
 20
0.0
 30
0.0
  9
$PUCSORGFRONT
 10
0.0
 20
0.0
 30
0.0
  9
$PUCSORGBACK
 10
0.0
 20
0.0
 30
0.0
  9
$USERI1
 70
     0
  9
$USERI2
 70
     0
  9
$USERI3
 70
     0
  9
$USERI4
 70
     0
  9
$USERI5
 70
     0
  9
$USERR1
 40
0.0
  9
$USERR2
 40
0.0
  9
$USERR3
 40
0.0
  9
$USERR4
 40
0.0
  9
$USERR5
 40
0.0
  9
$WORLDVIEW
 70
     1
  9
$SHADEDGE
 70
     3
  9
$SHADEDIF
 70
    70
  9
$TILEMODE
 70
     1
  9
$MAXACTVP
 70
    16
  9
$PINSBASE
 10
0.0
 20
0.0
 30
0.0
  9
$PLIMCHECK
 70
     0
  9
$PEXTMIN
 10
1.000000E+20
 20
1.000000E+20
 30
1.000000E+20
  9
$PEXTMAX
 10
-1.000000E+20
 20
-1.000000E+20
 30
-1.000000E+20
  9
$PLIMMIN
 10
0.0
 20
0.0
  9
$PLIMMAX
 10
12.0
 20
9.0
  9
$UNITMODE
 70
     0
  9
$VISRETAIN
 70
     0
  9
$PLINEGEN
 70
     1
  9
$PSLTSCALE
 70
     0
  9
$TREEDEPTH
 70
  3020
  9
$CMLSTYLE
  2
Standard
  9
$CMLJUST
 70
     0
  9
$CMLSCALE
 40
1.0
  9
$PROXYGRAPHICS
 70
     0
  9
$MEASUREMENT
 70
     0
  9
$CELWEIGHT
370
     0
  9
$ENDCAPS
280
     0
  9
$JOINSTYLE
280
     0
  9
$LWDISPLAY
290
     0
  9
$INSUNITS
 70
     0
  9
$HYPERLINKBASE
  1

  9
$XEDIT
290
     1
  9
$CEPSNTYPE
380
     0
  9
$PSTYLEMODE
290
     1
  9
$FINGERPRINTGUID
  2

  9
$VERSIONGUID
  2

  9
$EXTNAMES
290
     1
  9
$PSVPSCALE
 40
0.0
  0
ENDSEC
  0
SECTION
  2
CLASSES
  0
CLASS
  1
LWPOLYLINE
  2
AcDbPolyline
  3
AutoCAD 2000
 90
        0
280
     0
281
     1
  0
CLASS
  1
IMAGE
  2
AcDbRasterImage
  3
ISM
 90
    32895
280
     0
281
     1
  0
CLASS
  1
OLE2FRAME
  2
AcDbOle2Frame
  3
AutoCAD 2000
 90
    32768
280
     0
281
     1
  0
CLASS
  1
HATCH
  2
AcDbHatch
  3
AutoCAD 2000
 90
    32768
280
     0
281
     1
  0
CLASS
  1
DICTIONARYVAR
  2
AcDbDictionaryVar
  3
AutoCAD 2000
 90
    32768
280
     0
281
     0
  0
CLASS
  1
RASTERVARIABLES
  2
AcDbRasterVariables
  3
ISM
 90
    32768
280
     0
281
     0
  0
CLASS
  1
IMAGEDEF
  2
AcDbRasterImageDef
  3
ISM
 90
    32768
280
     0
281
     0
  0
CLASS
  1
IMAGEDEF_REACTOR
  2
AcDbRasterImageDefReactor
  3
ISM
 90
    32769
280
     0
281
     0
  0
CLASS
  1
IDBUFFER
  2
AcDbIdBuffer
  3
AutoCAD 2000
 90
    32768
280
     0
281
     0
  0
CLASS
  1
SPATIAL_FILTER
  2
AcDbSpatialFilter
  3
AutoCAD 2000
 90
    32768
280
     0
281
     0
  0
CLASS
  1
XRECORD
  2
AcDbXrecord
  3
AutoCAD 2000
 90
    32768
280
     0
281
     0
  0
CLASS
  1
SORTENTSTABLE
  2
AcDbSortentsTable
  3
AutoCAD 2000
 90
    32768
280
     0
281
     0
  0
CLASS
  1
LAYER_INDEX
  2
AcDbLayerIndex
  3
AutoCAD 2000
 90
    32768
280
     0
281
     0
  0
CLASS
  1
SPATIAL_INDEX
  2
AcDbSpatialIndex
  3
AutoCAD 2000
 90
    32768
280
     0
281
     0
  0
CLASS
  1
OBJECT_PTR
  2
CAseDLPNTableRecord
  3
"ASE-LPNTableRecord"
 90
    32769
280
     0
281
     0
  0
CLASS
  1
LAYOUT
  2
AcDbLayout
  3
AutoCAD 2000
 90
        0
280
     0
281
     0
  0
CLASS
  1
PLOTSETTINGS
  2
AcDbPlotSettings
  3
AutoCAD 2000
 90
    32768
280
     0
281
     0
  0
CLASS
  1
ACDBDICTIONARYWDFLT
  2
AcDbDictionaryWithDefault
  3
AutoCAD 2000
 90
        0
280
     0
281
     0
  0
CLASS
  1
ACDBPLACEHOLDER
  2
AcDbPlaceHolder
  3
AutoCAD 2000
 90
        0
280
     0
281
     0
  0
CLASS
  1
VBA_PROJECT
  2
AcDbVbaProject
  3
acadvba
 90
    32768
280
     0
281
     0
  0
CLASS
  1
WIPEOUT
  2
AcDbWipeout
  3
WipeOut|AutoCAD Express Tool|expresstools@autodesk.com
 90
    32895
280
     0
281
     1
  0
CLASS
  1
WIPEOUTVARIABLES
  2
AcDbWipeoutVariables
  3
WipeOut|AutoCAD Express Tool|expresstools@autodesk.com
 90
        0
280
     0
281
     0
  0
CLASS
  1
RTEXT
  2
RText
  3
RText|AutoCAD Express Tool|expresstools@autodesk.com
 90
    32768
280
     0
281
     1
  0
CLASS
  1
ARCALIGNEDTEXT
  2
AcDbArcAlignedText
  3
ATEXT|AutoCAD Express Tool|expresstools@autodesk.com
 90
    32768
280
     0
281
     1
  0
ENDSEC
  0
SECTION
  2
TABLES
  0
TABLE
  2
VPORT
  5
7
100
AcDbSymbolTable
 70
     1
  0
VPORT
  5
15
100
AcDbSymbolTableRecord
100
AcDbViewportTableRecord
  2
*ACTIVE
 70
     0
 10
0.0
 20
0.0
 11
1.0
 21
1.0
 12
6.591288
 22
4.579184
 13
0.0
 23
0.0
 14
1.0
 24
1.0
 15
0.0
 25
0.0
 16
0.0
 26
0.0
 36
1.0
 17
0.0
 27
0.0
 37
0.0
 40
9.158369
 41
0.688564
 42
50.0
 43
0.0
 44
0.0
 50
0.0
 51
0.0
 71
     0
 72
   100
 73
     1
 74
     1
 75
     0
 76
     0
 77
     0
 78
     0
281
     0
 65
     0
110
0.0
120
0.0
130
0.0
111
1.0
121
0.0
131
0.0
112
0.0
122
1.0
132
0.0
345
0
346
0
 79
     0
146
0.0
  0
ENDTAB
  0
TABLE
  2
LTYPE
  5
4
100
AcDbSymbolTable
 70
     3
  0
LTYPE
  5
11
100
AcDbSymbolTableRecord
100
AcDbLinetypeTableRecord
  2
ByBlock
 70
    64
  3

 72
    65
 73
     0
 40
0.0
  0
LTYPE
  5
12
100
AcDbSymbolTableRecord
100
AcDbLinetypeTableRecord
  2
ByLayer
 70
    64
  3

 72
    65
 73
     0
 40
0.0
  0
LTYPE
  5
13
100
AcDbSymbolTableRecord
100
AcDbLinetypeTableRecord
  2
Continuous
 70
    64
  3
Solid line
 72
    65
 73
     0
 40
0.0
  0
ENDTAB
  0
TABLE
  2
LAYER
  5
2
100
AcDbSymbolTable
 70
     1
  0
LAYER
  5
14
100
AcDbSymbolTableRecord
100
AcDbLayerTableRecord
  2
0
 70
     0
 62
     7
  6
Continuous
290
     1
370
    -3
390
1D
  0
ENDTAB
  0
TABLE
  2
STYLE
  5
3
100
AcDbSymbolTable
 70
     1
  0
STYLE
  5
17
100
AcDbSymbolTableRecord
100
AcDbTextStyleTableRecord
  2
Standard
 70
     0
 40
0.0
 41
1.0
 50
0.0
 71
     0
 42
0.0
  3
txt
  4

  0
ENDTAB
  0
TABLE
  2
VIEW
  5
5
100
AcDbSymbolTable
 70
     0
  0
ENDTAB
  0
TABLE
  2
UCS
  5
6
100
AcDbSymbolTable
 70
     0
  0
ENDTAB
  0
TABLE
  2
APPID
  5
8
100
AcDbSymbolTable
 70
     1
  0
APPID
  5
16
100
AcDbSymbolTableRecord
100
AcDbRegAppTableRecord
  2
ACAD
 70
     0
  0
ENDTAB
  0
TABLE
  2
DIMSTYLE
  5
9
100
AcDbSymbolTable
 70
     1
100
AcDbDimStyleTable
 71
     0
  0
DIMSTYLE
105
18
100
AcDbSymbolTableRecord
100
AcDbDimStyleTableRecord
  2
Standard
 70
     0
  3

  4

 40
1.0
 41
0.18
 42
0.0625
 43
0.38
 44
0.18
 45
0.0
 46
0.0
 47
0.0
 48
0.0
 71
     0
 72
     0
 73
     1
 74
     1
 75
     0
 76
     0
 77
     0
 78
     0
 79
     0
140
0.18
141
0.09
142
0.0
143
25.4
144
1.0
145
0.0
146
1.0
147
0.09
148
0.0
170
     0
171
     2
172
     0
173
     0
174
     0
175
     0
176
     0
177
     0
178
     0
179
     0
271
     4
272
     4
273
     2
274
     2
275
     0
276
     0
277
     2
278
    46
279
     0
280
     0
281
     0
282
     0
283
     1
284
     0
285
     0
286
     0
288
     0
340
17
341
0
342
0
343
0
344
0
371
    -2
372
    -2
  0
ENDTAB
  0
TABLE
  2
BLOCK_RECORD
  5
1
100
AcDbSymbolTable
 70
     0
  0
BLOCK_RECORD
  5
A
100
AcDbSymbolTableRecord
100
AcDbBlockTableRecord
  2
*MODEL_SPACE
340
20
  0
BLOCK_RECORD
  5
B
100
AcDbSymbolTableRecord
100
AcDbBlockTableRecord
  2
*PAPER_SPACE
340
21
  0
ENDTAB
  0
ENDSEC
  0
SECTION
  2
BLOCKS
  0
BLOCK
  5
D
100
AcDbEntity
  8
0
100
AcDbBlockBegin
  2
*MODEL_SPACE
 70
     0
 10
0.0
 20
0.0
 30
0.0
  3
*MODEL_SPACE
  1

  0
ENDBLK
  5
E
100
AcDbEntity
  8
0
100
AcDbBlockEnd
  0
BLOCK
  5
F
100
AcDbEntity
 67
     1
  8
0
100
AcDbBlockBegin
  2
*PAPER_SPACE
 70
     0
 10
0.0
 20
0.0
 30
0.0
  3
*PAPER_SPACE
  1

  0
ENDBLK
  5
10
100
AcDbEntity
 67
     1
  8
0
100
AcDbBlockEnd
  0
ENDSEC
  0
SECTION
  2
ENTITIES
  0
LWPOLYLINE
  5
24
100
AcDbEntity
  8
0
 62
     0
100
AcDbPolyline
 90
        2
 70
     0
 39
0.003
 10
-0.885193
 20
4.932437
 40
0.003
 41
0.003
 10
0.050012
 20
4.932437
 40
0.003
 41
0.003
  0
SPLINE
  5
25
100
AcDbEntity
  8
0
 62
     0
100
AcDbSpline
210
0.0
220
0.0
230
1.0
 70
     0
 71
     3
 72
     0
 73
     0
 74
    16
 44
0.0000000001
 11
0.050011811023622
 21
4.9324370078740154
 31
0.0
 11
0.0511338582677165
 21
4.9323779527559051
 31
0.0
 11
0.0522322834645669
 21
4.9322086614173228
 31
0.0
 11
0.0532913385826772
 21
4.9319291338582678
 31
0.0
 11
0.0543110236220472
 21
4.9315590551181101
 31
0.0
 11
0.0552755905511811
 21
4.9310866141732284
 31
0.0
 11
0.0561889763779528
 21
4.9305314960629918
 31
0.0
 11
0.0570433070866142
 21
4.9298897637795278
 31
0.0
 11
0.0578346456692913
 21
4.9291811023622047
 31
0.0
 11
0.0585433070866142
 21
4.9283897637795278
 31
0.0
 11
0.0591850393700787
 21
4.9275354330708661
 31
0.0
 11
0.059740157480315
 21
4.9266220472440949
 31
0.0
 11
0.0602125984251968
 21
4.9256614173228348
 31
0.0
 11
0.0605826771653543
 21
4.9246417322834644
 31
0.0
 11
0.0608622047244095
 21
4.9235826771653546
 31
0.0
 11
0.0610314960629921
 21
4.9224842519685037
 31
0.0
  0
LWPOLYLINE
  5
26
100
AcDbEntity
  8
0
 62
     0
100
AcDbPolyline
 90
        2
 70
     0
 39
0.003
 10
0.061031
 20
4.922484
 40
0.003
 41
0.003
 10
0.061091
 20
4.921362
 40
0.003
 41
0.003
  0
LWPOLYLINE
  5
27
100
AcDbEntity
  8
0
 62
     0
100
AcDbPolyline
 90
        2
 70
     0
 39
0.003
 10
0.061091
 20
4.921362
 40
0.003
 41
0.003
 10
0.061091
 20
3.318512
 40
0.003
 41
0.003
  0
SPLINE
  5
28
100
AcDbEntity
  8
0
 62
     0
100
AcDbSpline
210
0.0
220
0.0
230
1.0
 70
     0
 71
     3
 72
     0
 73
     0
 74
    16
 44
0.0000000001
 11
0.0610905511811024
 21
3.318511811023622
 31
0.0
 11
0.0610314960629921
 21
3.3173779527559053
 31
0.0
 11
0.0608622047244095
 21
3.3162834645669292
 31
0.0
 11
0.0605826771653543
 21
3.3152204724409451
 31
0.0
 11
0.0602125984251968
 21
3.314208661417323
 31
0.0
 11
0.059740157480315
 21
3.313240157480315
 31
0.0
 11
0.0591850393700787
 21
3.3123267716535434
 31
0.0
 11
0.0585433070866142
 21
3.3114685039370078
 31
0.0
 11
0.0578346456692913
 21
3.3106889763779526
 31
0.0
 11
0.0570433070866142
 21
3.3099685039370077
 31
0.0
 11
0.0561889763779528
 21
3.3093267716535433
 31
0.0
 11
0.0552755905511811
 21
3.3087677165354332
 31
0.0
 11
0.0543110236220472
 21
3.3083070866141733
 31
0.0
 11
0.0532913385826772
 21
3.3079291338582677
 31
0.0
 11
0.0522322834645669
 21
3.3076574803149605
 31
0.0
 11
0.0511338582677165
 21
3.3074881889763779
 31
0.0
  0
LWPOLYLINE
  5
29
100
AcDbEntity
  8
0
 62
     0
100
AcDbPolyline
 90
        2
 70
     0
 39
0.003
 10
0.051134
 20
3.307488
 40
0.003
 41
0.003
 10
0.050012
 20
3.307437
 40
0.003
 41
0.003
  0
LWPOLYLINE
  5
2A
100
AcDbEntity
  8
0
 62
     0
100
AcDbPolyline
 90
        2
 70
     0
 39
0.003
 10
0.050012
 20
3.307437
 40
0.003
 41
0.003
 10
-0.885193
 20
3.307437
 40
0.003
 41
0.003
  0
SPLINE
  5
2B
100
AcDbEntity
  8
0
 62
     0
100
AcDbSpline
210
0.0
220
0.0
230
1.0
 70
     0
 71
     3
 72
     0
 73
     0
 74
    16
 44
0.0000000001
 11
-0.8851929133858267
 21
3.3074370078740158
 31
0.0
 11
-0.8863149606299212
 21
3.3074881889763779
 31
0.0
 11
-0.8874133858267717
 21
3.3076574803149605
 31
0.0
 11
-0.8884724409448819
 21
3.3079291338582677
 31
0.0
 11
-0.889492125984252
 21
3.3083070866141733
 31
0.0
 11
-0.8904566929133858
 21
3.3087677165354332
 31
0.0
 11
-0.8913700787401575
 21
3.3093267716535433
 31
0.0
 11
-0.8922244094488189
 21
3.3099685039370077
 31
0.0
 11
-0.8930157480314961
 21
3.3106889763779526
 31
0.0
 11
-0.8937244094488189
 21
3.3114685039370078
 31
0.0
 11
-0.8943661417322835
 21
3.3123267716535434
 31
0.0
 11
-0.8949212598425197
 21
3.313240157480315
 31
0.0
 11
-0.8953937007874016
 21
3.314208661417323
 31
0.0
 11
-0.895763779527559
 21
3.3152204724409451
 31
0.0
 11
-0.8960433070866142
 21
3.3162834645669292
 31
0.0
 11
-0.8962125984251969
 21
3.3173779527559053
 31
0.0
  0
LWPOLYLINE
  5
2C
100
AcDbEntity
  8
0
 62
     0
100
AcDbPolyline
 90
        2
 70
     0
 39
0.003
 10
-0.896213
 20
3.317378
 40
0.003
 41
0.003
 10
-0.896272
 20
3.318512
 40
0.003
 41
0.003
  0
LWPOLYLINE
  5
2D
100
AcDbEntity
  8
0
 62
     0
100
AcDbPolyline
 90
        2
 70
     0
 39
0.003
 10
-0.896272
 20
3.318512
 40
0.003
 41
0.003
 10
-0.896272
 20
4.921362
 40
0.003
 41
0.003
  0
SPLINE
  5
2E
100
AcDbEntity
  8
0
 62
     0
100
AcDbSpline
210
0.0
220
0.0
230
1.0
 70
     0
 71
     3
 72
     0
 73
     0
 74
    17
 44
0.0000000001
 11
-0.8962716535433071
 21
4.9213622047244092
 31
0.0
 11
-0.8962125984251969
 21
4.9224842519685037
 31
0.0
 11
-0.8960433070866142
 21
4.9235826771653546
 31
0.0
 11
-0.895763779527559
 21
4.9246417322834644
 31
0.0
 11
-0.8953937007874016
 21
4.9256614173228348
 31
0.0
 11
-0.8949212598425197
 21
4.9266220472440949
 31
0.0
 11
-0.8943661417322835
 21
4.9275354330708661
 31
0.0
 11
-0.8937244094488189
 21
4.9283897637795278
 31
0.0
 11
-0.8930157480314961
 21
4.9291811023622047
 31
0.0
 11
-0.8922244094488189
 21
4.9298897637795278
 31
0.0
 11
-0.8913700787401575
 21
4.9305314960629918
 31
0.0
 11
-0.8904566929133858
 21
4.9310866141732284
 31
0.0
 11
-0.889492125984252
 21
4.9315590551181101
 31
0.0
 11
-0.8884724409448819
 21
4.9319291338582678
 31
0.0
 11
-0.8874133858267717
 21
4.9322086614173228
 31
0.0
 11
-0.8863149606299212
 21
4.9323779527559051
 31
0.0
 11
-0.8851929133858267
 21
4.9324370078740154
 31
0.0
  0
LWPOLYLINE
  5
2F
100
AcDbEntity
  8
0
 62
   127
100
AcDbPolyline
 90
        2
 70
     0
 39
0.003
 10
-1.47398
 20
1.739303
 40
0.003
 41
0.003
 10
-0.81635
 20
2.111339
 40
0.003
 41
0.003
  0
LWPOLYLINE
  5
30
100
AcDbEntity
  8
0
 62
   127
100
AcDbPolyline
 90
        2
 70
     0
 39
0.003
 10
-0.81635
 20
2.111339
 40
0.003
 41
0.003
 10
-0.814272
 20
2.111988
 40
0.003
 41
0.003
  0
LWPOLYLINE
  5
31
100
AcDbEntity
  8
0
 62
   127
100
AcDbPolyline
 90
        2
 70
     0
 39
0.003
 10
-0.814272
 20
2.111988
 40
0.003
 41
0.003
 10
-1.471902
 20
1.739953
 40
0.003
 41
0.003
  0
LWPOLYLINE
  5
32
100
AcDbEntity
  8
0
 62
   127
100
AcDbPolyline
 90
        2
 70
     0
 39
0.003
 10
-1.471902
 20
1.739953
 40
0.003
 41
0.003
 10
-1.47398
 20
1.739303
 40
0.003
 41
0.003
  0
LWPOLYLINE
  5
33
100
AcDbEntity
  8
0
 62
   253
100
AcDbPolyline
 90
        2
 70
     0
 39
0.003
 10
-1.471902
 20
1.739953
 40
0.003
 41
0.003
 10
-0.814272
 20
2.111988
 40
0.003
 41
0.003
  0
LWPOLYLINE
  5
34
100
AcDbEntity
  8
0
 62
   253
100
AcDbPolyline
 90
        2
 70
     0
 39
0.003
 10
-0.814272
 20
2.111988
 40
0.003
 41
0.003
 10
-0.812051
 20
2.112209
 40
0.003
 41
0.003
  0
LWPOLYLINE
  5
35
100
AcDbEntity
  8
0
 62
   253
100
AcDbPolyline
 90
        2
 70
     0
 39
0.003
 10
-0.812051
 20
2.112209
 40
0.003
 41
0.003
 10
-1.469681
 20
1.740173
 40
0.003
 41
0.003
  0
LWPOLYLINE
  5
36
100
AcDbEntity
  8
0
 62
   253
100
AcDbPolyline
 90
        2
 70
     0
 39
0.003
 10
-1.469681
 20
1.740173
 40
0.003
 41
0.003
 10
-1.471902
 20
1.739953
 40
0.003
 41
0.003
  0
LWPOLYLINE
  5
37
100
AcDbEntity
  8
0
 62
   253
100
AcDbPolyline
 90
        2
 70
     0
 39
0.003
 10
-1.469681
 20
1.740173
 40
0.003
 41
0.003
 10
-0.812051
 20
2.112209
 40
0.003
 41
0.003
  0
LWPOLYLINE
  5
38
100
AcDbEntity
  8
0
 62
   253
100
AcDbPolyline
 90
        2
 70
     0
 39
0.003
 10
-0.812051
 20
2.112209
 40
0.003
 41
0.003
 10
0.123154
 20
2.112209
 40
0.003
 41
0.003
  0
LWPOLYLINE
  5
39
100
AcDbEntity
  8
0
 62
   253
100
AcDbPolyline
 90
        2
 70
     0
 39
0.003
 10
0.123154
 20
2.112209
 40
0.003
 41
0.003
 10
-0.534476
 20
1.740173
 40
0.003
 41
0.003
  0
LWPOLYLINE
  5
3A
100
AcDbEntity
  8
0
 62
   253
100
AcDbPolyline
 90
        2
 70
     0
 39
0.003
 10
-0.534476
 20
1.740173
 40
0.003
 41
0.003
 10
-1.469681
 20
1.740173
 40
0.003
 41
0.003
  0
LWPOLYLINE
  5
3B
100
AcDbEntity
  8
0
 62
     9
100
AcDbPolyline
 90
        2
 70
     0
 39
0.003
 10
-0.534476
 20
1.740173
 40
0.003
 41
0.003
 10
0.123154
 20
2.112209
 40
0.003
 41
0.003
  0
LWPOLYLINE
  5
3C
100
AcDbEntity
  8
0
 62
     9
100
AcDbPolyline
 90
        2
 70
     0
 39
0.003
 10
0.123154
 20
2.112209
 40
0.003
 41
0.003
 10
0.125382
 20
2.111988
 40
0.003
 41
0.003
  0
LWPOLYLINE
  5
3D
100
AcDbEntity
  8
0
 62
     9
100
AcDbPolyline
 90
        2
 70
     0
 39
0.003
 10
0.125382
 20
2.111988
 40
0.003
 41
0.003
 10
-0.532248
 20
1.739953
 40
0.003
 41
0.003
  0
LWPOLYLINE
  5
3E
100
AcDbEntity
  8
0
 62
     9
100
AcDbPolyline
 90
        2
 70
     0
 39
0.003
 10
-0.532248
 20
1.739953
 40
0.003
 41
0.003
 10
-0.534476
 20
1.740173
 40
0.003
 41
0.003
  0
LWPOLYLINE
  5
3F
100
AcDbEntity
  8
0
 62
     9
100
AcDbPolyline
 90
        2
 70
     0
 39
0.003
 10
-0.532248
 20
1.739953
 40
0.003
 41
0.003
 10
0.125382
 20
2.111988
 40
0.003
 41
0.003
  0
LWPOLYLINE
  5
40
100
AcDbEntity
  8
0
 62
     9
100
AcDbPolyline
 90
        2
 70
     0
 39
0.003
 10
0.125382
 20
2.111988
 40
0.003
 41
0.003
 10
0.127461
 20
2.111339
 40
0.003
 41
0.003
  0
LWPOLYLINE
  5
41
100
AcDbEntity
  8
0
 62
     9
100
AcDbPolyline
 90
        2
 70
     0
 39
0.003
 10
0.127461
 20
2.111339
 40
0.003
 41
0.003
 10
-0.530169
 20
1.739303
 40
0.003
 41
0.003
  0
LWPOLYLINE
  5
42
100
AcDbEntity
  8
0
 62
     9
100
AcDbPolyline
 90
        2
 70
     0
 39
0.003
 10
-0.530169
 20
1.739303
 40
0.003
 41
0.003
 10
-0.532248
 20
1.739953
 40
0.003
 41
0.003
  0
LWPOLYLINE
  5
43
100
AcDbEntity
  8
0
 62
     9
100
AcDbPolyline
 90
        2
 70
     0
 39
0.003
 10
-0.530169
 20
1.739303
 40
0.003
 41
0.003
 10
0.127461
 20
2.111339
 40
0.003
 41
0.003
  0
LWPOLYLINE
  5
44
100
AcDbEntity
  8
0
 62
     9
100
AcDbPolyline
 90
        2
 70
     0
 39
0.003
 10
0.127461
 20
2.111339
 40
0.003
 41
0.003
 10
0.129343
 20
2.110319
 40
0.003
 41
0.003
  0
LWPOLYLINE
  5
45
100
AcDbEntity
  8
0
 62
     9
100
AcDbPolyline
 90
        2
 70
     0
 39
0.003
 10
0.129343
 20
2.110319
 40
0.003
 41
0.003
 10
-0.528287
 20
1.738283
 40
0.003
 41
0.003
  0
LWPOLYLINE
  5
46
100
AcDbEntity
  8
0
 62
     9
100
AcDbPolyline
 90
        2
 70
     0
 39
0.003
 10
-0.528287
 20
1.738283
 40
0.003
 41
0.003
 10
-0.530169
 20
1.739303
 40
0.003
 41
0.003
  0
LWPOLYLINE
  5
47
100
AcDbEntity
  8
0
 62
     9
100
AcDbPolyline
 90
        2
 70
     0
 39
0.003
 10
-0.528287
 20
1.738283
 40
0.003
 41
0.003
 10
0.129343
 20
2.110319
 40
0.003
 41
0.003
  0
LWPOLYLINE
  5
48
100
AcDbEntity
  8
0
 62
     9
100
AcDbPolyline
 90
        2
 70
     0
 39
0.003
 10
0.129343
 20
2.110319
 40
0.003
 41
0.003
 10
0.13098
 20
2.108961
 40
0.003
 41
0.003
  0
LWPOLYLINE
  5
49
100
AcDbEntity
  8
0
 62
     9
100
AcDbPolyline
 90
        2
 70
     0
 39
0.003
 10
0.13098
 20
2.108961
 40
0.003
 41
0.003
 10
-0.52665
 20
1.736925
 40
0.003
 41
0.003
  0
LWPOLYLINE
  5
4A
100
AcDbEntity
  8
0
 62
     9
100
AcDbPolyline
 90
        2
 70
     0
 39
0.003
 10
-0.52665
 20
1.736925
 40
0.003
 41
0.003
 10
-0.528287
 20
1.738283
 40
0.003
 41
0.003
  0
LWPOLYLINE
  5
4B
100
AcDbEntity
  8
0
 62
     9
100
AcDbPolyline
 90
        2
 70
     0
 39
0.003
 10
-0.52665
 20
1.736925
 40
0.003
 41
0.003
 10
0.13098
 20
2.108961
 40
0.003
 41
0.003
  0
LWPOLYLINE
  5
4C
100
AcDbEntity
  8
0
 62
     9
100
AcDbPolyline
 90
        2
 70
     0
 39
0.003
 10
0.13098
 20
2.108961
 40
0.003
 41
0.003
 10
0.132343
 20
2.107323
 40
0.003
 41
0.003
  0
LWPOLYLINE
  5
4D
100
AcDbEntity
  8
0
 62
     9
100
AcDbPolyline
 90
        2
 70
     0
 39
0.003
 10
0.132343
 20
2.107323
 40
0.003
 41
0.003
 10
-0.525287
 20
1.735287
 40
0.003
 41
0.003
  0
LWPOLYLINE
  5
4E
100
AcDbEntity
  8
0
 62
     9
100
AcDbPolyline
 90
        2
 70
     0
 39
0.003
 10
-0.525287
 20
1.735287
 40
0.003
 41
0.003
 10
-0.52665
 20
1.736925
 40
0.003
 41
0.003
  0
LWPOLYLINE
  5
4F
100
AcDbEntity
  8
0
 62
   254
100
AcDbPolyline
 90
        2
 70
     0
 39
0.003
 10
-0.525287
 20
1.735287
 40
0.003
 41
0.003
 10
0.132343
 20
2.107323
 40
0.003
 41
0.003
  0
LWPOLYLINE
  5
50
100
AcDbEntity
  8
0
 62
   254
100
AcDbPolyline
 90
        2
 70
     0
 39
0.003
 10
0.132343
 20
2.107323
 40
0.003
 41
0.003
 10
0.133362
 20
2.105441
 40
0.003
 41
0.003
  0
LWPOLYLINE
  5
51
100
AcDbEntity
  8
0
 62
   254
100
AcDbPolyline
 90
        2
 70
     0
 39
0.003
 10
0.133362
 20
2.105441
 40
0.003
 41
0.003
 10
-0.524268
 20
1.733406
 40
0.003
 41
0.003
  0
LWPOLYLINE
  5
52
100
AcDbEntity
  8
0
 62
   254
100
AcDbPolyline
 90
        2
 70
     0
 39
0.003
 10
-0.524268
 20
1.733406
 40
0.003
 41
0.003
 10
-0.525287
 20
1.735287
 40
0.003
 41
0.003
  0
LWPOLYLINE
  5
53
100
AcDbEntity
  8
0
 62
   254
100
AcDbPolyline
 90
        2
 70
     0
 39
0.003
 10
-0.524268
 20
1.733406
 40
0.003
 41
0.003
 10
0.133362
 20
2.105441
 40
0.003
 41
0.003
  0
LWPOLYLINE
  5
54
100
AcDbEntity
  8
0
 62
   254
100
AcDbPolyline
 90
        2
 70
     0
 39
0.003
 10
0.133362
 20
2.105441
 40
0.003
 41
0.003
 10
0.134012
 20
2.103362
 40
0.003
 41
0.003
  0
LWPOLYLINE
  5
55
100
AcDbEntity
  8
0
 62
   254
100
AcDbPolyline
 90
        2
 70
     0
 39
0.003
 10
0.134012
 20
2.103362
 40
0.003
 41
0.003
 10
-0.523618
 20
1.731327
 40
0.003
 41
0.003
  0
LWPOLYLINE
  5
56
100
AcDbEntity
  8
0
 62
   254
100
AcDbPolyline
 90
        2
 70
     0
 39
0.003
 10
-0.523618
 20
1.731327
 40
0.003
 41
0.003
 10
-0.524268
 20
1.733406
 40
0.003
 41
0.003
  0
LWPOLYLINE
  5
57
100
AcDbEntity
  8
0
 62
   254
100
AcDbPolyline
 90
        2
 70
     0
 39
0.003
 10
-0.523618
 20
1.731327
 40
0.003
 41
0.003
 10
0.134012
 20
2.103362
 40
0.003
 41
0.003
  0
LWPOLYLINE
  5
58
100
AcDbEntity
  8
0
 62
   254
100
AcDbPolyline
 90
        2
 70
     0
 39
0.003
 10
0.134012
 20
2.103362
 40
0.003
 41
0.003
 10
0.134232
 20
2.101134
 40
0.003
 41
0.003
  0
LWPOLYLINE
  5
59
100
AcDbEntity
  8
0
 62
   254
100
AcDbPolyline
 90
        2
 70
     0
 39
0.003
 10
0.134232
 20
2.101134
 40
0.003
 41
0.003
 10
-0.523398
 20
1.729098
 40
0.003
 41
0.003
  0
LWPOLYLINE
  5
5A
100
AcDbEntity
  8
0
 62
   254
100
AcDbPolyline
 90
        2
 70
     0
 39
0.003
 10
-0.523398
 20
1.729098
 40
0.003
 41
0.003
 10
-0.523618
 20
1.731327
 40
0.003
 41
0.003
  0
LWPOLYLINE
  5
5B
100
AcDbEntity
  8
0
 62
   254
100
AcDbPolyline
 90
        2
 70
     0
 39
0.003
 10
-0.523398
 20
1.729098
 40
0.003
 41
0.003
 10
0.134232
 20
2.101134
 40
0.003
 41
0.003
  0
LWPOLYLINE
  5
5C
100
AcDbEntity
  8
0
 62
   254
100
AcDbPolyline
 90
        2
 70
     0
 39
0.003
 10
0.134232
 20
2.101134
 40
0.003
 41
0.003
 10
0.134232
 20
0.498283
 40
0.003
 41
0.003
  0
LWPOLYLINE
  5
5D
100
AcDbEntity
  8
0
 62
   254
100
AcDbPolyline
 90
        2
 70
     0
 39
0.003
 10
0.134232
 20
0.498283
 40
0.003
 41
0.003
 10
-0.523398
 20
0.126248
 40
0.003
 41
0.003
  0
LWPOLYLINE
  5
5E
100
AcDbEntity
  8
0
 62
   254
100
AcDbPolyline
 90
        2
 70
     0
 39
0.003
 10
-0.523398
 20
0.126248
 40
0.003
 41
0.003
 10
-0.523398
 20
1.729098
 40
0.003
 41
0.003
  0
LWPOLYLINE
  5
5F
100
AcDbEntity
  8
0
 62
   254
100
AcDbPolyline
 90
        2
 70
     0
 39
0.003
 10
-0.523398
 20
0.126248
 40
0.003
 41
0.003
 10
0.134232
 20
0.498283
 40
0.003
 41
0.003
  0
LWPOLYLINE
  5
60
100
AcDbEntity
  8
0
 62
   254
100
AcDbPolyline
 90
        2
 70
     0
 39
0.003
 10
0.134232
 20
0.498283
 40
0.003
 41
0.003
 10
0.134012
 20
0.496067
 40
0.003
 41
0.003
  0
LWPOLYLINE
  5
61
100
AcDbEntity
  8
0
 62
   254
100
AcDbPolyline
 90
        2
 70
     0
 39
0.003
 10
0.134012
 20
0.496067
 40
0.003
 41
0.003
 10
-0.523618
 20
0.124031
 40
0.003
 41
0.003
  0
LWPOLYLINE
  5
62
100
AcDbEntity
  8
0
 62
   254
100
AcDbPolyline
 90
        2
 70
     0
 39
0.003
 10
-0.523618
 20
0.124031
 40
0.003
 41
0.003
 10
-0.523398
 20
0.126248
 40
0.003
 41
0.003
  0
LWPOLYLINE
  5
63
100
AcDbEntity
  8
0
 62
     9
100
AcDbPolyline
 90
        2
 70
     0
 39
0.003
 10
-0.523618
 20
0.124031
 40
0.003
 41
0.003
 10
0.134012
 20
0.496067
 40
0.003
 41
0.003
  0
LWPOLYLINE
  5
64
100
AcDbEntity
  8
0
 62
     9
100
AcDbPolyline
 90
        2
 70
     0
 39
0.003
 10
0.134012
 20
0.496067
 40
0.003
 41
0.003
 10
0.133362
 20
0.493988
 40
0.003
 41
0.003
  0
LWPOLYLINE
  5
65
100
AcDbEntity
  8
0
 62
     9
100
AcDbPolyline
 90
        2
 70
     0
 39
0.003
 10
0.133362
 20
0.493988
 40
0.003
 41
0.003
 10
-0.524268
 20
0.121953
 40
0.003
 41
0.003
  0
LWPOLYLINE
  5
66
100
AcDbEntity
  8
0
 62
     9
100
AcDbPolyline
 90
        2
 70
     0
 39
0.003
 10
-0.524268
 20
0.121953
 40
0.003
 41
0.003
 10
-0.523618
 20
0.124031
 40
0.003
 41
0.003
  0
LWPOLYLINE
  5
67
100
AcDbEntity
  8
0
 62
     9
100
AcDbPolyline
 90
        2
 70
     0
 39
0.003
 10
-0.524268
 20
0.121953
 40
0.003
 41
0.003
 10
0.133362
 20
0.493988
 40
0.003
 41
0.003
  0
LWPOLYLINE
  5
68
100
AcDbEntity
  8
0
 62
     9
100
AcDbPolyline
 90
        2
 70
     0
 39
0.003
 10
0.133362
 20
0.493988
 40
0.003
 41
0.003
 10
0.132343
 20
0.49211
 40
0.003
 41
0.003
  0
LWPOLYLINE
  5
69
100
AcDbEntity
  8
0
 62
     9
100
AcDbPolyline
 90
        2
 70
     0
 39
0.003
 10
0.132343
 20
0.49211
 40
0.003
 41
0.003
 10
-0.525287
 20
0.120075
 40
0.003
 41
0.003
  0
LWPOLYLINE
  5
6A
100
AcDbEntity
  8
0
 62
     9
100
AcDbPolyline
 90
        2
 70
     0
 39
0.003
 10
-0.525287
 20
0.120075
 40
0.003
 41
0.003
 10
-0.524268
 20
0.121953
 40
0.003
 41
0.003
  0
LWPOLYLINE
  5
6B
100
AcDbEntity
  8
0
 62
     9
100
AcDbPolyline
 90
        2
 70
     0
 39
0.003
 10
-0.525287
 20
0.120075
 40
0.003
 41
0.003
 10
0.132343
 20
0.49211
 40
0.003
 41
0.003
  0
LWPOLYLINE
  5
6C
100
AcDbEntity
  8
0
 62
     9
100
AcDbPolyline
 90
        2
 70
     0
 39
0.003
 10
0.132343
 20
0.49211
 40
0.003
 41
0.003
 10
0.13098
 20
0.490465
 40
0.003
 41
0.003
  0
LWPOLYLINE
  5
6D
100
AcDbEntity
  8
0
 62
     9
100
AcDbPolyline
 90
        2
 70
     0
 39
0.003
 10
0.13098
 20
0.490465
 40
0.003
 41
0.003
 10
-0.52665
 20
0.118429
 40
0.003
 41
0.003
  0
LWPOLYLINE
  5
6E
100
AcDbEntity
  8
0
 62
     9
100
AcDbPolyline
 90
        2
 70
     0
 39
0.003
 10
-0.52665
 20
0.118429
 40
0.003
 41
0.003
 10
-0.525287
 20
0.120075
 40
0.003
 41
0.003
  0
LWPOLYLINE
  5
6F
100
AcDbEntity
  8
0
 62
     9
100
AcDbPolyline
 90
        2
 70
     0
 39
0.003
 10
-0.52665
 20
0.118429
 40
0.003
 41
0.003
 10
0.13098
 20
0.490465
 40
0.003
 41
0.003
  0
LWPOLYLINE
  5
70
100
AcDbEntity
  8
0
 62
     9
100
AcDbPolyline
 90
        2
 70
     0
 39
0.003
 10
0.13098
 20
0.490465
 40
0.003
 41
0.003
 10
0.129343
 20
0.489114
 40
0.003
 41
0.003
  0
LWPOLYLINE
  5
71
100
AcDbEntity
  8
0
 62
     9
100
AcDbPolyline
 90
        2
 70
     0
 39
0.003
 10
0.129343
 20
0.489114
 40
0.003
 41
0.003
 10
-0.528287
 20
0.117079
 40
0.003
 41
0.003
  0
LWPOLYLINE
  5
72
100
AcDbEntity
  8
0
 62
     9
100
AcDbPolyline
 90
        2
 70
     0
 39
0.003
 10
-0.528287
 20
0.117079
 40
0.003
 41
0.003
 10
-0.52665
 20
0.118429
 40
0.003
 41
0.003
  0
LWPOLYLINE
  5
73
100
AcDbEntity
  8
0
 62
     0
100
AcDbPolyline
 90
        2
 70
     0
 39
0.003
 10
-1.47398
 20
1.739303
 40
0.003
 41
0.003
 10
-0.81635
 20
2.111339
 40
0.003
 41
0.003
  0
LWPOLYLINE
  5
74
100
AcDbEntity
  8
0
 62
     0
100
AcDbPolyline
 90
        2
 70
     0
 39
0.003
 10
-0.81635
 20
2.111339
 40
0.003
 41
0.003
 10
-0.814272
 20
2.111988
 40
0.003
 41
0.003
  0
LWPOLYLINE
  5
75
100
AcDbEntity
  8
0
 62
     0
100
AcDbPolyline
 90
        2
 70
     0
 39
0.003
 10
-0.814272
 20
2.111988
 40
0.003
 41
0.003
 10
-0.812051
 20
2.112209
 40
0.003
 41
0.003
  0
LWPOLYLINE
  5
76
100
AcDbEntity
  8
0
 62
     0
100
AcDbPolyline
 90
        2
 70
     0
 39
0.003
 10
-0.812051
 20
2.112209
 40
0.003
 41
0.003
 10
0.123154
 20
2.112209
 40
0.003
 41
0.003
  0
LWPOLYLINE
  5
77
100
AcDbEntity
  8
0
 62
     0
100
AcDbPolyline
 90
        2
 70
     0
 39
0.003
 10
0.123154
 20
2.112209
 40
0.003
 41
0.003
 10
0.125382
 20
2.111988
 40
0.003
 41
0.003
  0
LWPOLYLINE
  5
78
100
AcDbEntity
  8
0
 62
     0
100
AcDbPolyline
 90
        2
 70
     0
 39
0.003
 10
0.125382
 20
2.111988
 40
0.003
 41
0.003
 10
0.127461
 20
2.111339
 40
0.003
 41
0.003
  0
LWPOLYLINE
  5
79
100
AcDbEntity
  8
0
 62
     0
100
AcDbPolyline
 90
        2
 70
     0
 39
0.003
 10
0.127461
 20
2.111339
 40
0.003
 41
0.003
 10
0.129343
 20
2.110319
 40
0.003
 41
0.003
  0
LWPOLYLINE
  5
7A
100
AcDbEntity
  8
0
 62
     0
100
AcDbPolyline
 90
        2
 70
     0
 39
0.003
 10
0.129343
 20
2.110319
 40
0.003
 41
0.003
 10
0.13098
 20
2.108961
 40
0.003
 41
0.003
  0
LWPOLYLINE
  5
7B
100
AcDbEntity
  8
0
 62
     0
100
AcDbPolyline
 90
        2
 70
     0
 39
0.003
 10
0.13098
 20
2.108961
 40
0.003
 41
0.003
 10
0.132343
 20
2.107323
 40
0.003
 41
0.003
  0
LWPOLYLINE
  5
7C
100
AcDbEntity
  8
0
 62
     0
100
AcDbPolyline
 90
        2
 70
     0
 39
0.003
 10
0.132343
 20
2.107323
 40
0.003
 41
0.003
 10
0.133362
 20
2.105441
 40
0.003
 41
0.003
  0
LWPOLYLINE
  5
7D
100
AcDbEntity
  8
0
 62
     0
100
AcDbPolyline
 90
        2
 70
     0
 39
0.003
 10
0.133362
 20
2.105441
 40
0.003
 41
0.003
 10
0.134012
 20
2.103362
 40
0.003
 41
0.003
  0
LWPOLYLINE
  5
7E
100
AcDbEntity
  8
0
 62
     0
100
AcDbPolyline
 90
        2
 70
     0
 39
0.003
 10
0.134012
 20
2.103362
 40
0.003
 41
0.003
 10
0.134232
 20
2.101134
 40
0.003
 41
0.003
  0
LWPOLYLINE
  5
7F
100
AcDbEntity
  8
0
 62
     0
100
AcDbPolyline
 90
        2
 70
     0
 39
0.003
 10
0.134232
 20
2.101134
 40
0.003
 41
0.003
 10
0.134232
 20
0.498283
 40
0.003
 41
0.003
  0
LWPOLYLINE
  5
80
100
AcDbEntity
  8
0
 62
     0
100
AcDbPolyline
 90
        2
 70
     0
 39
0.003
 10
0.134232
 20
0.498283
 40
0.003
 41
0.003
 10
0.134012
 20
0.496067
 40
0.003
 41
0.003
  0
LWPOLYLINE
  5
81
100
AcDbEntity
  8
0
 62
     0
100
AcDbPolyline
 90
        2
 70
     0
 39
0.003
 10
0.134012
 20
0.496067
 40
0.003
 41
0.003
 10
0.133362
 20
0.493988
 40
0.003
 41
0.003
  0
LWPOLYLINE
  5
82
100
AcDbEntity
  8
0
 62
     0
100
AcDbPolyline
 90
        2
 70
     0
 39
0.003
 10
0.133362
 20
0.493988
 40
0.003
 41
0.003
 10
0.132343
 20
0.49211
 40
0.003
 41
0.003
  0
LWPOLYLINE
  5
83
100
AcDbEntity
  8
0
 62
     0
100
AcDbPolyline
 90
        2
 70
     0
 39
0.003
 10
0.132343
 20
0.49211
 40
0.003
 41
0.003
 10
0.13098
 20
0.490465
 40
0.003
 41
0.003
  0
LWPOLYLINE
  5
84
100
AcDbEntity
  8
0
 62
     0
100
AcDbPolyline
 90
        2
 70
     0
 39
0.003
 10
0.13098
 20
0.490465
 40
0.003
 41
0.003
 10
0.129343
 20
0.489114
 40
0.003
 41
0.003
  0
LWPOLYLINE
  5
85
100
AcDbEntity
  8
0
 62
     0
100
AcDbPolyline
 90
        2
 70
     0
 39
0.003
 10
0.129343
 20
0.489114
 40
0.003
 41
0.003
 10
-0.528287
 20
0.117079
 40
0.003
 41
0.003
  0
LWPOLYLINE
  5
86
100
AcDbEntity
  8
0
 62
     0
100
AcDbPolyline
 90
        2
 70
     0
 39
0.003
 10
-0.528287
 20
0.117079
 40
0.003
 41
0.003
 10
-0.52665
 20
0.118429
 40
0.003
 41
0.003
  0
LWPOLYLINE
  5
87
100
AcDbEntity
  8
0
 62
     0
100
AcDbPolyline
 90
        2
 70
     0
 39
0.003
 10
-0.52665
 20
0.118429
 40
0.003
 41
0.003
 10
-0.525287
 20
0.120075
 40
0.003
 41
0.003
  0
LWPOLYLINE
  5
88
100
AcDbEntity
  8
0
 62
     0
100
AcDbPolyline
 90
        2
 70
     0
 39
0.003
 10
-0.525287
 20
0.120075
 40
0.003
 41
0.003
 10
-0.524268
 20
0.121953
 40
0.003
 41
0.003
  0
LWPOLYLINE
  5
89
100
AcDbEntity
  8
0
 62
     0
100
AcDbPolyline
 90
        2
 70
     0
 39
0.003
 10
-0.524268
 20
0.121953
 40
0.003
 41
0.003
 10
-0.523618
 20
0.124031
 40
0.003
 41
0.003
  0
LWPOLYLINE
  5
8A
100
AcDbEntity
  8
0
 62
     0
100
AcDbPolyline
 90
        2
 70
     0
 39
0.003
 10
-0.523618
 20
0.124031
 40
0.003
 41
0.003
 10
-0.523398
 20
0.126248
 40
0.003
 41
0.003
  0
LWPOLYLINE
  5
8B
100
AcDbEntity
  8
0
 62
     0
100
AcDbPolyline
 90
        2
 70
     0
 39
0.003
 10
-0.523398
 20
0.126248
 40
0.003
 41
0.003
 10
-0.523398
 20
1.729098
 40
0.003
 41
0.003
  0
LWPOLYLINE
  5
8C
100
AcDbEntity
  8
0
 62
     0
100
AcDbPolyline
 90
        2
 70
     0
 39
0.003
 10
-0.523398
 20
1.729098
 40
0.003
 41
0.003
 10
-0.523618
 20
1.731327
 40
0.003
 41
0.003
  0
LWPOLYLINE
  5
8D
100
AcDbEntity
  8
0
 62
     0
100
AcDbPolyline
 90
        2
 70
     0
 39
0.003
 10
-0.523618
 20
1.731327
 40
0.003
 41
0.003
 10
-0.524268
 20
1.733406
 40
0.003
 41
0.003
  0
LWPOLYLINE
  5
8E
100
AcDbEntity
  8
0
 62
     0
100
AcDbPolyline
 90
        2
 70
     0
 39
0.003
 10
-0.524268
 20
1.733406
 40
0.003
 41
0.003
 10
-0.525287
 20
1.735287
 40
0.003
 41
0.003
  0
LWPOLYLINE
  5
8F
100
AcDbEntity
  8
0
 62
     0
100
AcDbPolyline
 90
        2
 70
     0
 39
0.003
 10
-0.525287
 20
1.735287
 40
0.003
 41
0.003
 10
-0.52665
 20
1.736925
 40
0.003
 41
0.003
  0
LWPOLYLINE
  5
90
100
AcDbEntity
  8
0
 62
     0
100
AcDbPolyline
 90
        2
 70
     0
 39
0.003
 10
-0.52665
 20
1.736925
 40
0.003
 41
0.003
 10
-0.528287
 20
1.738283
 40
0.003
 41
0.003
  0
LWPOLYLINE
  5
91
100
AcDbEntity
  8
0
 62
     0
100
AcDbPolyline
 90
        2
 70
     0
 39
0.003
 10
-0.528287
 20
1.738283
 40
0.003
 41
0.003
 10
-0.530169
 20
1.739303
 40
0.003
 41
0.003
  0
LWPOLYLINE
  5
92
100
AcDbEntity
  8
0
 62
     0
100
AcDbPolyline
 90
        2
 70
     0
 39
0.003
 10
-0.530169
 20
1.739303
 40
0.003
 41
0.003
 10
-0.532248
 20
1.739953
 40
0.003
 41
0.003
  0
LWPOLYLINE
  5
93
100
AcDbEntity
  8
0
 62
     0
100
AcDbPolyline
 90
        2
 70
     0
 39
0.003
 10
-0.532248
 20
1.739953
 40
0.003
 41
0.003
 10
-0.534476
 20
1.740173
 40
0.003
 41
0.003
  0
LWPOLYLINE
  5
94
100
AcDbEntity
  8
0
 62
     0
100
AcDbPolyline
 90
        2
 70
     0
 39
0.003
 10
-0.534476
 20
1.740173
 40
0.003
 41
0.003
 10
-1.469681
 20
1.740173
 40
0.003
 41
0.003
  0
LWPOLYLINE
  5
95
100
AcDbEntity
  8
0
 62
     0
100
AcDbPolyline
 90
        2
 70
     0
 39
0.003
 10
-1.469681
 20
1.740173
 40
0.003
 41
0.003
 10
-1.471902
 20
1.739953
 40
0.003
 41
0.003
  0
LWPOLYLINE
  5
96
100
AcDbEntity
  8
0
 62
     0
100
AcDbPolyline
 90
        2
 70
     0
 39
0.003
 10
-1.471902
 20
1.739953
 40
0.003
 41
0.003
 10
-1.47398
 20
1.739303
 40
0.003
 41
0.003
  0
LWPOLYLINE
  5
97
100
AcDbEntity
  8
0
 62
   127
100
AcDbPolyline
 90
        2
 70
     0
 39
0.003
 10
-1.47398
 20
1.739303
 40
0.003
 41
0.003
 10
-0.81635
 20
2.111339
 40
0.003
 41
0.003
  0
LWPOLYLINE
  5
98
100
AcDbEntity
  8
0
 62
   127
100
AcDbPolyline
 90
        2
 70
     0
 39
0.003
 10
-0.81635
 20
2.111339
 40
0.003
 41
0.003
 10
-0.814272
 20
2.111988
 40
0.003
 41
0.003
  0
LWPOLYLINE
  5
99
100
AcDbEntity
  8
0
 62
   127
100
AcDbPolyline
 90
        2
 70
     0
 39
0.003
 10
-0.814272
 20
2.111988
 40
0.003
 41
0.003
 10
-1.471902
 20
1.739953
 40
0.003
 41
0.003
  0
LWPOLYLINE
  5
9A
100
AcDbEntity
  8
0
 62
   127
100
AcDbPolyline
 90
        2
 70
     0
 39
0.003
 10
-1.471902
 20
1.739953
 40
0.003
 41
0.003
 10
-1.47398
 20
1.739303
 40
0.003
 41
0.003
  0
LWPOLYLINE
  5
9B
100
AcDbEntity
  8
0
 62
   253
100
AcDbPolyline
 90
        2
 70
     0
 39
0.003
 10
-1.471902
 20
1.739953
 40
0.003
 41
0.003
 10
-0.814272
 20
2.111988
 40
0.003
 41
0.003
  0
LWPOLYLINE
  5
9C
100
AcDbEntity
  8
0
 62
   253
100
AcDbPolyline
 90
        2
 70
     0
 39
0.003
 10
-0.814272
 20
2.111988
 40
0.003
 41
0.003
 10
-0.812051
 20
2.112209
 40
0.003
 41
0.003
  0
LWPOLYLINE
  5
9D
100
AcDbEntity
  8
0
 62
   253
100
AcDbPolyline
 90
        2
 70
     0
 39
0.003
 10
-0.812051
 20
2.112209
 40
0.003
 41
0.003
 10
-1.469681
 20
1.740173
 40
0.003
 41
0.003
  0
LWPOLYLINE
  5
9E
100
AcDbEntity
  8
0
 62
   253
100
AcDbPolyline
 90
        2
 70
     0
 39
0.003
 10
-1.469681
 20
1.740173
 40
0.003
 41
0.003
 10
-1.471902
 20
1.739953
 40
0.003
 41
0.003
  0
LWPOLYLINE
  5
9F
100
AcDbEntity
  8
0
 62
   253
100
AcDbPolyline
 90
        2
 70
     0
 39
0.003
 10
-1.469681
 20
1.740173
 40
0.003
 41
0.003
 10
-0.812051
 20
2.112209
 40
0.003
 41
0.003
  0
LWPOLYLINE
  5
A0
100
AcDbEntity
  8
0
 62
   253
100
AcDbPolyline
 90
        2
 70
     0
 39
0.003
 10
-0.812051
 20
2.112209
 40
0.003
 41
0.003
 10
0.123154
 20
2.112209
 40
0.003
 41
0.003
  0
LWPOLYLINE
  5
A1
100
AcDbEntity
  8
0
 62
   253
100
AcDbPolyline
 90
        2
 70
     0
 39
0.003
 10
0.123154
 20
2.112209
 40
0.003
 41
0.003
 10
-0.534476
 20
1.740173
 40
0.003
 41
0.003
  0
LWPOLYLINE
  5
A2
100
AcDbEntity
  8
0
 62
   253
100
AcDbPolyline
 90
        2
 70
     0
 39
0.003
 10
-0.534476
 20
1.740173
 40
0.003
 41
0.003
 10
-1.469681
 20
1.740173
 40
0.003
 41
0.003
  0
LWPOLYLINE
  5
A3
100
AcDbEntity
  8
0
 62
     9
100
AcDbPolyline
 90
        2
 70
     0
 39
0.003
 10
-0.534476
 20
1.740173
 40
0.003
 41
0.003
 10
0.123154
 20
2.112209
 40
0.003
 41
0.003
  0
LWPOLYLINE
  5
A4
100
AcDbEntity
  8
0
 62
     9
100
AcDbPolyline
 90
        2
 70
     0
 39
0.003
 10
0.123154
 20
2.112209
 40
0.003
 41
0.003
 10
0.125382
 20
2.111988
 40
0.003
 41
0.003
  0
LWPOLYLINE
  5
A5
100
AcDbEntity
  8
0
 62
     9
100
AcDbPolyline
 90
        2
 70
     0
 39
0.003
 10
0.125382
 20
2.111988
 40
0.003
 41
0.003
 10
-0.532248
 20
1.739953
 40
0.003
 41
0.003
  0
LWPOLYLINE
  5
A6
100
AcDbEntity
  8
0
 62
     9
100
AcDbPolyline
 90
        2
 70
     0
 39
0.003
 10
-0.532248
 20
1.739953
 40
0.003
 41
0.003
 10
-0.534476
 20
1.740173
 40
0.003
 41
0.003
  0
LWPOLYLINE
  5
A7
100
AcDbEntity
  8
0
 62
     9
100
AcDbPolyline
 90
        2
 70
     0
 39
0.003
 10
-0.532248
 20
1.739953
 40
0.003
 41
0.003
 10
0.125382
 20
2.111988
 40
0.003
 41
0.003
  0
LWPOLYLINE
  5
A8
100
AcDbEntity
  8
0
 62
     9
100
AcDbPolyline
 90
        2
 70
     0
 39
0.003
 10
0.125382
 20
2.111988
 40
0.003
 41
0.003
 10
0.127461
 20
2.111339
 40
0.003
 41
0.003
  0
LWPOLYLINE
  5
A9
100
AcDbEntity
  8
0
 62
     9
100
AcDbPolyline
 90
        2
 70
     0
 39
0.003
 10
0.127461
 20
2.111339
 40
0.003
 41
0.003
 10
-0.530169
 20
1.739303
 40
0.003
 41
0.003
  0
LWPOLYLINE
  5
AA
100
AcDbEntity
  8
0
 62
     9
100
AcDbPolyline
 90
        2
 70
     0
 39
0.003
 10
-0.530169
 20
1.739303
 40
0.003
 41
0.003
 10
-0.532248
 20
1.739953
 40
0.003
 41
0.003
  0
LWPOLYLINE
  5
AB
100
AcDbEntity
  8
0
 62
     9
100
AcDbPolyline
 90
        2
 70
     0
 39
0.003
 10
-0.530169
 20
1.739303
 40
0.003
 41
0.003
 10
0.127461
 20
2.111339
 40
0.003
 41
0.003
  0
LWPOLYLINE
  5
AC
100
AcDbEntity
  8
0
 62
     9
100
AcDbPolyline
 90
        2
 70
     0
 39
0.003
 10
0.127461
 20
2.111339
 40
0.003
 41
0.003
 10
0.129343
 20
2.110319
 40
0.003
 41
0.003
  0
LWPOLYLINE
  5
AD
100
AcDbEntity
  8
0
 62
     9
100
AcDbPolyline
 90
        2
 70
     0
 39
0.003
 10
0.129343
 20
2.110319
 40
0.003
 41
0.003
 10
-0.528287
 20
1.738283
 40
0.003
 41
0.003
  0
LWPOLYLINE
  5
AE
100
AcDbEntity
  8
0
 62
     9
100
AcDbPolyline
 90
        2
 70
     0
 39
0.003
 10
-0.528287
 20
1.738283
 40
0.003
 41
0.003
 10
-0.530169
 20
1.739303
 40
0.003
 41
0.003
  0
LWPOLYLINE
  5
AF
100
AcDbEntity
  8
0
 62
     9
100
AcDbPolyline
 90
        2
 70
     0
 39
0.003
 10
-0.528287
 20
1.738283
 40
0.003
 41
0.003
 10
0.129343
 20
2.110319
 40
0.003
 41
0.003
  0
LWPOLYLINE
  5
B0
100
AcDbEntity
  8
0
 62
     9
100
AcDbPolyline
 90
        2
 70
     0
 39
0.003
 10
0.129343
 20
2.110319
 40
0.003
 41
0.003
 10
0.13098
 20
2.108961
 40
0.003
 41
0.003
  0
LWPOLYLINE
  5
B1
100
AcDbEntity
  8
0
 62
     9
100
AcDbPolyline
 90
        2
 70
     0
 39
0.003
 10
0.13098
 20
2.108961
 40
0.003
 41
0.003
 10
-0.52665
 20
1.736925
 40
0.003
 41
0.003
  0
LWPOLYLINE
  5
B2
100
AcDbEntity
  8
0
 62
     9
100
AcDbPolyline
 90
        2
 70
     0
 39
0.003
 10
-0.52665
 20
1.736925
 40
0.003
 41
0.003
 10
-0.528287
 20
1.738283
 40
0.003
 41
0.003
  0
LWPOLYLINE
  5
B3
100
AcDbEntity
  8
0
 62
     9
100
AcDbPolyline
 90
        2
 70
     0
 39
0.003
 10
-0.52665
 20
1.736925
 40
0.003
 41
0.003
 10
0.13098
 20
2.108961
 40
0.003
 41
0.003
  0
LWPOLYLINE
  5
B4
100
AcDbEntity
  8
0
 62
     9
100
AcDbPolyline
 90
        2
 70
     0
 39
0.003
 10
0.13098
 20
2.108961
 40
0.003
 41
0.003
 10
0.132343
 20
2.107323
 40
0.003
 41
0.003
  0
LWPOLYLINE
  5
B5
100
AcDbEntity
  8
0
 62
     9
100
AcDbPolyline
 90
        2
 70
     0
 39
0.003
 10
0.132343
 20
2.107323
 40
0.003
 41
0.003
 10
-0.525287
 20
1.735287
 40
0.003
 41
0.003
  0
LWPOLYLINE
  5
B6
100
AcDbEntity
  8
0
 62
     9
100
AcDbPolyline
 90
        2
 70
     0
 39
0.003
 10
-0.525287
 20
1.735287
 40
0.003
 41
0.003
 10
-0.52665
 20
1.736925
 40
0.003
 41
0.003
  0
LWPOLYLINE
  5
B7
100
AcDbEntity
  8
0
 62
   254
100
AcDbPolyline
 90
        2
 70
     0
 39
0.003
 10
-0.525287
 20
1.735287
 40
0.003
 41
0.003
 10
0.132343
 20
2.107323
 40
0.003
 41
0.003
  0
LWPOLYLINE
  5
B8
100
AcDbEntity
  8
0
 62
   254
100
AcDbPolyline
 90
        2
 70
     0
 39
0.003
 10
0.132343
 20
2.107323
 40
0.003
 41
0.003
 10
0.133362
 20
2.105441
 40
0.003
 41
0.003
  0
LWPOLYLINE
  5
B9
100
AcDbEntity
  8
0
 62
   254
100
AcDbPolyline
 90
        2
 70
     0
 39
0.003
 10
0.133362
 20
2.105441
 40
0.003
 41
0.003
 10
-0.524268
 20
1.733406
 40
0.003
 41
0.003
  0
LWPOLYLINE
  5
BA
100
AcDbEntity
  8
0
 62
   254
100
AcDbPolyline
 90
        2
 70
     0
 39
0.003
 10
-0.524268
 20
1.733406
 40
0.003
 41
0.003
 10
-0.525287
 20
1.735287
 40
0.003
 41
0.003
  0
LWPOLYLINE
  5
BB
100
AcDbEntity
  8
0
 62
   254
100
AcDbPolyline
 90
        2
 70
     0
 39
0.003
 10
-0.524268
 20
1.733406
 40
0.003
 41
0.003
 10
0.133362
 20
2.105441
 40
0.003
 41
0.003
  0
LWPOLYLINE
  5
BC
100
AcDbEntity
  8
0
 62
   254
100
AcDbPolyline
 90
        2
 70
     0
 39
0.003
 10
0.133362
 20
2.105441
 40
0.003
 41
0.003
 10
0.134012
 20
2.103362
 40
0.003
 41
0.003
  0
LWPOLYLINE
  5
BD
100
AcDbEntity
  8
0
 62
   254
100
AcDbPolyline
 90
        2
 70
     0
 39
0.003
 10
0.134012
 20
2.103362
 40
0.003
 41
0.003
 10
-0.523618
 20
1.731327
 40
0.003
 41
0.003
  0
LWPOLYLINE
  5
BE
100
AcDbEntity
  8
0
 62
   254
100
AcDbPolyline
 90
        2
 70
     0
 39
0.003
 10
-0.523618
 20
1.731327
 40
0.003
 41
0.003
 10
-0.524268
 20
1.733406
 40
0.003
 41
0.003
  0
LWPOLYLINE
  5
BF
100
AcDbEntity
  8
0
 62
   254
100
AcDbPolyline
 90
        2
 70
     0
 39
0.003
 10
-0.523618
 20
1.731327
 40
0.003
 41
0.003
 10
0.134012
 20
2.103362
 40
0.003
 41
0.003
  0
LWPOLYLINE
  5
C0
100
AcDbEntity
  8
0
 62
   254
100
AcDbPolyline
 90
        2
 70
     0
 39
0.003
 10
0.134012
 20
2.103362
 40
0.003
 41
0.003
 10
0.134232
 20
2.101134
 40
0.003
 41
0.003
  0
LWPOLYLINE
  5
C1
100
AcDbEntity
  8
0
 62
   254
100
AcDbPolyline
 90
        2
 70
     0
 39
0.003
 10
0.134232
 20
2.101134
 40
0.003
 41
0.003
 10
-0.523398
 20
1.729098
 40
0.003
 41
0.003
  0
LWPOLYLINE
  5
C2
100
AcDbEntity
  8
0
 62
   254
100
AcDbPolyline
 90
        2
 70
     0
 39
0.003
 10
-0.523398
 20
1.729098
 40
0.003
 41
0.003
 10
-0.523618
 20
1.731327
 40
0.003
 41
0.003
  0
LWPOLYLINE
  5
C3
100
AcDbEntity
  8
0
 62
   254
100
AcDbPolyline
 90
        2
 70
     0
 39
0.003
 10
-0.523398
 20
1.729098
 40
0.003
 41
0.003
 10
0.134232
 20
2.101134
 40
0.003
 41
0.003
  0
LWPOLYLINE
  5
C4
100
AcDbEntity
  8
0
 62
   254
100
AcDbPolyline
 90
        2
 70
     0
 39
0.003
 10
0.134232
 20
2.101134
 40
0.003
 41
0.003
 10
0.134232
 20
0.498283
 40
0.003
 41
0.003
  0
LWPOLYLINE
  5
C5
100
AcDbEntity
  8
0
 62
   254
100
AcDbPolyline
 90
        2
 70
     0
 39
0.003
 10
0.134232
 20
0.498283
 40
0.003
 41
0.003
 10
-0.523398
 20
0.126248
 40
0.003
 41
0.003
  0
LWPOLYLINE
  5
C6
100
AcDbEntity
  8
0
 62
   254
100
AcDbPolyline
 90
        2
 70
     0
 39
0.003
 10
-0.523398
 20
0.126248
 40
0.003
 41
0.003
 10
-0.523398
 20
1.729098
 40
0.003
 41
0.003
  0
LWPOLYLINE
  5
C7
100
AcDbEntity
  8
0
 62
   254
100
AcDbPolyline
 90
        2
 70
     0
 39
0.003
 10
-0.523398
 20
0.126248
 40
0.003
 41
0.003
 10
0.134232
 20
0.498283
 40
0.003
 41
0.003
  0
LWPOLYLINE
  5
C8
100
AcDbEntity
  8
0
 62
   254
100
AcDbPolyline
 90
        2
 70
     0
 39
0.003
 10
0.134232
 20
0.498283
 40
0.003
 41
0.003
 10
0.134012
 20
0.496067
 40
0.003
 41
0.003
  0
LWPOLYLINE
  5
C9
100
AcDbEntity
  8
0
 62
   254
100
AcDbPolyline
 90
        2
 70
     0
 39
0.003
 10
0.134012
 20
0.496067
 40
0.003
 41
0.003
 10
-0.523618
 20
0.124031
 40
0.003
 41
0.003
  0
LWPOLYLINE
  5
CA
100
AcDbEntity
  8
0
 62
   254
100
AcDbPolyline
 90
        2
 70
     0
 39
0.003
 10
-0.523618
 20
0.124031
 40
0.003
 41
0.003
 10
-0.523398
 20
0.126248
 40
0.003
 41
0.003
  0
LWPOLYLINE
  5
CB
100
AcDbEntity
  8
0
 62
     9
100
AcDbPolyline
 90
        2
 70
     0
 39
0.003
 10
-0.523618
 20
0.124031
 40
0.003
 41
0.003
 10
0.134012
 20
0.496067
 40
0.003
 41
0.003
  0
LWPOLYLINE
  5
CC
100
AcDbEntity
  8
0
 62
     9
100
AcDbPolyline
 90
        2
 70
     0
 39
0.003
 10
0.134012
 20
0.496067
 40
0.003
 41
0.003
 10
0.133362
 20
0.493988
 40
0.003
 41
0.003
  0
LWPOLYLINE
  5
CD
100
AcDbEntity
  8
0
 62
     9
100
AcDbPolyline
 90
        2
 70
     0
 39
0.003
 10
0.133362
 20
0.493988
 40
0.003
 41
0.003
 10
-0.524268
 20
0.121953
 40
0.003
 41
0.003
  0
LWPOLYLINE
  5
CE
100
AcDbEntity
  8
0
 62
     9
100
AcDbPolyline
 90
        2
 70
     0
 39
0.003
 10
-0.524268
 20
0.121953
 40
0.003
 41
0.003
 10
-0.523618
 20
0.124031
 40
0.003
 41
0.003
  0
LWPOLYLINE
  5
CF
100
AcDbEntity
  8
0
 62
     9
100
AcDbPolyline
 90
        2
 70
     0
 39
0.003
 10
-0.524268
 20
0.121953
 40
0.003
 41
0.003
 10
0.133362
 20
0.493988
 40
0.003
 41
0.003
  0
LWPOLYLINE
  5
D0
100
AcDbEntity
  8
0
 62
     9
100
AcDbPolyline
 90
        2
 70
     0
 39
0.003
 10
0.133362
 20
0.493988
 40
0.003
 41
0.003
 10
0.132343
 20
0.49211
 40
0.003
 41
0.003
  0
LWPOLYLINE
  5
D1
100
AcDbEntity
  8
0
 62
     9
100
AcDbPolyline
 90
        2
 70
     0
 39
0.003
 10
0.132343
 20
0.49211
 40
0.003
 41
0.003
 10
-0.525287
 20
0.120075
 40
0.003
 41
0.003
  0
LWPOLYLINE
  5
D2
100
AcDbEntity
  8
0
 62
     9
100
AcDbPolyline
 90
        2
 70
     0
 39
0.003
 10
-0.525287
 20
0.120075
 40
0.003
 41
0.003
 10
-0.524268
 20
0.121953
 40
0.003
 41
0.003
  0
LWPOLYLINE
  5
D3
100
AcDbEntity
  8
0
 62
     9
100
AcDbPolyline
 90
        2
 70
     0
 39
0.003
 10
-0.525287
 20
0.120075
 40
0.003
 41
0.003
 10
0.132343
 20
0.49211
 40
0.003
 41
0.003
  0
LWPOLYLINE
  5
D4
100
AcDbEntity
  8
0
 62
     9
100
AcDbPolyline
 90
        2
 70
     0
 39
0.003
 10
0.132343
 20
0.49211
 40
0.003
 41
0.003
 10
0.13098
 20
0.490465
 40
0.003
 41
0.003
  0
LWPOLYLINE
  5
D5
100
AcDbEntity
  8
0
 62
     9
100
AcDbPolyline
 90
        2
 70
     0
 39
0.003
 10
0.13098
 20
0.490465
 40
0.003
 41
0.003
 10
-0.52665
 20
0.118429
 40
0.003
 41
0.003
  0
LWPOLYLINE
  5
D6
100
AcDbEntity
  8
0
 62
     9
100
AcDbPolyline
 90
        2
 70
     0
 39
0.003
 10
-0.52665
 20
0.118429
 40
0.003
 41
0.003
 10
-0.525287
 20
0.120075
 40
0.003
 41
0.003
  0
LWPOLYLINE
  5
D7
100
AcDbEntity
  8
0
 62
     9
100
AcDbPolyline
 90
        2
 70
     0
 39
0.003
 10
-0.52665
 20
0.118429
 40
0.003
 41
0.003
 10
0.13098
 20
0.490465
 40
0.003
 41
0.003
  0
LWPOLYLINE
  5
D8
100
AcDbEntity
  8
0
 62
     9
100
AcDbPolyline
 90
        2
 70
     0
 39
0.003
 10
0.13098
 20
0.490465
 40
0.003
 41
0.003
 10
0.129343
 20
0.489114
 40
0.003
 41
0.003
  0
LWPOLYLINE
  5
D9
100
AcDbEntity
  8
0
 62
     9
100
AcDbPolyline
 90
        2
 70
     0
 39
0.003
 10
0.129343
 20
0.489114
 40
0.003
 41
0.003
 10
-0.528287
 20
0.117079
 40
0.003
 41
0.003
  0
LWPOLYLINE
  5
DA
100
AcDbEntity
  8
0
 62
     9
100
AcDbPolyline
 90
        2
 70
     0
 39
0.003
 10
-0.528287
 20
0.117079
 40
0.003
 41
0.003
 10
-0.52665
 20
0.118429
 40
0.003
 41
0.003
  0
LWPOLYLINE
  5
DB
100
AcDbEntity
  8
0
 62
     0
100
AcDbPolyline
 90
        2
 70
     0
 39
0.003
 10
-1.47398
 20
1.739303
 40
0.003
 41
0.003
 10
-0.81635
 20
2.111339
 40
0.003
 41
0.003
  0
LWPOLYLINE
  5
DC
100
AcDbEntity
  8
0
 62
     0
100
AcDbPolyline
 90
        2
 70
     0
 39
0.003
 10
-0.81635
 20
2.111339
 40
0.003
 41
0.003
 10
-0.814272
 20
2.111988
 40
0.003
 41
0.003
  0
LWPOLYLINE
  5
DD
100
AcDbEntity
  8
0
 62
     0
100
AcDbPolyline
 90
        2
 70
     0
 39
0.003
 10
-0.814272
 20
2.111988
 40
0.003
 41
0.003
 10
-0.812051
 20
2.112209
 40
0.003
 41
0.003
  0
LWPOLYLINE
  5
DE
100
AcDbEntity
  8
0
 62
     0
100
AcDbPolyline
 90
        2
 70
     0
 39
0.003
 10
-0.812051
 20
2.112209
 40
0.003
 41
0.003
 10
0.123154
 20
2.112209
 40
0.003
 41
0.003
  0
LWPOLYLINE
  5
DF
100
AcDbEntity
  8
0
 62
     0
100
AcDbPolyline
 90
        2
 70
     0
 39
0.003
 10
0.123154
 20
2.112209
 40
0.003
 41
0.003
 10
0.125382
 20
2.111988
 40
0.003
 41
0.003
  0
LWPOLYLINE
  5
E0
100
AcDbEntity
  8
0
 62
     0
100
AcDbPolyline
 90
        2
 70
     0
 39
0.003
 10
0.125382
 20
2.111988
 40
0.003
 41
0.003
 10
0.127461
 20
2.111339
 40
0.003
 41
0.003
  0
LWPOLYLINE
  5
E1
100
AcDbEntity
  8
0
 62
     0
100
AcDbPolyline
 90
        2
 70
     0
 39
0.003
 10
0.127461
 20
2.111339
 40
0.003
 41
0.003
 10
0.129343
 20
2.110319
 40
0.003
 41
0.003
  0
LWPOLYLINE
  5
E2
100
AcDbEntity
  8
0
 62
     0
100
AcDbPolyline
 90
        2
 70
     0
 39
0.003
 10
0.129343
 20
2.110319
 40
0.003
 41
0.003
 10
0.13098
 20
2.108961
 40
0.003
 41
0.003
  0
LWPOLYLINE
  5
E3
100
AcDbEntity
  8
0
 62
     0
100
AcDbPolyline
 90
        2
 70
     0
 39
0.003
 10
0.13098
 20
2.108961
 40
0.003
 41
0.003
 10
0.132343
 20
2.107323
 40
0.003
 41
0.003
  0
LWPOLYLINE
  5
E4
100
AcDbEntity
  8
0
 62
     0
100
AcDbPolyline
 90
        2
 70
     0
 39
0.003
 10
0.132343
 20
2.107323
 40
0.003
 41
0.003
 10
0.133362
 20
2.105441
 40
0.003
 41
0.003
  0
LWPOLYLINE
  5
E5
100
AcDbEntity
  8
0
 62
     0
100
AcDbPolyline
 90
        2
 70
     0
 39
0.003
 10
0.133362
 20
2.105441
 40
0.003
 41
0.003
 10
0.134012
 20
2.103362
 40
0.003
 41
0.003
  0
LWPOLYLINE
  5
E6
100
AcDbEntity
  8
0
 62
     0
100
AcDbPolyline
 90
        2
 70
     0
 39
0.003
 10
0.134012
 20
2.103362
 40
0.003
 41
0.003
 10
0.134232
 20
2.101134
 40
0.003
 41
0.003
  0
LWPOLYLINE
  5
E7
100
AcDbEntity
  8
0
 62
     0
100
AcDbPolyline
 90
        2
 70
     0
 39
0.003
 10
0.134232
 20
2.101134
 40
0.003
 41
0.003
 10
0.134232
 20
0.498283
 40
0.003
 41
0.003
  0
LWPOLYLINE
  5
E8
100
AcDbEntity
  8
0
 62
     0
100
AcDbPolyline
 90
        2
 70
     0
 39
0.003
 10
0.134232
 20
0.498283
 40
0.003
 41
0.003
 10
0.134012
 20
0.496067
 40
0.003
 41
0.003
  0
LWPOLYLINE
  5
E9
100
AcDbEntity
  8
0
 62
     0
100
AcDbPolyline
 90
        2
 70
     0
 39
0.003
 10
0.134012
 20
0.496067
 40
0.003
 41
0.003
 10
0.133362
 20
0.493988
 40
0.003
 41
0.003
  0
LWPOLYLINE
  5
EA
100
AcDbEntity
  8
0
 62
     0
100
AcDbPolyline
 90
        2
 70
     0
 39
0.003
 10
0.133362
 20
0.493988
 40
0.003
 41
0.003
 10
0.132343
 20
0.49211
 40
0.003
 41
0.003
  0
LWPOLYLINE
  5
EB
100
AcDbEntity
  8
0
 62
     0
100
AcDbPolyline
 90
        2
 70
     0
 39
0.003
 10
0.132343
 20
0.49211
 40
0.003
 41
0.003
 10
0.13098
 20
0.490465
 40
0.003
 41
0.003
  0
LWPOLYLINE
  5
EC
100
AcDbEntity
  8
0
 62
     0
100
AcDbPolyline
 90
        2
 70
     0
 39
0.003
 10
0.13098
 20
0.490465
 40
0.003
 41
0.003
 10
0.129343
 20
0.489114
 40
0.003
 41
0.003
  0
LWPOLYLINE
  5
ED
100
AcDbEntity
  8
0
 62
     0
100
AcDbPolyline
 90
        2
 70
     0
 39
0.003
 10
0.129343
 20
0.489114
 40
0.003
 41
0.003
 10
-0.528287
 20
0.117079
 40
0.003
 41
0.003
  0
LWPOLYLINE
  5
EE
100
AcDbEntity
  8
0
 62
     0
100
AcDbPolyline
 90
        2
 70
     0
 39
0.003
 10
-0.528287
 20
0.117079
 40
0.003
 41
0.003
 10
-0.52665
 20
0.118429
 40
0.003
 41
0.003
  0
LWPOLYLINE
  5
EF
100
AcDbEntity
  8
0
 62
     0
100
AcDbPolyline
 90
        2
 70
     0
 39
0.003
 10
-0.52665
 20
0.118429
 40
0.003
 41
0.003
 10
-0.525287
 20
0.120075
 40
0.003
 41
0.003
  0
LWPOLYLINE
  5
F0
100
AcDbEntity
  8
0
 62
     0
100
AcDbPolyline
 90
        2
 70
     0
 39
0.003
 10
-0.525287
 20
0.120075
 40
0.003
 41
0.003
 10
-0.524268
 20
0.121953
 40
0.003
 41
0.003
  0
LWPOLYLINE
  5
F1
100
AcDbEntity
  8
0
 62
     0
100
AcDbPolyline
 90
        2
 70
     0
 39
0.003
 10
-0.524268
 20
0.121953
 40
0.003
 41
0.003
 10
-0.523618
 20
0.124031
 40
0.003
 41
0.003
  0
LWPOLYLINE
  5
F2
100
AcDbEntity
  8
0
 62
     0
100
AcDbPolyline
 90
        2
 70
     0
 39
0.003
 10
-0.523618
 20
0.124031
 40
0.003
 41
0.003
 10
-0.523398
 20
0.126248
 40
0.003
 41
0.003
  0
LWPOLYLINE
  5
F3
100
AcDbEntity
  8
0
 62
     0
100
AcDbPolyline
 90
        2
 70
     0
 39
0.003
 10
-0.523398
 20
0.126248
 40
0.003
 41
0.003
 10
-0.523398
 20
1.729098
 40
0.003
 41
0.003
  0
LWPOLYLINE
  5
F4
100
AcDbEntity
  8
0
 62
     0
100
AcDbPolyline
 90
        2
 70
     0
 39
0.003
 10
-0.523398
 20
1.729098
 40
0.003
 41
0.003
 10
-0.523618
 20
1.731327
 40
0.003
 41
0.003
  0
LWPOLYLINE
  5
F5
100
AcDbEntity
  8
0
 62
     0
100
AcDbPolyline
 90
        2
 70
     0
 39
0.003
 10
-0.523618
 20
1.731327
 40
0.003
 41
0.003
 10
-0.524268
 20
1.733406
 40
0.003
 41
0.003
  0
LWPOLYLINE
  5
F6
100
AcDbEntity
  8
0
 62
     0
100
AcDbPolyline
 90
        2
 70
     0
 39
0.003
 10
-0.524268
 20
1.733406
 40
0.003
 41
0.003
 10
-0.525287
 20
1.735287
 40
0.003
 41
0.003
  0
LWPOLYLINE
  5
F7
100
AcDbEntity
  8
0
 62
     0
100
AcDbPolyline
 90
        2
 70
     0
 39
0.003
 10
-0.525287
 20
1.735287
 40
0.003
 41
0.003
 10
-0.52665
 20
1.736925
 40
0.003
 41
0.003
  0
LWPOLYLINE
  5
F8
100
AcDbEntity
  8
0
 62
     0
100
AcDbPolyline
 90
        2
 70
     0
 39
0.003
 10
-0.52665
 20
1.736925
 40
0.003
 41
0.003
 10
-0.528287
 20
1.738283
 40
0.003
 41
0.003
  0
LWPOLYLINE
  5
F9
100
AcDbEntity
  8
0
 62
     0
100
AcDbPolyline
 90
        2
 70
     0
 39
0.003
 10
-0.528287
 20
1.738283
 40
0.003
 41
0.003
 10
-0.530169
 20
1.739303
 40
0.003
 41
0.003
  0
LWPOLYLINE
  5
FA
100
AcDbEntity
  8
0
 62
     0
100
AcDbPolyline
 90
        2
 70
     0
 39
0.003
 10
-0.530169
 20
1.739303
 40
0.003
 41
0.003
 10
-0.532248
 20
1.739953
 40
0.003
 41
0.003
  0
LWPOLYLINE
  5
FB
100
AcDbEntity
  8
0
 62
     0
100
AcDbPolyline
 90
        2
 70
     0
 39
0.003
 10
-0.532248
 20
1.739953
 40
0.003
 41
0.003
 10
-0.534476
 20
1.740173
 40
0.003
 41
0.003
  0
LWPOLYLINE
  5
FC
100
AcDbEntity
  8
0
 62
     0
100
AcDbPolyline
 90
        2
 70
     0
 39
0.003
 10
-0.534476
 20
1.740173
 40
0.003
 41
0.003
 10
-1.469681
 20
1.740173
 40
0.003
 41
0.003
  0
LWPOLYLINE
  5
FD
100
AcDbEntity
  8
0
 62
     0
100
AcDbPolyline
 90
        2
 70
     0
 39
0.003
 10
-1.469681
 20
1.740173
 40
0.003
 41
0.003
 10
-1.471902
 20
1.739953
 40
0.003
 41
0.003
  0
LWPOLYLINE
  5
FE
100
AcDbEntity
  8
0
 62
     0
100
AcDbPolyline
 90
        2
 70
     0
 39
0.003
 10
-1.471902
 20
1.739953
 40
0.003
 41
0.003
 10
-1.47398
 20
1.739303
 40
0.003
 41
0.003
  0
LWPOLYLINE
  5
FF
100
AcDbEntity
  8
0
 62
     7
100
AcDbPolyline
 90
        2
 70
     0
 39
0.003
 10
-1.469681
 20
1.740173
 40
0.003
 41
0.003
 10
-0.534476
 20
1.740173
 40
0.003
 41
0.003
  0
SPLINE
  5
100
100
AcDbEntity
  8
0
 62
     7
100
AcDbSpline
210
0.0
220
0.0
230
1.0
 70
     0
 71
     3
 72
     0
 73
     0
 74
    16
 44
0.0000000001
 11
-0.5344763779527559
 21
1.7401732283464566
 31
0.0
 11
-0.5333425196850393
 21
1.7401141732283465
 31
0.0
 11
-0.532248031496063
 21
1.7399448818897638
 31
0.0
 11
-0.5311850393700788
 21
1.7396653543307086
 31
0.0
 11
-0.5301692913385827
 21
1.7392952755905511
 31
0.0
 11
-0.5292007874015748
 21
1.7388228346456693
 31
0.0
 11
-0.5282874015748031
 21
1.738267716535433
 31
0.0
 11
-0.5274291338582677
 21
1.7376259842519686
 31
0.0
 11
-0.5266496062992127
 21
1.7369173228346457
 31
0.0
 11
-0.5259291338582677
 21
1.7361259842519685
 31
0.0
 11
-0.5252874015748031
 21
1.735271653543307
 31
0.0
 11
-0.5247283464566929
 21
1.7343582677165355
 31
0.0
 11
-0.524267716535433
 21
1.7333976377952756
 31
0.0
 11
-0.5238897637795276
 21
1.7323779527559056
 31
0.0
 11
-0.5236181102362205
 21
1.7313188976377953
 31
0.0
 11
-0.5234488188976378
 21
1.7302204724409449
 31
0.0
  0
LWPOLYLINE
  5
101
100
AcDbEntity
  8
0
 62
     7
100
AcDbPolyline
 90
        2
 70
     0
 39
0.003
 10
-0.523449
 20
1.73022
 40
0.003
 41
0.003
 10
-0.523398
 20
1.729098
 40
0.003
 41
0.003
  0
LWPOLYLINE
  5
102
100
AcDbEntity
  8
0
 62
     7
100
AcDbPolyline
 90
        2
 70
     0
 39
0.003
 10
-0.523398
 20
1.729098
 40
0.003
 41
0.003
 10
-0.523398
 20
0.126248
 40
0.003
 41
0.003
  0
SPLINE
  5
103
100
AcDbEntity
  8
0
 62
     7
100
AcDbSpline
210
0.0
220
0.0
230
1.0
 70
     0
 71
     3
 72
     0
 73
     0
 74
    16
 44
0.0000000001
 11
-0.5233976377952756
 21
0.126248031496063
 31
0.0
 11
-0.5234488188976378
 21
0.1251141732283465
 31
0.0
 11
-0.5236181102362205
 21
0.1240196850393701
 31
0.0
 11
-0.5238897637795276
 21
0.1229566929133858
 31
0.0
 11
-0.524267716535433
 21
0.1219448818897638
 31
0.0
 11
-0.5247283464566929
 21
0.1209763779527559
 31
0.0
 11
-0.5252874015748031
 21
0.1200629921259843
 31
0.0
 11
-0.5259291338582677
 21
0.1192047244094488
 31
0.0
 11
-0.5266496062992127
 21
0.1184251968503937
 31
0.0
 11
-0.5274291338582677
 21
0.1177047244094488
 31
0.0
 11
-0.5282874015748031
 21
0.1170629921259843
 31
0.0
 11
-0.5292007874015748
 21
0.116503937007874
 31
0.0
 11
-0.5301692913385827
 21
0.1160433070866142
 31
0.0
 11
-0.5311850393700788
 21
0.1156653543307087
 31
0.0
 11
-0.532248031496063
 21
0.1153937007874016
 31
0.0
 11
-0.5333425196850393
 21
0.1152244094488189
 31
0.0
  0
LWPOLYLINE
  5
104
100
AcDbEntity
  8
0
 62
     7
100
AcDbPolyline
 90
        2
 70
     0
 39
0.003
 10
-0.533343
 20
0.115224
 40
0.003
 41
0.003
 10
-0.534476
 20
0.115173
 40
0.003
 41
0.003
  0
LWPOLYLINE
  5
105
100
AcDbEntity
  8
0
 62
     7
100
AcDbPolyline
 90
        2
 70
     0
 39
0.003
 10
-0.534476
 20
0.115173
 40
0.003
 41
0.003
 10
-1.469681
 20
0.115173
 40
0.003
 41
0.003
  0
SPLINE
  5
106
100
AcDbEntity
  8
0
 62
     7
100
AcDbSpline
210
0.0
220
0.0
230
1.0
 70
     0
 71
     3
 72
     0
 73
     0
 74
    16
 44
0.0000000001
 11
-1.4696811023622047
 21
0.1151732283464567
 31
0.0
 11
-1.4708031496062992
 21
0.1152244094488189
 31
0.0
 11
-1.4719015748031496
 21
0.1153937007874016
 31
0.0
 11
-1.4729606299212599
 21
0.1156653543307087
 31
0.0
 11
-1.4739803149606299
 21
0.1160433070866142
 31
0.0
 11
-1.4749448818897637
 21
0.116503937007874
 31
0.0
 11
-1.4758582677165355
 21
0.1170629921259843
 31
0.0
 11
-1.4767125984251968
 21
0.1177047244094488
 31
0.0
 11
-1.477503937007874
 21
0.1184251968503937
 31
0.0
 11
-1.4782125984251968
 21
0.1192047244094488
 31
0.0
 11
-1.4788543307086615
 21
0.1200629921259843
 31
0.0
 11
-1.4794094488188976
 21
0.1209763779527559
 31
0.0
 11
-1.4798818897637795
 21
0.1219448818897638
 31
0.0
 11
-1.480251968503937
 21
0.1229566929133858
 31
0.0
 11
-1.4805314960629921
 21
0.1240196850393701
 31
0.0
 11
-1.4807007874015747
 21
0.1251141732283465
 31
0.0
  0
LWPOLYLINE
  5
107
100
AcDbEntity
  8
0
 62
     7
100
AcDbPolyline
 90
        2
 70
     0
 39
0.003
 10
-1.480701
 20
0.125114
 40
0.003
 41
0.003
 10
-1.48076
 20
0.126248
 40
0.003
 41
0.003
  0
LWPOLYLINE
  5
108
100
AcDbEntity
  8
0
 62
     7
100
AcDbPolyline
 90
        2
 70
     0
 39
0.003
 10
-1.48076
 20
0.126248
 40
0.003
 41
0.003
 10
-1.48076
 20
1.729098
 40
0.003
 41
0.003
  0
SPLINE
  5
109
100
AcDbEntity
  8
0
 62
     7
100
AcDbSpline
210
0.0
220
0.0
230
1.0
 70
     0
 71
     3
 72
     0
 73
     0
 74
    17
 44
0.0000000001
 11
-1.4807598425196851
 21
1.7290984251968504
 31
0.0
 11
-1.4807007874015747
 21
1.7302204724409449
 31
0.0
 11
-1.4805314960629921
 21
1.7313188976377953
 31
0.0
 11
-1.480251968503937
 21
1.7323779527559056
 31
0.0
 11
-1.4798818897637795
 21
1.7333976377952756
 31
0.0
 11
-1.4794094488188976
 21
1.7343582677165355
 31
0.0
 11
-1.4788543307086615
 21
1.735271653543307
 31
0.0
 11
-1.4782125984251968
 21
1.7361259842519685
 31
0.0
 11
-1.477503937007874
 21
1.7369173228346457
 31
0.0
 11
-1.4767125984251968
 21
1.7376259842519686
 31
0.0
 11
-1.4758582677165355
 21
1.738267716535433
 31
0.0
 11
-1.4749448818897637
 21
1.7388228346456693
 31
0.0
 11
-1.4739803149606299
 21
1.7392952755905511
 31
0.0
 11
-1.4729606299212599
 21
1.7396653543307086
 31
0.0
 11
-1.4719015748031496
 21
1.7399448818897638
 31
0.0
 11
-1.4708031496062992
 21
1.7401141732283465
 31
0.0
 11
-1.4696811023622047
 21
1.7401732283464566
 31
0.0
  0
MTEXT
  5
10A
100
AcDbEntity
  8
0
 62
     0
100
AcDbMText
 10
-2.715819
 20
0.191
 30
0.0
 40
0.166665
 41
0.0
 71
     1
 72
     1
  1
{\fBookman Old Style|b0|i0|c0|p32;BA  1434}
 73
     1
 44
1.0
  0
MTEXT
  5
10B
100
AcDbEntity
  8
0
 62
     0
100
AcDbMText
 10
-2.715819
 20
0.0035
 30
0.0
 40
0.166665
 41
0.0
 71
     1
 72
     1
  1
{\fBookman Old Style|b0|i0|c0|p32;1-5/8" x specified widths}
 73
     1
 44
1.0
  0
MTEXT
  5
10C
100
AcDbEntity
  8
0
 62
     0
100
AcDbMText
 10
-2.451047
 20
3.340846
 30
0.0
 40
0.166665
 41
0.0
 71
     1
 72
     1
  1
{\fBookman Old Style|b0|i0|c0|p32;BA  1434}
 73
     1
 44
1.0
  0
MTEXT
  5
10D
100
AcDbEntity
  8
0
 62
     0
100
AcDbMText
 10
-2.451047
 20
3.153346
 30
0.0
 40
0.166665
 41
0.0
 71
     1
 72
     1
  1
{\fBookman Old Style|b0|i0|c0|p32;1-5/8" x specified widths}
 73
     1
 44
1.0
  0
ENDSEC
  0
SECTION
  2
OBJECTS
  0
DICTIONARY
  5
19
100
AcDbDictionary
280
     0
281
     1
  3
ACAD_GROUP
350
1A
  3
ACAD_MLINESTYLE
350
1B
  3
ACAD_LAYOUT
350
1E
  3
ACAD_PLOTSETTINGS
350
22
  3
ACAD_PLOTSTYLENAME
350
1F
  3
ACAD_WIPEOUT_VARS
350
23
  0
DICTIONARY
  5
1A
102
{ACAD_REACTORS
330
19
102
}
100
AcDbDictionary
280
     0
281
     1
  0
DICTIONARY
  5
1B
102
{ACAD_REACTORS
330
19
102
}
100
AcDbDictionary
280
     0
281
     1
  3
Standard
350
1C
  0
MLINESTYLE
  5
1C
102
{ACAD_REACTORS
330
1B
102
}
100
AcDbMlineStyle
  2
Standard
 70
     0
  3

 62
     0
 51
90.0
 52
90.0
 71
     2
 49
0.5
 62
   256
  6
BYLAYER
 49
-0.5
 62
   256
  6
BYLAYER
  0
ACDBDICTIONARYWDFLT
  5
1F
102
{ACAD_REACTORS
330
19
102
}
100
AcDbDictionary
281
     1
  3
Normal
350
1D
100
AcDbDictionaryWithDefault
340
1D
  0
ACDBPLACEHOLDER
  5
1D
102
{ACAD_REACTORS
330
1F
102
}
  0
LAYOUT
  5
20
102
{ACAD_REACTORS
330
1E
102
}
100
AcDbPlotSettings
  1

  2

  4

  6

 40
0.0
 41
0.0
 42
0.0
 43
0.0
 44
0.0
 45
0.0
 46
0.0
 47
0.0
 48
0.0
 49
0.0
140
0.0
141
0.0
142
1.0
143
1.0
 70
  1024
 72
     0
 73
     0
 74
     0
  7

 75
     0
147
1.0
148
0.0
149
0.0
100
AcDbLayout
  1
Model
 70
     0
 71
     0
 10
0.0
 20
0.0
 11
0.0
 21
0.0
 12
0.0
 22
0.0
 32
0.0
 14
0.0
 24
0.0
 34
0.0
 15
0.0
 25
0.0
 35
0.0
146
0.0
 13
0.0
 23
0.0
 33
0.0
 16
0.0
 26
0.0
 36
0.0
 17
0.0
 27
0.0
 37
0.0
 76
     0
330
A
331
0
345
0
346
0
  0
LAYOUT
  5
21
102
{ACAD_REACTORS
330
1E
102
}
100
AcDbPlotSettings
  1

  2

  4

  6

 40
0.0
 41
0.0
 42
0.0
 43
0.0
 44
0.0
 45
0.0
 46
0.0
 47
0.0
 48
0.0
 49
0.0
140
0.0
141
0.0
142
1.0
143
1.0
 70
     0
 72
     0
 73
     0
 74
     0
  7

 75
     0
147
1.0
148
0.0
149
0.0
100
AcDbLayout
  1
Layout1
 70
     0
 71
     0
 10
0.0
 20
0.0
 11
0.0
 21
0.0
 12
0.0
 22
0.0
 32
0.0
 14
0.0
 24
0.0
 34
0.0
 15
0.0
 25
0.0
 35
0.0
146
0.0
 13
0.0
 23
0.0
 33
0.0
 16
0.0
 26
0.0
 36
0.0
 17
0.0
 27
0.0
 37
0.0
 76
     0
330
B
331
0
345
0
346
0
  0
DICTIONARY
  5
1E
102
{ACAD_REACTORS
330
19
102
}
100
AcDbDictionary
280
     0
281
     1
  3
Layout1
350
21
  3
Model
350
20
  0
DICTIONARY
  5
22
102
{ACAD_REACTORS
330
19
102
}
100
AcDbDictionary
280
     0
281
     1
  0
WIPEOUTVARIABLES
  5
23
100
AcDbWipeoutVariables
 70
     1
  0
ENDSEC
  0
EOF
