  0
SECTION
  2
HEADER
  9
$ACADVER
  1
AC1015
  9
$ACADMAINTVER
 70
     6
  9
$DWGCODEPAGE
  3
DOS850
  9
$INSBASE
 10
0.0
 20
0.0
 30
0.0
  9
$EXTMIN
 10
1.000000E+20
 20
1.000000E+20
 30
1.000000E+20
  9
$EXTMAX
 10
-1.000000E+20
 20
-1.000000E+20
 30
-1.000000E+20
  9
$LIMMIN
 10
0.0
 20
0.0
  9
$LIMMAX
 10
0.0
 20
0.0
  9
$ORTHOMODE
 70
     0
  9
$REGENMODE
 70
     1
  9
$FILLMODE
 70
     1
  9
$QTEXTMODE
 70
     0
  9
$MIRRTEXT
 70
     1
  9
$LTSCALE
 40
1.0
  9
$ATTMODE
 70
     1
  9
$TEXTSIZE
 40
0.2
  9
$TRACEWID
 40
0.05
  9
$TEXTSTYLE
  7
Standard
  9
$CLAYER
  8
0
  9
$CELTYPE
  6
Continuous
  9
$CECOLOR
 62
   256
  9
$CELTSCALE
 40
1.0
  9
$DISPSILH
 70
     0
  9
$DIMSCALE
 40
1.0
  9
$DIMASZ
 40
0.18
  9
$DIMEXO
 40
0.0625
  9
$DIMDLI
 40
0.38
  9
$DIMRND
 40
0.0
  9
$DIMDLE
 40
0.0
  9
$DIMEXE
 40
0.18
  9
$DIMTP
 40
0.0
  9
$DIMTM
 40
0.0
  9
$DIMTXT
 40
0.18
  9
$DIMCEN
 40
0.09
  9
$DIMTSZ
 40
0.0
  9
$DIMTOL
 70
     0
  9
$DIMLIM
 70
     0
  9
$DIMTIH
 70
     1
  9
$DIMTOH
 70
     1
  9
$DIMSE1
 70
     0
  9
$DIMSE2
 70
     0
  9
$DIMTAD
 70
     0
  9
$DIMZIN
 70
     0
  9
$DIMBLK
  1

  9
$DIMASO
 70
     1
  9
$DIMSHO
 70
     1
  9
$DIMPOST
  1

  9
$DIMAPOST
  1

  9
$DIMALT
 70
     0
  9
$DIMALTD
 70
     2
  9
$DIMALTF
 40
25.4
  9
$DIMLFAC
 40
1.0
  9
$DIMTOFL
 70
     0
  9
$DIMTVP
 40
0.0
  9
$DIMTIX
 70
     0
  9
$DIMSOXD
 70
     0
  9
$DIMSAH
 70
     0
  9
$DIMBLK1
  1

  9
$DIMBLK2
  1

  9
$DIMSTYLE
  2
Standard
  9
$DIMCLRD
 70
     0
  9
$DIMCLRE
 70
     0
  9
$DIMCLRT
 70
     0
  9
$DIMTFAC
 40
1.0
  9
$DIMGAP
 40
0.09
  9
$DIMJUST
 70
     0
  9
$DIMSD1
 70
     0
  9
$DIMSD2
 70
     0
  9
$DIMTOLJ
 70
     1
  9
$DIMTZIN
 70
     0
  9
$DIMALTZ
 70
     0
  9
$DIMALTTZ
 70
     0
  9
$DIMUPT
 70
     0
  9
$DIMDEC
 70
     4
  9
$DIMTDEC
 70
     4
  9
$DIMALTU
 70
     2
  9
$DIMALTTD
 70
     2
  9
$DIMTXSTY
  7
Standard
  9
$DIMAUNIT
 70
     0
  9
$DIMADEC
 70
     0
  9
$DIMALTRND
 40
0.0
  9
$DIMAZIN
 70
     0
  9
$DIMDSEP
 70
     0
  9
$DIMATFIT
 70
     3
  9
$DIMFRAC
 70
     0
  9
$DIMLDRBLK
  1

  9
$DIMLUNIT
 70
     2
  9
$DIMLWD
 70
     0
  9
$DIMLWE
 70
     0
  9
$DIMTMOVE
 70
     0
  9
$LUNITS
 70
     2
  9
$LUPREC
 70
     4
  9
$SKETCHINC
 40
0.1
  9
$FILLETRAD
 40
0.0
  9
$AUNITS
 70
     0
  9
$AUPREC
 70
     0
  9
$MENU
  1
acad
  9
$ELEVATION
 40
0.0
  9
$PELEVATION
 40
0.0
  9
$THICKNESS
 40
0.0
  9
$LIMCHECK
 70
     0
  9
$CHAMFERA
 40
0.0
  9
$CHAMFERB
 40
0.0
  9
$CHAMFERC
 40
0.0
  9
$CHAMFERD
 40
0.0
  9
$SKPOLY
 70
     0
  9
$TDCREATE
 40
0.000000000
  9
$TDUCREATE
 40
0.000000000
  9
$TDUPDATE
 40
0.000000000
  9
$TDUUPDATE
 40
0.000000000
  9
$TDINDWG
 40
0.0000000000
  9
$TDUSRTIMER
 40
0.0000000000
  9
$USRTIMER
 70
     1
  9
$ANGBASE
 50
0.0
  9
$ANGDIR
 70
     0
  9
$PDMODE
 70
     0
  9
$PDSIZE
 40
0.0
  9
$PLINEWID
 40
0.0
  9
$SPLFRAME
 70
     0
  9
$SPLINETYPE
 70
     6
  9
$SPLINESEGS
 70
     8
  9
$HANDSEED
  5
634
  9
$SURFTAB1
 70
     6
  9
$SURFTAB2
 70
     6
  9
$SURFTYPE
 70
     6
  9
$SURFU
 70
     6
  9
$SURFV
 70
     6
  9
$UCSBASE
  2

  9
$UCSNAME
  2

  9
$UCSORG
 10
0.0
 20
0.0
 30
0.0
  9
$UCSXDIR
 10
1.0
 20
0.0
 30
0.0
  9
$UCSYDIR
 10
0.0
 20
1.0
 30
0.0
  9
$UCSORTHOREF
  2

  9
$UCSORTHOVIEW
 70
     0
  9
$UCSORGTOP
 10
0.0
 20
0.0
 30
0.0
  9
$UCSORGBOTTOM
 10
0.0
 20
0.0
 30
0.0
  9
$UCSORGLEFT
 10
0.0
 20
0.0
 30
0.0
  9
$UCSORGRIGHT
 10
0.0
 20
0.0
 30
0.0
  9
$UCSORGFRONT
 10
0.0
 20
0.0
 30
0.0
  9
$UCSORGBACK
 10
0.0
 20
0.0
 30
0.0
  9
$PUCSBASE
  2

  9
$PUCSNAME
  2

  9
$PUCSORG
 10
0.0
 20
0.0
 30
0.0
  9
$PUCSXDIR
 10
1.0
 20
0.0
 30
0.0
  9
$PUCSYDIR
 10
0.0
 20
1.0
 30
0.0
  9
$PUCSORTHOREF
  2

  9
$PUCSORTHOVIEW
 70
     0
  9
$PUCSORGTOP
 10
0.0
 20
0.0
 30
0.0
  9
$PUCSORGBOTTOM
 10
0.0
 20
0.0
 30
0.0
  9
$PUCSORGLEFT
 10
0.0
 20
0.0
 30
0.0
  9
$PUCSORGRIGHT
 10
0.0
 20
0.0
 30
0.0
  9
$PUCSORGFRONT
 10
0.0
 20
0.0
 30
0.0
  9
$PUCSORGBACK
 10
0.0
 20
0.0
 30
0.0
  9
$USERI1
 70
     0
  9
$USERI2
 70
     0
  9
$USERI3
 70
     0
  9
$USERI4
 70
     0
  9
$USERI5
 70
     0
  9
$USERR1
 40
0.0
  9
$USERR2
 40
0.0
  9
$USERR3
 40
0.0
  9
$USERR4
 40
0.0
  9
$USERR5
 40
0.0
  9
$WORLDVIEW
 70
     1
  9
$SHADEDGE
 70
     3
  9
$SHADEDIF
 70
    70
  9
$TILEMODE
 70
     1
  9
$MAXACTVP
 70
    16
  9
$PINSBASE
 10
0.0
 20
0.0
 30
0.0
  9
$PLIMCHECK
 70
     0
  9
$PEXTMIN
 10
1.000000E+20
 20
1.000000E+20
 30
1.000000E+20
  9
$PEXTMAX
 10
-1.000000E+20
 20
-1.000000E+20
 30
-1.000000E+20
  9
$PLIMMIN
 10
0.0
 20
0.0
  9
$PLIMMAX
 10
12.0
 20
9.0
  9
$UNITMODE
 70
     0
  9
$VISRETAIN
 70
     0
  9
$PLINEGEN
 70
     1
  9
$PSLTSCALE
 70
     0
  9
$TREEDEPTH
 70
  3020
  9
$CMLSTYLE
  2
Standard
  9
$CMLJUST
 70
     0
  9
$CMLSCALE
 40
1.0
  9
$PROXYGRAPHICS
 70
     0
  9
$MEASUREMENT
 70
     0
  9
$CELWEIGHT
370
     0
  9
$ENDCAPS
280
     0
  9
$JOINSTYLE
280
     0
  9
$LWDISPLAY
290
     0
  9
$INSUNITS
 70
     0
  9
$HYPERLINKBASE
  1

  9
$XEDIT
290
     1
  9
$CEPSNTYPE
380
     0
  9
$PSTYLEMODE
290
     1
  9
$FINGERPRINTGUID
  2

  9
$VERSIONGUID
  2

  9
$EXTNAMES
290
     1
  9
$PSVPSCALE
 40
0.0
  0
ENDSEC
  0
SECTION
  2
CLASSES
  0
CLASS
  1
LWPOLYLINE
  2
AcDbPolyline
  3
AutoCAD 2000
 90
        0
280
     0
281
     1
  0
CLASS
  1
IMAGE
  2
AcDbRasterImage
  3
ISM
 90
    32895
280
     0
281
     1
  0
CLASS
  1
OLE2FRAME
  2
AcDbOle2Frame
  3
AutoCAD 2000
 90
    32768
280
     0
281
     1
  0
CLASS
  1
HATCH
  2
AcDbHatch
  3
AutoCAD 2000
 90
    32768
280
     0
281
     1
  0
CLASS
  1
DICTIONARYVAR
  2
AcDbDictionaryVar
  3
AutoCAD 2000
 90
    32768
280
     0
281
     0
  0
CLASS
  1
RASTERVARIABLES
  2
AcDbRasterVariables
  3
ISM
 90
    32768
280
     0
281
     0
  0
CLASS
  1
IMAGEDEF
  2
AcDbRasterImageDef
  3
ISM
 90
    32768
280
     0
281
     0
  0
CLASS
  1
IMAGEDEF_REACTOR
  2
AcDbRasterImageDefReactor
  3
ISM
 90
    32769
280
     0
281
     0
  0
CLASS
  1
IDBUFFER
  2
AcDbIdBuffer
  3
AutoCAD 2000
 90
    32768
280
     0
281
     0
  0
CLASS
  1
SPATIAL_FILTER
  2
AcDbSpatialFilter
  3
AutoCAD 2000
 90
    32768
280
     0
281
     0
  0
CLASS
  1
XRECORD
  2
AcDbXrecord
  3
AutoCAD 2000
 90
    32768
280
     0
281
     0
  0
CLASS
  1
SORTENTSTABLE
  2
AcDbSortentsTable
  3
AutoCAD 2000
 90
    32768
280
     0
281
     0
  0
CLASS
  1
LAYER_INDEX
  2
AcDbLayerIndex
  3
AutoCAD 2000
 90
    32768
280
     0
281
     0
  0
CLASS
  1
SPATIAL_INDEX
  2
AcDbSpatialIndex
  3
AutoCAD 2000
 90
    32768
280
     0
281
     0
  0
CLASS
  1
OBJECT_PTR
  2
CAseDLPNTableRecord
  3
"ASE-LPNTableRecord"
 90
    32769
280
     0
281
     0
  0
CLASS
  1
LAYOUT
  2
AcDbLayout
  3
AutoCAD 2000
 90
        0
280
     0
281
     0
  0
CLASS
  1
PLOTSETTINGS
  2
AcDbPlotSettings
  3
AutoCAD 2000
 90
    32768
280
     0
281
     0
  0
CLASS
  1
ACDBDICTIONARYWDFLT
  2
AcDbDictionaryWithDefault
  3
AutoCAD 2000
 90
        0
280
     0
281
     0
  0
CLASS
  1
ACDBPLACEHOLDER
  2
AcDbPlaceHolder
  3
AutoCAD 2000
 90
        0
280
     0
281
     0
  0
CLASS
  1
VBA_PROJECT
  2
AcDbVbaProject
  3
acadvba
 90
    32768
280
     0
281
     0
  0
CLASS
  1
WIPEOUT
  2
AcDbWipeout
  3
WipeOut|AutoCAD Express Tool|expresstools@autodesk.com
 90
    32895
280
     0
281
     1
  0
CLASS
  1
WIPEOUTVARIABLES
  2
AcDbWipeoutVariables
  3
WipeOut|AutoCAD Express Tool|expresstools@autodesk.com
 90
        0
280
     0
281
     0
  0
CLASS
  1
RTEXT
  2
RText
  3
RText|AutoCAD Express Tool|expresstools@autodesk.com
 90
    32768
280
     0
281
     1
  0
CLASS
  1
ARCALIGNEDTEXT
  2
AcDbArcAlignedText
  3
ATEXT|AutoCAD Express Tool|expresstools@autodesk.com
 90
    32768
280
     0
281
     1
  0
ENDSEC
  0
SECTION
  2
TABLES
  0
TABLE
  2
VPORT
  5
7
100
AcDbSymbolTable
 70
     1
  0
VPORT
  5
15
100
AcDbSymbolTableRecord
100
AcDbViewportTableRecord
  2
*ACTIVE
 70
     0
 10
0.0
 20
0.0
 11
1.0
 21
1.0
 12
6.591288
 22
4.579184
 13
0.0
 23
0.0
 14
1.0
 24
1.0
 15
0.0
 25
0.0
 16
0.0
 26
0.0
 36
1.0
 17
0.0
 27
0.0
 37
0.0
 40
9.158369
 41
0.688564
 42
50.0
 43
0.0
 44
0.0
 50
0.0
 51
0.0
 71
     0
 72
   100
 73
     1
 74
     1
 75
     0
 76
     0
 77
     0
 78
     0
281
     0
 65
     0
110
0.0
120
0.0
130
0.0
111
1.0
121
0.0
131
0.0
112
0.0
122
1.0
132
0.0
345
0
346
0
 79
     0
146
0.0
  0
ENDTAB
  0
TABLE
  2
LTYPE
  5
4
100
AcDbSymbolTable
 70
     3
  0
LTYPE
  5
11
100
AcDbSymbolTableRecord
100
AcDbLinetypeTableRecord
  2
ByBlock
 70
    64
  3

 72
    65
 73
     0
 40
0.0
  0
LTYPE
  5
12
100
AcDbSymbolTableRecord
100
AcDbLinetypeTableRecord
  2
ByLayer
 70
    64
  3

 72
    65
 73
     0
 40
0.0
  0
LTYPE
  5
13
100
AcDbSymbolTableRecord
100
AcDbLinetypeTableRecord
  2
Continuous
 70
    64
  3
Solid line
 72
    65
 73
     0
 40
0.0
  0
ENDTAB
  0
TABLE
  2
LAYER
  5
2
100
AcDbSymbolTable
 70
     1
  0
LAYER
  5
14
100
AcDbSymbolTableRecord
100
AcDbLayerTableRecord
  2
0
 70
     0
 62
     7
  6
Continuous
290
     1
370
    -3
390
1D
  0
ENDTAB
  0
TABLE
  2
STYLE
  5
3
100
AcDbSymbolTable
 70
     1
  0
STYLE
  5
17
100
AcDbSymbolTableRecord
100
AcDbTextStyleTableRecord
  2
Standard
 70
     0
 40
0.0
 41
1.0
 50
0.0
 71
     0
 42
0.0
  3
txt
  4

  0
ENDTAB
  0
TABLE
  2
VIEW
  5
5
100
AcDbSymbolTable
 70
     0
  0
ENDTAB
  0
TABLE
  2
UCS
  5
6
100
AcDbSymbolTable
 70
     0
  0
ENDTAB
  0
TABLE
  2
APPID
  5
8
100
AcDbSymbolTable
 70
     1
  0
APPID
  5
16
100
AcDbSymbolTableRecord
100
AcDbRegAppTableRecord
  2
ACAD
 70
     0
  0
ENDTAB
  0
TABLE
  2
DIMSTYLE
  5
9
100
AcDbSymbolTable
 70
     1
100
AcDbDimStyleTable
 71
     0
  0
DIMSTYLE
105
18
100
AcDbSymbolTableRecord
100
AcDbDimStyleTableRecord
  2
Standard
 70
     0
  3

  4

 40
1.0
 41
0.18
 42
0.0625
 43
0.38
 44
0.18
 45
0.0
 46
0.0
 47
0.0
 48
0.0
 71
     0
 72
     0
 73
     1
 74
     1
 75
     0
 76
     0
 77
     0
 78
     0
 79
     0
140
0.18
141
0.09
142
0.0
143
25.4
144
1.0
145
0.0
146
1.0
147
0.09
148
0.0
170
     0
171
     2
172
     0
173
     0
174
     0
175
     0
176
     0
177
     0
178
     0
179
     0
271
     4
272
     4
273
     2
274
     2
275
     0
276
     0
277
     2
278
    46
279
     0
280
     0
281
     0
282
     0
283
     1
284
     0
285
     0
286
     0
288
     0
340
17
341
0
342
0
343
0
344
0
371
    -2
372
    -2
  0
ENDTAB
  0
TABLE
  2
BLOCK_RECORD
  5
1
100
AcDbSymbolTable
 70
     0
  0
BLOCK_RECORD
  5
A
100
AcDbSymbolTableRecord
100
AcDbBlockTableRecord
  2
*MODEL_SPACE
340
20
  0
BLOCK_RECORD
  5
B
100
AcDbSymbolTableRecord
100
AcDbBlockTableRecord
  2
*PAPER_SPACE
340
21
  0
ENDTAB
  0
ENDSEC
  0
SECTION
  2
BLOCKS
  0
BLOCK
  5
D
100
AcDbEntity
  8
0
100
AcDbBlockBegin
  2
*MODEL_SPACE
 70
     0
 10
0.0
 20
0.0
 30
0.0
  3
*MODEL_SPACE
  1

  0
ENDBLK
  5
E
100
AcDbEntity
  8
0
100
AcDbBlockEnd
  0
BLOCK
  5
F
100
AcDbEntity
 67
     1
  8
0
100
AcDbBlockBegin
  2
*PAPER_SPACE
 70
     0
 10
0.0
 20
0.0
 30
0.0
  3
*PAPER_SPACE
  1

  0
ENDBLK
  5
10
100
AcDbEntity
 67
     1
  8
0
100
AcDbBlockEnd
  0
ENDSEC
  0
SECTION
  2
ENTITIES
  0
SPLINE
  5
24
100
AcDbEntity
  8
0
 62
     0
100
AcDbSpline
210
0.0
220
0.0
230
1.0
 70
     0
 71
     3
 72
     0
 73
     0
 74
    64
 44
0.0000000001
 11
-1.1740944881889763
 21
1.5452598425196851
 31
0.0
 11
-1.1719015748031496
 21
1.5961062992125985
 31
0.0
 11
-1.1652716535433072
 21
1.6422716535433071
 31
0.0
 11
-1.1541141732283464
 21
1.6839370078740157
 31
0.0
 11
-1.1383464566929133
 21
1.7213110236220472
 31
0.0
 11
-1.1178661417322835
 21
1.7545708661417323
 31
0.0
 11
-1.0925984251968504
 21
1.7839251968503937
 31
0.0
 11
-1.0624488188976378
 21
1.8095629921259841
 31
0.0
 11
-1.0273307086614174
 21
1.8316811023622048
 31
0.0
 11
-0.9871456692913386
 21
1.8504606299212598
 31
0.0
 11
-0.9418149606299212
 21
1.8661102362204725
 31
0.0
 11
-0.891244094488189
 21
1.8788188976377953
 31
0.0
 11
-0.8353543307086614
 21
1.8887874015748032
 31
0.0
 11
-0.7740393700787401
 21
1.8961929133858269
 31
0.0
 11
-0.7072322834645669
 21
1.9012480314960629
 31
0.0
 11
-0.6348267716535433
 21
1.9041377952755905
 31
0.0
 11
-0.556748031496063
 21
1.9050629921259843
 31
0.0
 11
-0.479488188976378
 21
1.9061535433070866
 31
0.0
 11
-0.4093622047244094
 21
1.9093858267716535
 31
0.0
 11
-0.3459291338582677
 21
1.9146692913385828
 31
0.0
 11
-0.2887874015748032
 21
1.9219251968503936
 31
0.0
 11
-0.237496062992126
 21
1.9310629921259843
 31
0.0
 11
-0.1916456692913386
 21
1.942007874015748
 31
0.0
 11
-0.1508070866141732
 21
1.9546692913385826
 31
0.0
 11
-0.1145669291338583
 21
1.9689724409448819
 31
0.0
 11
-0.082492125984252
 21
1.9848188976377952
 31
0.0
 11
-0.0541732283464567
 21
2.0021456692913384
 31
0.0
 11
-0.0291811023622047
 21
2.0208543307086613
 31
0.0
 11
-0.0070984251968504
 21
2.0408740157480314
 31
0.0
 11
0.012496062992126
 21
2.0621062992125982
 31
0.0
 11
0.0300314960629921
 21
2.0844803149606301
 31
0.0
 11
0.0459212598425197
 21
2.1079055118110235
 31
0.0
 11
0.0605984251968504
 21
2.1323070866141731
 31
0.0
 11
0.0752322834645669
 21
2.1564448818897639
 31
0.0
 11
0.0906889763779528
 21
2.1791456692913385
 31
0.0
 11
0.1068700787401575
 21
2.2003937007874015
 31
0.0
 11
0.1237047244094488
 21
2.2201732283464568
 31
0.0
 11
0.1410866141732284
 21
2.2384645669291339
 31
0.0
 11
0.1589488188976378
 21
2.2552519685039369
 31
0.0
 11
0.1771968503937008
 21
2.2705196850393703
 31
0.0
 11
0.195748031496063
 21
2.2842519685039369
 31
0.0
 11
0.214507874015748
 21
2.2964251968503935
 31
0.0
 11
0.2334015748031496
 21
2.3070354330708662
 31
0.0
 11
0.2523307086614173
 21
2.3160590551181102
 31
0.0
 11
0.2712283464566929
 21
2.3234842519685039
 31
0.0
 11
0.289992125984252
 21
2.3292834645669291
 31
0.0
 11
0.3085433070866142
 21
2.3334566929133858
 31
0.0
 11
0.3267874015748031
 21
2.3359724409448819
 31
0.0
 11
0.3446535433070866
 21
2.3368267716535431
 31
0.0
 11
0.3616141732283464
 21
2.3364173228346456
 31
0.0
 11
0.3772755905511811
 21
2.3352204724409447
 31
0.0
 11
0.3917086614173229
 21
2.3332834645669291
 31
0.0
 11
0.405003937007874
 21
2.3306692913385825
 31
0.0
 11
0.4172244094488189
 21
2.3274094488188974
 31
0.0
 11
0.4284606299212598
 21
2.3235748031496062
 31
0.0
 11
0.4387874015748032
 21
2.3192125984251968
 31
0.0
 11
0.4482874015748031
 21
2.3143779527559056
 31
0.0
 11
0.4570275590551181
 21
2.3091141732283464
 31
0.0
 11
0.4650944881889764
 21
2.3034842519685039
 31
0.0
 11
0.4725629921259842
 21
2.2975314960629922
 31
0.0
 11
0.4795196850393701
 21
2.2913188976377952
 31
0.0
 11
0.4860314960629921
 21
2.2848897637795273
 31
0.0
 11
0.4921850393700787
 21
2.2783031496062991
 31
0.0
 11
0.4980551181102362
 21
2.2716062992125985
 31
0.0
  0
LWPOLYLINE
  5
25
100
AcDbEntity
  8
0
 62
     0
100
AcDbPolyline
 90
        2
 70
     0
 39
0.003
 10
0.498055
 20
2.271606
 40
0.003
 41
0.003
 10
0.503724
 20
2.264866
 40
0.003
 41
0.003
  0
LWPOLYLINE
  5
26
100
AcDbEntity
  8
0
 62
     0
100
AcDbPolyline
 90
        2
 70
     0
 39
0.003
 10
0.503724
 20
2.264866
 40
0.003
 41
0.003
 10
0.503724
 20
1.545248
 40
0.003
 41
0.003
  0
LWPOLYLINE
  5
27
100
AcDbEntity
  8
0
 62
     0
100
AcDbPolyline
 90
        2
 70
     0
 39
0.003
 10
0.503724
 20
1.545248
 40
0.003
 41
0.003
 10
-1.174094
 20
1.54526
 40
0.003
 41
0.003
  0
LWPOLYLINE
  5
28
100
AcDbEntity
  8
0
 62
   253
100
AcDbPolyline
 90
        2
 70
     0
 39
0.003
 10
-0.798508
 20
0.252894
 40
0.003
 41
0.003
 10
-0.157382
 20
0.63548
 40
0.003
 41
0.003
  0
LWPOLYLINE
  5
29
100
AcDbEntity
  8
0
 62
   253
100
AcDbPolyline
 90
        2
 70
     0
 39
0.003
 10
-0.157382
 20
0.63548
 40
0.003
 41
0.003
 10
-0.13135
 20
0.634929
 40
0.003
 41
0.003
  0
LWPOLYLINE
  5
2A
100
AcDbEntity
  8
0
 62
   253
100
AcDbPolyline
 90
        2
 70
     0
 39
0.003
 10
-0.13135
 20
0.634929
 40
0.003
 41
0.003
 10
-0.772476
 20
0.252343
 40
0.003
 41
0.003
  0
LWPOLYLINE
  5
2B
100
AcDbEntity
  8
0
 62
   253
100
AcDbPolyline
 90
        2
 70
     0
 39
0.003
 10
-0.772476
 20
0.252343
 40
0.003
 41
0.003
 10
-0.798508
 20
0.252894
 40
0.003
 41
0.003
  0
LWPOLYLINE
  5
2C
100
AcDbEntity
  8
0
 62
   253
100
AcDbPolyline
 90
        2
 70
     0
 39
0.003
 10
-0.772476
 20
0.252343
 40
0.003
 41
0.003
 10
-0.13135
 20
0.634929
 40
0.003
 41
0.003
  0
LWPOLYLINE
  5
2D
100
AcDbEntity
  8
0
 62
   253
100
AcDbPolyline
 90
        2
 70
     0
 39
0.003
 10
-0.13135
 20
0.634929
 40
0.003
 41
0.003
 10
-0.106524
 20
0.633287
 40
0.003
 41
0.003
  0
LWPOLYLINE
  5
2E
100
AcDbEntity
  8
0
 62
   253
100
AcDbPolyline
 90
        2
 70
     0
 39
0.003
 10
-0.106524
 20
0.633287
 40
0.003
 41
0.003
 10
-0.74765
 20
0.250701
 40
0.003
 41
0.003
  0
LWPOLYLINE
  5
2F
100
AcDbEntity
  8
0
 62
   253
100
AcDbPolyline
 90
        2
 70
     0
 39
0.003
 10
-0.74765
 20
0.250701
 40
0.003
 41
0.003
 10
-0.772476
 20
0.252343
 40
0.003
 41
0.003
  0
LWPOLYLINE
  5
30
100
AcDbEntity
  8
0
 62
   253
100
AcDbPolyline
 90
        2
 70
     0
 39
0.003
 10
-0.74765
 20
0.250701
 40
0.003
 41
0.003
 10
-0.106524
 20
0.633287
 40
0.003
 41
0.003
  0
LWPOLYLINE
  5
31
100
AcDbEntity
  8
0
 62
   253
100
AcDbPolyline
 90
        2
 70
     0
 39
0.003
 10
-0.106524
 20
0.633287
 40
0.003
 41
0.003
 10
-0.082866
 20
0.630531
 40
0.003
 41
0.003
  0
LWPOLYLINE
  5
32
100
AcDbEntity
  8
0
 62
   253
100
AcDbPolyline
 90
        2
 70
     0
 39
0.003
 10
-0.082866
 20
0.630531
 40
0.003
 41
0.003
 10
-0.723992
 20
0.247945
 40
0.003
 41
0.003
  0
LWPOLYLINE
  5
33
100
AcDbEntity
  8
0
 62
   253
100
AcDbPolyline
 90
        2
 70
     0
 39
0.003
 10
-0.723992
 20
0.247945
 40
0.003
 41
0.003
 10
-0.74765
 20
0.250701
 40
0.003
 41
0.003
  0
LWPOLYLINE
  5
34
100
AcDbEntity
  8
0
 62
     9
100
AcDbPolyline
 90
        2
 70
     0
 39
0.003
 10
-0.723992
 20
0.247945
 40
0.003
 41
0.003
 10
-0.082866
 20
0.630531
 40
0.003
 41
0.003
  0
LWPOLYLINE
  5
35
100
AcDbEntity
  8
0
 62
     9
100
AcDbPolyline
 90
        2
 70
     0
 39
0.003
 10
-0.082866
 20
0.630531
 40
0.003
 41
0.003
 10
-0.060362
 20
0.626657
 40
0.003
 41
0.003
  0
LWPOLYLINE
  5
36
100
AcDbEntity
  8
0
 62
     9
100
AcDbPolyline
 90
        2
 70
     0
 39
0.003
 10
-0.060362
 20
0.626657
 40
0.003
 41
0.003
 10
-0.701488
 20
0.244071
 40
0.003
 41
0.003
  0
LWPOLYLINE
  5
37
100
AcDbEntity
  8
0
 62
     9
100
AcDbPolyline
 90
        2
 70
     0
 39
0.003
 10
-0.701488
 20
0.244071
 40
0.003
 41
0.003
 10
-0.723992
 20
0.247945
 40
0.003
 41
0.003
  0
LWPOLYLINE
  5
38
100
AcDbEntity
  8
0
 62
     9
100
AcDbPolyline
 90
        2
 70
     0
 39
0.003
 10
-0.701488
 20
0.244071
 40
0.003
 41
0.003
 10
-0.060362
 20
0.626657
 40
0.003
 41
0.003
  0
LWPOLYLINE
  5
39
100
AcDbEntity
  8
0
 62
     9
100
AcDbPolyline
 90
        2
 70
     0
 39
0.003
 10
-0.060362
 20
0.626657
 40
0.003
 41
0.003
 10
-0.038972
 20
0.621646
 40
0.003
 41
0.003
  0
LWPOLYLINE
  5
3A
100
AcDbEntity
  8
0
 62
     9
100
AcDbPolyline
 90
        2
 70
     0
 39
0.003
 10
-0.038972
 20
0.621646
 40
0.003
 41
0.003
 10
-0.680098
 20
0.239059
 40
0.003
 41
0.003
  0
LWPOLYLINE
  5
3B
100
AcDbEntity
  8
0
 62
     9
100
AcDbPolyline
 90
        2
 70
     0
 39
0.003
 10
-0.680098
 20
0.239059
 40
0.003
 41
0.003
 10
-0.701488
 20
0.244071
 40
0.003
 41
0.003
  0
LWPOLYLINE
  5
3C
100
AcDbEntity
  8
0
 62
     9
100
AcDbPolyline
 90
        2
 70
     0
 39
0.003
 10
-0.680098
 20
0.239059
 40
0.003
 41
0.003
 10
-0.038972
 20
0.621646
 40
0.003
 41
0.003
  0
LWPOLYLINE
  5
3D
100
AcDbEntity
  8
0
 62
     9
100
AcDbPolyline
 90
        2
 70
     0
 39
0.003
 10
-0.038972
 20
0.621646
 40
0.003
 41
0.003
 10
-0.018689
 20
0.6155
 40
0.003
 41
0.003
  0
LWPOLYLINE
  5
3E
100
AcDbEntity
  8
0
 62
     9
100
AcDbPolyline
 90
        2
 70
     0
 39
0.003
 10
-0.018689
 20
0.6155
 40
0.003
 41
0.003
 10
-0.659815
 20
0.232913
 40
0.003
 41
0.003
  0
LWPOLYLINE
  5
3F
100
AcDbEntity
  8
0
 62
     9
100
AcDbPolyline
 90
        2
 70
     0
 39
0.003
 10
-0.659815
 20
0.232913
 40
0.003
 41
0.003
 10
-0.680098
 20
0.239059
 40
0.003
 41
0.003
  0
LWPOLYLINE
  5
40
100
AcDbEntity
  8
0
 62
     9
100
AcDbPolyline
 90
        2
 70
     0
 39
0.003
 10
-0.659815
 20
0.232913
 40
0.003
 41
0.003
 10
-0.018689
 20
0.6155
 40
0.003
 41
0.003
  0
LWPOLYLINE
  5
41
100
AcDbEntity
  8
0
 62
     9
100
AcDbPolyline
 90
        2
 70
     0
 39
0.003
 10
-0.018689
 20
0.6155
 40
0.003
 41
0.003
 10
0.000524
 20
0.608197
 40
0.003
 41
0.003
  0
LWPOLYLINE
  5
42
100
AcDbEntity
  8
0
 62
     9
100
AcDbPolyline
 90
        2
 70
     0
 39
0.003
 10
0.000524
 20
0.608197
 40
0.003
 41
0.003
 10
-0.640602
 20
0.22561
 40
0.003
 41
0.003
  0
LWPOLYLINE
  5
43
100
AcDbEntity
  8
0
 62
     9
100
AcDbPolyline
 90
        2
 70
     0
 39
0.003
 10
-0.640602
 20
0.22561
 40
0.003
 41
0.003
 10
-0.659815
 20
0.232913
 40
0.003
 41
0.003
  0
LWPOLYLINE
  5
44
100
AcDbEntity
  8
0
 62
     9
100
AcDbPolyline
 90
        2
 70
     0
 39
0.003
 10
-0.640602
 20
0.22561
 40
0.003
 41
0.003
 10
0.000524
 20
0.608197
 40
0.003
 41
0.003
  0
LWPOLYLINE
  5
45
100
AcDbEntity
  8
0
 62
     9
100
AcDbPolyline
 90
        2
 70
     0
 39
0.003
 10
0.000524
 20
0.608197
 40
0.003
 41
0.003
 10
0.018677
 20
0.599732
 40
0.003
 41
0.003
  0
LWPOLYLINE
  5
46
100
AcDbEntity
  8
0
 62
     9
100
AcDbPolyline
 90
        2
 70
     0
 39
0.003
 10
0.018677
 20
0.599732
 40
0.003
 41
0.003
 10
-0.622449
 20
0.217146
 40
0.003
 41
0.003
  0
LWPOLYLINE
  5
47
100
AcDbEntity
  8
0
 62
     9
100
AcDbPolyline
 90
        2
 70
     0
 39
0.003
 10
-0.622449
 20
0.217146
 40
0.003
 41
0.003
 10
-0.640602
 20
0.22561
 40
0.003
 41
0.003
  0
LWPOLYLINE
  5
48
100
AcDbEntity
  8
0
 62
     9
100
AcDbPolyline
 90
        2
 70
     0
 39
0.003
 10
-0.622449
 20
0.217146
 40
0.003
 41
0.003
 10
0.018677
 20
0.599732
 40
0.003
 41
0.003
  0
LWPOLYLINE
  5
49
100
AcDbEntity
  8
0
 62
     9
100
AcDbPolyline
 90
        2
 70
     0
 39
0.003
 10
0.018677
 20
0.599732
 40
0.003
 41
0.003
 10
0.035815
 20
0.590083
 40
0.003
 41
0.003
  0
LWPOLYLINE
  5
4A
100
AcDbEntity
  8
0
 62
     9
100
AcDbPolyline
 90
        2
 70
     0
 39
0.003
 10
0.035815
 20
0.590083
 40
0.003
 41
0.003
 10
-0.605311
 20
0.207496
 40
0.003
 41
0.003
  0
LWPOLYLINE
  5
4B
100
AcDbEntity
  8
0
 62
     9
100
AcDbPolyline
 90
        2
 70
     0
 39
0.003
 10
-0.605311
 20
0.207496
 40
0.003
 41
0.003
 10
-0.622449
 20
0.217146
 40
0.003
 41
0.003
  0
LWPOLYLINE
  5
4C
100
AcDbEntity
  8
0
 62
     9
100
AcDbPolyline
 90
        2
 70
     0
 39
0.003
 10
-0.605311
 20
0.207496
 40
0.003
 41
0.003
 10
0.035815
 20
0.590083
 40
0.003
 41
0.003
  0
LWPOLYLINE
  5
4D
100
AcDbEntity
  8
0
 62
     9
100
AcDbPolyline
 90
        2
 70
     0
 39
0.003
 10
0.035815
 20
0.590083
 40
0.003
 41
0.003
 10
0.051945
 20
0.579252
 40
0.003
 41
0.003
  0
LWPOLYLINE
  5
4E
100
AcDbEntity
  8
0
 62
     9
100
AcDbPolyline
 90
        2
 70
     0
 39
0.003
 10
0.051945
 20
0.579252
 40
0.003
 41
0.003
 10
-0.589181
 20
0.196665
 40
0.003
 41
0.003
  0
LWPOLYLINE
  5
4F
100
AcDbEntity
  8
0
 62
     9
100
AcDbPolyline
 90
        2
 70
     0
 39
0.003
 10
-0.589181
 20
0.196665
 40
0.003
 41
0.003
 10
-0.605311
 20
0.207496
 40
0.003
 41
0.003
  0
LWPOLYLINE
  5
50
100
AcDbEntity
  8
0
 62
     9
100
AcDbPolyline
 90
        2
 70
     0
 39
0.003
 10
-0.589181
 20
0.196665
 40
0.003
 41
0.003
 10
0.051945
 20
0.579252
 40
0.003
 41
0.003
  0
LWPOLYLINE
  5
51
100
AcDbEntity
  8
0
 62
     9
100
AcDbPolyline
 90
        2
 70
     0
 39
0.003
 10
0.051945
 20
0.579252
 40
0.003
 41
0.003
 10
0.067102
 20
0.56722
 40
0.003
 41
0.003
  0
LWPOLYLINE
  5
52
100
AcDbEntity
  8
0
 62
     9
100
AcDbPolyline
 90
        2
 70
     0
 39
0.003
 10
0.067102
 20
0.56722
 40
0.003
 41
0.003
 10
-0.574024
 20
0.184634
 40
0.003
 41
0.003
  0
LWPOLYLINE
  5
53
100
AcDbEntity
  8
0
 62
     9
100
AcDbPolyline
 90
        2
 70
     0
 39
0.003
 10
-0.574024
 20
0.184634
 40
0.003
 41
0.003
 10
-0.589181
 20
0.196665
 40
0.003
 41
0.003
  0
LWPOLYLINE
  5
54
100
AcDbEntity
  8
0
 62
     9
100
AcDbPolyline
 90
        2
 70
     0
 39
0.003
 10
-0.574024
 20
0.184634
 40
0.003
 41
0.003
 10
0.067102
 20
0.56722
 40
0.003
 41
0.003
  0
LWPOLYLINE
  5
55
100
AcDbEntity
  8
0
 62
     9
100
AcDbPolyline
 90
        2
 70
     0
 39
0.003
 10
0.067102
 20
0.56722
 40
0.003
 41
0.003
 10
0.081299
 20
0.553984
 40
0.003
 41
0.003
  0
LWPOLYLINE
  5
56
100
AcDbEntity
  8
0
 62
     9
100
AcDbPolyline
 90
        2
 70
     0
 39
0.003
 10
0.081299
 20
0.553984
 40
0.003
 41
0.003
 10
-0.559827
 20
0.171398
 40
0.003
 41
0.003
  0
LWPOLYLINE
  5
57
100
AcDbEntity
  8
0
 62
     9
100
AcDbPolyline
 90
        2
 70
     0
 39
0.003
 10
-0.559827
 20
0.171398
 40
0.003
 41
0.003
 10
-0.574024
 20
0.184634
 40
0.003
 41
0.003
  0
LWPOLYLINE
  5
58
100
AcDbEntity
  8
0
 62
     9
100
AcDbPolyline
 90
        2
 70
     0
 39
0.003
 10
-0.559827
 20
0.171398
 40
0.003
 41
0.003
 10
0.081299
 20
0.553984
 40
0.003
 41
0.003
  0
LWPOLYLINE
  5
59
100
AcDbEntity
  8
0
 62
     9
100
AcDbPolyline
 90
        2
 70
     0
 39
0.003
 10
0.081299
 20
0.553984
 40
0.003
 41
0.003
 10
0.094571
 20
0.539524
 40
0.003
 41
0.003
  0
LWPOLYLINE
  5
5A
100
AcDbEntity
  8
0
 62
     9
100
AcDbPolyline
 90
        2
 70
     0
 39
0.003
 10
0.094571
 20
0.539524
 40
0.003
 41
0.003
 10
-0.546555
 20
0.156937
 40
0.003
 41
0.003
  0
LWPOLYLINE
  5
5B
100
AcDbEntity
  8
0
 62
     9
100
AcDbPolyline
 90
        2
 70
     0
 39
0.003
 10
-0.546555
 20
0.156937
 40
0.003
 41
0.003
 10
-0.559827
 20
0.171398
 40
0.003
 41
0.003
  0
LWPOLYLINE
  5
5C
100
AcDbEntity
  8
0
 62
     9
100
AcDbPolyline
 90
        2
 70
     0
 39
0.003
 10
-0.546555
 20
0.156937
 40
0.003
 41
0.003
 10
0.094571
 20
0.539524
 40
0.003
 41
0.003
  0
LWPOLYLINE
  5
5D
100
AcDbEntity
  8
0
 62
     9
100
AcDbPolyline
 90
        2
 70
     0
 39
0.003
 10
0.094571
 20
0.539524
 40
0.003
 41
0.003
 10
0.106937
 20
0.523835
 40
0.003
 41
0.003
  0
LWPOLYLINE
  5
5E
100
AcDbEntity
  8
0
 62
     9
100
AcDbPolyline
 90
        2
 70
     0
 39
0.003
 10
0.106937
 20
0.523835
 40
0.003
 41
0.003
 10
-0.534189
 20
0.141248
 40
0.003
 41
0.003
  0
LWPOLYLINE
  5
5F
100
AcDbEntity
  8
0
 62
     9
100
AcDbPolyline
 90
        2
 70
     0
 39
0.003
 10
-0.534189
 20
0.141248
 40
0.003
 41
0.003
 10
-0.546555
 20
0.156937
 40
0.003
 41
0.003
  0
LWPOLYLINE
  5
60
100
AcDbEntity
  8
0
 62
     9
100
AcDbPolyline
 90
        2
 70
     0
 39
0.003
 10
-0.534189
 20
0.141248
 40
0.003
 41
0.003
 10
0.106937
 20
0.523835
 40
0.003
 41
0.003
  0
LWPOLYLINE
  5
61
100
AcDbEntity
  8
0
 62
     9
100
AcDbPolyline
 90
        2
 70
     0
 39
0.003
 10
0.106937
 20
0.523835
 40
0.003
 41
0.003
 10
0.118421
 20
0.506898
 40
0.003
 41
0.003
  0
LWPOLYLINE
  5
62
100
AcDbEntity
  8
0
 62
     9
100
AcDbPolyline
 90
        2
 70
     0
 39
0.003
 10
0.118421
 20
0.506898
 40
0.003
 41
0.003
 10
-0.522705
 20
0.124311
 40
0.003
 41
0.003
  0
LWPOLYLINE
  5
63
100
AcDbEntity
  8
0
 62
     9
100
AcDbPolyline
 90
        2
 70
     0
 39
0.003
 10
-0.522705
 20
0.124311
 40
0.003
 41
0.003
 10
-0.534189
 20
0.141248
 40
0.003
 41
0.003
  0
LWPOLYLINE
  5
64
100
AcDbEntity
  8
0
 62
     9
100
AcDbPolyline
 90
        2
 70
     0
 39
0.003
 10
-0.522705
 20
0.124311
 40
0.003
 41
0.003
 10
0.118421
 20
0.506898
 40
0.003
 41
0.003
  0
LWPOLYLINE
  5
65
100
AcDbEntity
  8
0
 62
     9
100
AcDbPolyline
 90
        2
 70
     0
 39
0.003
 10
0.118421
 20
0.506898
 40
0.003
 41
0.003
 10
0.129043
 20
0.488717
 40
0.003
 41
0.003
  0
LWPOLYLINE
  5
66
100
AcDbEntity
  8
0
 62
     9
100
AcDbPolyline
 90
        2
 70
     0
 39
0.003
 10
0.129043
 20
0.488717
 40
0.003
 41
0.003
 10
-0.512083
 20
0.10613
 40
0.003
 41
0.003
  0
LWPOLYLINE
  5
67
100
AcDbEntity
  8
0
 62
     9
100
AcDbPolyline
 90
        2
 70
     0
 39
0.003
 10
-0.512083
 20
0.10613
 40
0.003
 41
0.003
 10
-0.522705
 20
0.124311
 40
0.003
 41
0.003
  0
LWPOLYLINE
  5
68
100
AcDbEntity
  8
0
 62
     9
100
AcDbPolyline
 90
        2
 70
     0
 39
0.003
 10
-0.512083
 20
0.10613
 40
0.003
 41
0.003
 10
0.129043
 20
0.488717
 40
0.003
 41
0.003
  0
LWPOLYLINE
  5
69
100
AcDbEntity
  8
0
 62
     9
100
AcDbPolyline
 90
        2
 70
     0
 39
0.003
 10
0.129043
 20
0.488717
 40
0.003
 41
0.003
 10
0.138843
 20
0.46926
 40
0.003
 41
0.003
  0
LWPOLYLINE
  5
6A
100
AcDbEntity
  8
0
 62
     9
100
AcDbPolyline
 90
        2
 70
     0
 39
0.003
 10
0.138843
 20
0.46926
 40
0.003
 41
0.003
 10
-0.502283
 20
0.086673
 40
0.003
 41
0.003
  0
LWPOLYLINE
  5
6B
100
AcDbEntity
  8
0
 62
     9
100
AcDbPolyline
 90
        2
 70
     0
 39
0.003
 10
-0.502283
 20
0.086673
 40
0.003
 41
0.003
 10
-0.512083
 20
0.10613
 40
0.003
 41
0.003
  0
LWPOLYLINE
  5
6C
100
AcDbEntity
  8
0
 62
     9
100
AcDbPolyline
 90
        2
 70
     0
 39
0.003
 10
-0.502283
 20
0.086673
 40
0.003
 41
0.003
 10
0.138843
 20
0.46926
 40
0.003
 41
0.003
  0
LWPOLYLINE
  5
6D
100
AcDbEntity
  8
0
 62
     9
100
AcDbPolyline
 90
        2
 70
     0
 39
0.003
 10
0.138843
 20
0.46926
 40
0.003
 41
0.003
 10
0.147831
 20
0.448535
 40
0.003
 41
0.003
  0
LWPOLYLINE
  5
6E
100
AcDbEntity
  8
0
 62
     9
100
AcDbPolyline
 90
        2
 70
     0
 39
0.003
 10
0.147831
 20
0.448535
 40
0.003
 41
0.003
 10
-0.493295
 20
0.065949
 40
0.003
 41
0.003
  0
LWPOLYLINE
  5
6F
100
AcDbEntity
  8
0
 62
     9
100
AcDbPolyline
 90
        2
 70
     0
 39
0.003
 10
-0.493295
 20
0.065949
 40
0.003
 41
0.003
 10
-0.502283
 20
0.086673
 40
0.003
 41
0.003
  0
LWPOLYLINE
  5
70
100
AcDbEntity
  8
0
 62
     9
100
AcDbPolyline
 90
        2
 70
     0
 39
0.003
 10
-0.493295
 20
0.065949
 40
0.003
 41
0.003
 10
0.147831
 20
0.448535
 40
0.003
 41
0.003
  0
LWPOLYLINE
  5
71
100
AcDbEntity
  8
0
 62
     9
100
AcDbPolyline
 90
        2
 70
     0
 39
0.003
 10
0.147831
 20
0.448535
 40
0.003
 41
0.003
 10
0.156035
 20
0.426528
 40
0.003
 41
0.003
  0
LWPOLYLINE
  5
72
100
AcDbEntity
  8
0
 62
     9
100
AcDbPolyline
 90
        2
 70
     0
 39
0.003
 10
0.156035
 20
0.426528
 40
0.003
 41
0.003
 10
-0.485091
 20
0.043941
 40
0.003
 41
0.003
  0
LWPOLYLINE
  5
73
100
AcDbEntity
  8
0
 62
     9
100
AcDbPolyline
 90
        2
 70
     0
 39
0.003
 10
-0.485091
 20
0.043941
 40
0.003
 41
0.003
 10
-0.493295
 20
0.065949
 40
0.003
 41
0.003
  0
LWPOLYLINE
  5
74
100
AcDbEntity
  8
0
 62
     9
100
AcDbPolyline
 90
        2
 70
     0
 39
0.003
 10
-0.485091
 20
0.043941
 40
0.003
 41
0.003
 10
0.156035
 20
0.426528
 40
0.003
 41
0.003
  0
LWPOLYLINE
  5
75
100
AcDbEntity
  8
0
 62
     9
100
AcDbPolyline
 90
        2
 70
     0
 39
0.003
 10
0.156035
 20
0.426528
 40
0.003
 41
0.003
 10
0.16348
 20
0.403213
 40
0.003
 41
0.003
  0
LWPOLYLINE
  5
76
100
AcDbEntity
  8
0
 62
     9
100
AcDbPolyline
 90
        2
 70
     0
 39
0.003
 10
0.16348
 20
0.403213
 40
0.003
 41
0.003
 10
-0.477646
 20
0.020626
 40
0.003
 41
0.003
  0
LWPOLYLINE
  5
77
100
AcDbEntity
  8
0
 62
     9
100
AcDbPolyline
 90
        2
 70
     0
 39
0.003
 10
-0.477646
 20
0.020626
 40
0.003
 41
0.003
 10
-0.485091
 20
0.043941
 40
0.003
 41
0.003
  0
LWPOLYLINE
  5
78
100
AcDbEntity
  8
0
 62
     9
100
AcDbPolyline
 90
        2
 70
     0
 39
0.003
 10
-0.477646
 20
0.020626
 40
0.003
 41
0.003
 10
0.16348
 20
0.403213
 40
0.003
 41
0.003
  0
LWPOLYLINE
  5
79
100
AcDbEntity
  8
0
 62
     9
100
AcDbPolyline
 90
        2
 70
     0
 39
0.003
 10
0.16348
 20
0.403213
 40
0.003
 41
0.003
 10
0.170193
 20
0.378594
 40
0.003
 41
0.003
  0
LWPOLYLINE
  5
7A
100
AcDbEntity
  8
0
 62
     9
100
AcDbPolyline
 90
        2
 70
     0
 39
0.003
 10
0.170193
 20
0.378594
 40
0.003
 41
0.003
 10
-0.470933
 20
-0.003992
 40
0.003
 41
0.003
  0
LWPOLYLINE
  5
7B
100
AcDbEntity
  8
0
 62
     9
100
AcDbPolyline
 90
        2
 70
     0
 39
0.003
 10
-0.470933
 20
-0.003992
 40
0.003
 41
0.003
 10
-0.477646
 20
0.020626
 40
0.003
 41
0.003
  0
LWPOLYLINE
  5
7C
100
AcDbEntity
  8
0
 62
     9
100
AcDbPolyline
 90
        2
 70
     0
 39
0.003
 10
-0.470933
 20
-0.003992
 40
0.003
 41
0.003
 10
0.170193
 20
0.378594
 40
0.003
 41
0.003
  0
LWPOLYLINE
  5
7D
100
AcDbEntity
  8
0
 62
     9
100
AcDbPolyline
 90
        2
 70
     0
 39
0.003
 10
0.170193
 20
0.378594
 40
0.003
 41
0.003
 10
0.176189
 20
0.352646
 40
0.003
 41
0.003
  0
LWPOLYLINE
  5
7E
100
AcDbEntity
  8
0
 62
     9
100
AcDbPolyline
 90
        2
 70
     0
 39
0.003
 10
0.176189
 20
0.352646
 40
0.003
 41
0.003
 10
-0.464937
 20
-0.029941
 40
0.003
 41
0.003
  0
LWPOLYLINE
  5
7F
100
AcDbEntity
  8
0
 62
     9
100
AcDbPolyline
 90
        2
 70
     0
 39
0.003
 10
-0.464937
 20
-0.029941
 40
0.003
 41
0.003
 10
-0.470933
 20
-0.003992
 40
0.003
 41
0.003
  0
LWPOLYLINE
  5
80
100
AcDbEntity
  8
0
 62
     9
100
AcDbPolyline
 90
        2
 70
     0
 39
0.003
 10
-0.464937
 20
-0.029941
 40
0.003
 41
0.003
 10
0.176189
 20
0.352646
 40
0.003
 41
0.003
  0
LWPOLYLINE
  5
81
100
AcDbEntity
  8
0
 62
     9
100
AcDbPolyline
 90
        2
 70
     0
 39
0.003
 10
0.176189
 20
0.352646
 40
0.003
 41
0.003
 10
0.181504
 20
0.32537
 40
0.003
 41
0.003
  0
LWPOLYLINE
  5
82
100
AcDbEntity
  8
0
 62
     9
100
AcDbPolyline
 90
        2
 70
     0
 39
0.003
 10
0.181504
 20
0.32537
 40
0.003
 41
0.003
 10
-0.459622
 20
-0.057217
 40
0.003
 41
0.003
  0
LWPOLYLINE
  5
83
100
AcDbEntity
  8
0
 62
     9
100
AcDbPolyline
 90
        2
 70
     0
 39
0.003
 10
-0.459622
 20
-0.057217
 40
0.003
 41
0.003
 10
-0.464937
 20
-0.029941
 40
0.003
 41
0.003
  0
LWPOLYLINE
  5
84
100
AcDbEntity
  8
0
 62
     9
100
AcDbPolyline
 90
        2
 70
     0
 39
0.003
 10
-0.459622
 20
-0.057217
 40
0.003
 41
0.003
 10
0.181504
 20
0.32537
 40
0.003
 41
0.003
  0
LWPOLYLINE
  5
85
100
AcDbEntity
  8
0
 62
     9
100
AcDbPolyline
 90
        2
 70
     0
 39
0.003
 10
0.181504
 20
0.32537
 40
0.003
 41
0.003
 10
0.18615
 20
0.296748
 40
0.003
 41
0.003
  0
LWPOLYLINE
  5
86
100
AcDbEntity
  8
0
 62
     9
100
AcDbPolyline
 90
        2
 70
     0
 39
0.003
 10
0.18615
 20
0.296748
 40
0.003
 41
0.003
 10
-0.454976
 20
-0.085839
 40
0.003
 41
0.003
  0
LWPOLYLINE
  5
87
100
AcDbEntity
  8
0
 62
     9
100
AcDbPolyline
 90
        2
 70
     0
 39
0.003
 10
-0.454976
 20
-0.085839
 40
0.003
 41
0.003
 10
-0.459622
 20
-0.057217
 40
0.003
 41
0.003
  0
LWPOLYLINE
  5
88
100
AcDbEntity
  8
0
 62
     9
100
AcDbPolyline
 90
        2
 70
     0
 39
0.003
 10
-0.454976
 20
-0.085839
 40
0.003
 41
0.003
 10
0.18615
 20
0.296748
 40
0.003
 41
0.003
  0
LWPOLYLINE
  5
89
100
AcDbEntity
  8
0
 62
     9
100
AcDbPolyline
 90
        2
 70
     0
 39
0.003
 10
0.18615
 20
0.296748
 40
0.003
 41
0.003
 10
0.190169
 20
0.26678
 40
0.003
 41
0.003
  0
LWPOLYLINE
  5
8A
100
AcDbEntity
  8
0
 62
     9
100
AcDbPolyline
 90
        2
 70
     0
 39
0.003
 10
0.190169
 20
0.26678
 40
0.003
 41
0.003
 10
-0.450957
 20
-0.115807
 40
0.003
 41
0.003
  0
LWPOLYLINE
  5
8B
100
AcDbEntity
  8
0
 62
     9
100
AcDbPolyline
 90
        2
 70
     0
 39
0.003
 10
-0.450957
 20
-0.115807
 40
0.003
 41
0.003
 10
-0.454976
 20
-0.085839
 40
0.003
 41
0.003
  0
LWPOLYLINE
  5
8C
100
AcDbEntity
  8
0
 62
     9
100
AcDbPolyline
 90
        2
 70
     0
 39
0.003
 10
-0.450957
 20
-0.115807
 40
0.003
 41
0.003
 10
0.190169
 20
0.26678
 40
0.003
 41
0.003
  0
LWPOLYLINE
  5
8D
100
AcDbEntity
  8
0
 62
     9
100
AcDbPolyline
 90
        2
 70
     0
 39
0.003
 10
0.190169
 20
0.26678
 40
0.003
 41
0.003
 10
0.193563
 20
0.235445
 40
0.003
 41
0.003
  0
LWPOLYLINE
  5
8E
100
AcDbEntity
  8
0
 62
     9
100
AcDbPolyline
 90
        2
 70
     0
 39
0.003
 10
0.193563
 20
0.235445
 40
0.003
 41
0.003
 10
-0.447563
 20
-0.147142
 40
0.003
 41
0.003
  0
LWPOLYLINE
  5
8F
100
AcDbEntity
  8
0
 62
     9
100
AcDbPolyline
 90
        2
 70
     0
 39
0.003
 10
-0.447563
 20
-0.147142
 40
0.003
 41
0.003
 10
-0.450957
 20
-0.115807
 40
0.003
 41
0.003
  0
LWPOLYLINE
  5
90
100
AcDbEntity
  8
0
 62
     9
100
AcDbPolyline
 90
        2
 70
     0
 39
0.003
 10
-0.447563
 20
-0.147142
 40
0.003
 41
0.003
 10
0.193563
 20
0.235445
 40
0.003
 41
0.003
  0
LWPOLYLINE
  5
91
100
AcDbEntity
  8
0
 62
     9
100
AcDbPolyline
 90
        2
 70
     0
 39
0.003
 10
0.193563
 20
0.235445
 40
0.003
 41
0.003
 10
0.196378
 20
0.202732
 40
0.003
 41
0.003
  0
LWPOLYLINE
  5
92
100
AcDbEntity
  8
0
 62
     9
100
AcDbPolyline
 90
        2
 70
     0
 39
0.003
 10
0.196378
 20
0.202732
 40
0.003
 41
0.003
 10
-0.444748
 20
-0.179854
 40
0.003
 41
0.003
  0
LWPOLYLINE
  5
93
100
AcDbEntity
  8
0
 62
     9
100
AcDbPolyline
 90
        2
 70
     0
 39
0.003
 10
-0.444748
 20
-0.179854
 40
0.003
 41
0.003
 10
-0.447563
 20
-0.147142
 40
0.003
 41
0.003
  0
LWPOLYLINE
  5
94
100
AcDbEntity
  8
0
 62
     9
100
AcDbPolyline
 90
        2
 70
     0
 39
0.003
 10
-0.444748
 20
-0.179854
 40
0.003
 41
0.003
 10
0.196378
 20
0.202732
 40
0.003
 41
0.003
  0
LWPOLYLINE
  5
95
100
AcDbEntity
  8
0
 62
     9
100
AcDbPolyline
 90
        2
 70
     0
 39
0.003
 10
0.196378
 20
0.202732
 40
0.003
 41
0.003
 10
0.198614
 20
0.16863
 40
0.003
 41
0.003
  0
LWPOLYLINE
  5
96
100
AcDbEntity
  8
0
 62
     9
100
AcDbPolyline
 90
        2
 70
     0
 39
0.003
 10
0.198614
 20
0.16863
 40
0.003
 41
0.003
 10
-0.442512
 20
-0.213957
 40
0.003
 41
0.003
  0
LWPOLYLINE
  5
97
100
AcDbEntity
  8
0
 62
     9
100
AcDbPolyline
 90
        2
 70
     0
 39
0.003
 10
-0.442512
 20
-0.213957
 40
0.003
 41
0.003
 10
-0.444748
 20
-0.179854
 40
0.003
 41
0.003
  0
LWPOLYLINE
  5
98
100
AcDbEntity
  8
0
 62
     9
100
AcDbPolyline
 90
        2
 70
     0
 39
0.003
 10
-0.442512
 20
-0.213957
 40
0.003
 41
0.003
 10
0.198614
 20
0.16863
 40
0.003
 41
0.003
  0
LWPOLYLINE
  5
99
100
AcDbEntity
  8
0
 62
     9
100
AcDbPolyline
 90
        2
 70
     0
 39
0.003
 10
0.198614
 20
0.16863
 40
0.003
 41
0.003
 10
0.200319
 20
0.133134
 40
0.003
 41
0.003
  0
LWPOLYLINE
  5
9A
100
AcDbEntity
  8
0
 62
     9
100
AcDbPolyline
 90
        2
 70
     0
 39
0.003
 10
0.200319
 20
0.133134
 40
0.003
 41
0.003
 10
-0.440807
 20
-0.249453
 40
0.003
 41
0.003
  0
LWPOLYLINE
  5
9B
100
AcDbEntity
  8
0
 62
     9
100
AcDbPolyline
 90
        2
 70
     0
 39
0.003
 10
-0.440807
 20
-0.249453
 40
0.003
 41
0.003
 10
-0.442512
 20
-0.213957
 40
0.003
 41
0.003
  0
LWPOLYLINE
  5
9C
100
AcDbEntity
  8
0
 62
     9
100
AcDbPolyline
 90
        2
 70
     0
 39
0.003
 10
-0.440807
 20
-0.249453
 40
0.003
 41
0.003
 10
0.200319
 20
0.133134
 40
0.003
 41
0.003
  0
LWPOLYLINE
  5
9D
100
AcDbEntity
  8
0
 62
     9
100
AcDbPolyline
 90
        2
 70
     0
 39
0.003
 10
0.200319
 20
0.133134
 40
0.003
 41
0.003
 10
0.201504
 20
0.096224
 40
0.003
 41
0.003
  0
LWPOLYLINE
  5
9E
100
AcDbEntity
  8
0
 62
     9
100
AcDbPolyline
 90
        2
 70
     0
 39
0.003
 10
0.201504
 20
0.096224
 40
0.003
 41
0.003
 10
-0.439622
 20
-0.286362
 40
0.003
 41
0.003
  0
LWPOLYLINE
  5
9F
100
AcDbEntity
  8
0
 62
     9
100
AcDbPolyline
 90
        2
 70
     0
 39
0.003
 10
-0.439622
 20
-0.286362
 40
0.003
 41
0.003
 10
-0.440807
 20
-0.249453
 40
0.003
 41
0.003
  0
LWPOLYLINE
  5
A0
100
AcDbEntity
  8
0
 62
     9
100
AcDbPolyline
 90
        2
 70
     0
 39
0.003
 10
-0.439622
 20
-0.286362
 40
0.003
 41
0.003
 10
0.201504
 20
0.096224
 40
0.003
 41
0.003
  0
LWPOLYLINE
  5
A1
100
AcDbEntity
  8
0
 62
     9
100
AcDbPolyline
 90
        2
 70
     0
 39
0.003
 10
0.201504
 20
0.096224
 40
0.003
 41
0.003
 10
0.202201
 20
0.057898
 40
0.003
 41
0.003
  0
LWPOLYLINE
  5
A2
100
AcDbEntity
  8
0
 62
     9
100
AcDbPolyline
 90
        2
 70
     0
 39
0.003
 10
0.202201
 20
0.057898
 40
0.003
 41
0.003
 10
-0.438925
 20
-0.324689
 40
0.003
 41
0.003
  0
LWPOLYLINE
  5
A3
100
AcDbEntity
  8
0
 62
     9
100
AcDbPolyline
 90
        2
 70
     0
 39
0.003
 10
-0.438925
 20
-0.324689
 40
0.003
 41
0.003
 10
-0.439622
 20
-0.286362
 40
0.003
 41
0.003
  0
LWPOLYLINE
  5
A4
100
AcDbEntity
  8
0
 62
     9
100
AcDbPolyline
 90
        2
 70
     0
 39
0.003
 10
-0.438925
 20
-0.324689
 40
0.003
 41
0.003
 10
0.202201
 20
0.057898
 40
0.003
 41
0.003
  0
LWPOLYLINE
  5
A5
100
AcDbEntity
  8
0
 62
     9
100
AcDbPolyline
 90
        2
 70
     0
 39
0.003
 10
0.202201
 20
0.057898
 40
0.003
 41
0.003
 10
0.202421
 20
0.018134
 40
0.003
 41
0.003
  0
LWPOLYLINE
  5
A6
100
AcDbEntity
  8
0
 62
     9
100
AcDbPolyline
 90
        2
 70
     0
 39
0.003
 10
0.202421
 20
0.018134
 40
0.003
 41
0.003
 10
-0.438705
 20
-0.364453
 40
0.003
 41
0.003
  0
LWPOLYLINE
  5
A7
100
AcDbEntity
  8
0
 62
     9
100
AcDbPolyline
 90
        2
 70
     0
 39
0.003
 10
-0.438705
 20
-0.364453
 40
0.003
 41
0.003
 10
-0.438925
 20
-0.324689
 40
0.003
 41
0.003
  0
LWPOLYLINE
  5
A8
100
AcDbEntity
  8
0
 62
     9
100
AcDbPolyline
 90
        2
 70
     0
 39
0.003
 10
-0.438705
 20
-0.364453
 40
0.003
 41
0.003
 10
0.202421
 20
0.018134
 40
0.003
 41
0.003
  0
LWPOLYLINE
  5
A9
100
AcDbEntity
  8
0
 62
     9
100
AcDbPolyline
 90
        2
 70
     0
 39
0.003
 10
0.202421
 20
0.018134
 40
0.003
 41
0.003
 10
0.202701
 20
-0.021406
 40
0.003
 41
0.003
  0
LWPOLYLINE
  5
AA
100
AcDbEntity
  8
0
 62
     9
100
AcDbPolyline
 90
        2
 70
     0
 39
0.003
 10
0.202701
 20
-0.021406
 40
0.003
 41
0.003
 10
-0.438425
 20
-0.403992
 40
0.003
 41
0.003
  0
LWPOLYLINE
  5
AB
100
AcDbEntity
  8
0
 62
     9
100
AcDbPolyline
 90
        2
 70
     0
 39
0.003
 10
-0.438425
 20
-0.403992
 40
0.003
 41
0.003
 10
-0.438705
 20
-0.364453
 40
0.003
 41
0.003
  0
LWPOLYLINE
  5
AC
100
AcDbEntity
  8
0
 62
     9
100
AcDbPolyline
 90
        2
 70
     0
 39
0.003
 10
-0.438425
 20
-0.403992
 40
0.003
 41
0.003
 10
0.202701
 20
-0.021406
 40
0.003
 41
0.003
  0
LWPOLYLINE
  5
AD
100
AcDbEntity
  8
0
 62
     9
100
AcDbPolyline
 90
        2
 70
     0
 39
0.003
 10
0.202701
 20
-0.021406
 40
0.003
 41
0.003
 10
0.20352
 20
-0.059114
 40
0.003
 41
0.003
  0
LWPOLYLINE
  5
AE
100
AcDbEntity
  8
0
 62
     9
100
AcDbPolyline
 90
        2
 70
     0
 39
0.003
 10
0.20352
 20
-0.059114
 40
0.003
 41
0.003
 10
-0.437606
 20
-0.441701
 40
0.003
 41
0.003
  0
LWPOLYLINE
  5
AF
100
AcDbEntity
  8
0
 62
     9
100
AcDbPolyline
 90
        2
 70
     0
 39
0.003
 10
-0.437606
 20
-0.441701
 40
0.003
 41
0.003
 10
-0.438425
 20
-0.403992
 40
0.003
 41
0.003
  0
LWPOLYLINE
  5
B0
100
AcDbEntity
  8
0
 62
     9
100
AcDbPolyline
 90
        2
 70
     0
 39
0.003
 10
-0.437606
 20
-0.441701
 40
0.003
 41
0.003
 10
0.20352
 20
-0.059114
 40
0.003
 41
0.003
  0
LWPOLYLINE
  5
B1
100
AcDbEntity
  8
0
 62
     9
100
AcDbPolyline
 90
        2
 70
     0
 39
0.003
 10
0.20352
 20
-0.059114
 40
0.003
 41
0.003
 10
0.204874
 20
-0.095043
 40
0.003
 41
0.003
  0
LWPOLYLINE
  5
B2
100
AcDbEntity
  8
0
 62
     9
100
AcDbPolyline
 90
        2
 70
     0
 39
0.003
 10
0.204874
 20
-0.095043
 40
0.003
 41
0.003
 10
-0.436252
 20
-0.47763
 40
0.003
 41
0.003
  0
LWPOLYLINE
  5
B3
100
AcDbEntity
  8
0
 62
     9
100
AcDbPolyline
 90
        2
 70
     0
 39
0.003
 10
-0.436252
 20
-0.47763
 40
0.003
 41
0.003
 10
-0.437606
 20
-0.441701
 40
0.003
 41
0.003
  0
LWPOLYLINE
  5
B4
100
AcDbEntity
  8
0
 62
     9
100
AcDbPolyline
 90
        2
 70
     0
 39
0.003
 10
-0.436252
 20
-0.47763
 40
0.003
 41
0.003
 10
0.204874
 20
-0.095043
 40
0.003
 41
0.003
  0
LWPOLYLINE
  5
B5
100
AcDbEntity
  8
0
 62
     9
100
AcDbPolyline
 90
        2
 70
     0
 39
0.003
 10
0.204874
 20
-0.095043
 40
0.003
 41
0.003
 10
0.206752
 20
-0.129248
 40
0.003
 41
0.003
  0
LWPOLYLINE
  5
B6
100
AcDbEntity
  8
0
 62
     9
100
AcDbPolyline
 90
        2
 70
     0
 39
0.003
 10
0.206752
 20
-0.129248
 40
0.003
 41
0.003
 10
-0.434374
 20
-0.511835
 40
0.003
 41
0.003
  0
LWPOLYLINE
  5
B7
100
AcDbEntity
  8
0
 62
     9
100
AcDbPolyline
 90
        2
 70
     0
 39
0.003
 10
-0.434374
 20
-0.511835
 40
0.003
 41
0.003
 10
-0.436252
 20
-0.47763
 40
0.003
 41
0.003
  0
LWPOLYLINE
  5
B8
100
AcDbEntity
  8
0
 62
     9
100
AcDbPolyline
 90
        2
 70
     0
 39
0.003
 10
-0.434374
 20
-0.511835
 40
0.003
 41
0.003
 10
0.206752
 20
-0.129248
 40
0.003
 41
0.003
  0
LWPOLYLINE
  5
B9
100
AcDbEntity
  8
0
 62
     9
100
AcDbPolyline
 90
        2
 70
     0
 39
0.003
 10
0.206752
 20
-0.129248
 40
0.003
 41
0.003
 10
0.209146
 20
-0.161772
 40
0.003
 41
0.003
  0
LWPOLYLINE
  5
BA
100
AcDbEntity
  8
0
 62
     9
100
AcDbPolyline
 90
        2
 70
     0
 39
0.003
 10
0.209146
 20
-0.161772
 40
0.003
 41
0.003
 10
-0.43198
 20
-0.544358
 40
0.003
 41
0.003
  0
LWPOLYLINE
  5
BB
100
AcDbEntity
  8
0
 62
     9
100
AcDbPolyline
 90
        2
 70
     0
 39
0.003
 10
-0.43198
 20
-0.544358
 40
0.003
 41
0.003
 10
-0.434374
 20
-0.511835
 40
0.003
 41
0.003
  0
LWPOLYLINE
  5
BC
100
AcDbEntity
  8
0
 62
     9
100
AcDbPolyline
 90
        2
 70
     0
 39
0.003
 10
-0.43198
 20
-0.544358
 40
0.003
 41
0.003
 10
0.209146
 20
-0.161772
 40
0.003
 41
0.003
  0
LWPOLYLINE
  5
BD
100
AcDbEntity
  8
0
 62
     9
100
AcDbPolyline
 90
        2
 70
     0
 39
0.003
 10
0.209146
 20
-0.161772
 40
0.003
 41
0.003
 10
0.212039
 20
-0.192673
 40
0.003
 41
0.003
  0
LWPOLYLINE
  5
BE
100
AcDbEntity
  8
0
 62
     9
100
AcDbPolyline
 90
        2
 70
     0
 39
0.003
 10
0.212039
 20
-0.192673
 40
0.003
 41
0.003
 10
-0.429087
 20
-0.57526
 40
0.003
 41
0.003
  0
LWPOLYLINE
  5
BF
100
AcDbEntity
  8
0
 62
     9
100
AcDbPolyline
 90
        2
 70
     0
 39
0.003
 10
-0.429087
 20
-0.57526
 40
0.003
 41
0.003
 10
-0.43198
 20
-0.544358
 40
0.003
 41
0.003
  0
LWPOLYLINE
  5
C0
100
AcDbEntity
  8
0
 62
     9
100
AcDbPolyline
 90
        2
 70
     0
 39
0.003
 10
-0.429087
 20
-0.57526
 40
0.003
 41
0.003
 10
0.212039
 20
-0.192673
 40
0.003
 41
0.003
  0
LWPOLYLINE
  5
C1
100
AcDbEntity
  8
0
 62
     9
100
AcDbPolyline
 90
        2
 70
     0
 39
0.003
 10
0.212039
 20
-0.192673
 40
0.003
 41
0.003
 10
0.215429
 20
-0.222
 40
0.003
 41
0.003
  0
LWPOLYLINE
  5
C2
100
AcDbEntity
  8
0
 62
     9
100
AcDbPolyline
 90
        2
 70
     0
 39
0.003
 10
0.215429
 20
-0.222
 40
0.003
 41
0.003
 10
-0.425697
 20
-0.604587
 40
0.003
 41
0.003
  0
LWPOLYLINE
  5
C3
100
AcDbEntity
  8
0
 62
     9
100
AcDbPolyline
 90
        2
 70
     0
 39
0.003
 10
-0.425697
 20
-0.604587
 40
0.003
 41
0.003
 10
-0.429087
 20
-0.57526
 40
0.003
 41
0.003
  0
LWPOLYLINE
  5
C4
100
AcDbEntity
  8
0
 62
     9
100
AcDbPolyline
 90
        2
 70
     0
 39
0.003
 10
-0.425697
 20
-0.604587
 40
0.003
 41
0.003
 10
0.215429
 20
-0.222
 40
0.003
 41
0.003
  0
LWPOLYLINE
  5
C5
100
AcDbEntity
  8
0
 62
     9
100
AcDbPolyline
 90
        2
 70
     0
 39
0.003
 10
0.215429
 20
-0.222
 40
0.003
 41
0.003
 10
0.219291
 20
-0.249823
 40
0.003
 41
0.003
  0
LWPOLYLINE
  5
C6
100
AcDbEntity
  8
0
 62
     9
100
AcDbPolyline
 90
        2
 70
     0
 39
0.003
 10
0.219291
 20
-0.249823
 40
0.003
 41
0.003
 10
-0.421835
 20
-0.632409
 40
0.003
 41
0.003
  0
LWPOLYLINE
  5
C7
100
AcDbEntity
  8
0
 62
     9
100
AcDbPolyline
 90
        2
 70
     0
 39
0.003
 10
-0.421835
 20
-0.632409
 40
0.003
 41
0.003
 10
-0.425697
 20
-0.604587
 40
0.003
 41
0.003
  0
LWPOLYLINE
  5
C8
100
AcDbEntity
  8
0
 62
     9
100
AcDbPolyline
 90
        2
 70
     0
 39
0.003
 10
-0.421835
 20
-0.632409
 40
0.003
 41
0.003
 10
0.219291
 20
-0.249823
 40
0.003
 41
0.003
  0
LWPOLYLINE
  5
C9
100
AcDbEntity
  8
0
 62
     9
100
AcDbPolyline
 90
        2
 70
     0
 39
0.003
 10
0.219291
 20
-0.249823
 40
0.003
 41
0.003
 10
0.223638
 20
-0.276169
 40
0.003
 41
0.003
  0
LWPOLYLINE
  5
CA
100
AcDbEntity
  8
0
 62
     9
100
AcDbPolyline
 90
        2
 70
     0
 39
0.003
 10
0.223638
 20
-0.276169
 40
0.003
 41
0.003
 10
-0.417488
 20
-0.658756
 40
0.003
 41
0.003
  0
LWPOLYLINE
  5
CB
100
AcDbEntity
  8
0
 62
     9
100
AcDbPolyline
 90
        2
 70
     0
 39
0.003
 10
-0.417488
 20
-0.658756
 40
0.003
 41
0.003
 10
-0.421835
 20
-0.632409
 40
0.003
 41
0.003
  0
LWPOLYLINE
  5
CC
100
AcDbEntity
  8
0
 62
     9
100
AcDbPolyline
 90
        2
 70
     0
 39
0.003
 10
-0.417488
 20
-0.658756
 40
0.003
 41
0.003
 10
0.223638
 20
-0.276169
 40
0.003
 41
0.003
  0
LWPOLYLINE
  5
CD
100
AcDbEntity
  8
0
 62
     9
100
AcDbPolyline
 90
        2
 70
     0
 39
0.003
 10
0.223638
 20
-0.276169
 40
0.003
 41
0.003
 10
0.228437
 20
-0.301106
 40
0.003
 41
0.003
  0
LWPOLYLINE
  5
CE
100
AcDbEntity
  8
0
 62
     9
100
AcDbPolyline
 90
        2
 70
     0
 39
0.003
 10
0.228437
 20
-0.301106
 40
0.003
 41
0.003
 10
-0.412689
 20
-0.683693
 40
0.003
 41
0.003
  0
LWPOLYLINE
  5
CF
100
AcDbEntity
  8
0
 62
     9
100
AcDbPolyline
 90
        2
 70
     0
 39
0.003
 10
-0.412689
 20
-0.683693
 40
0.003
 41
0.003
 10
-0.417488
 20
-0.658756
 40
0.003
 41
0.003
  0
LWPOLYLINE
  5
D0
100
AcDbEntity
  8
0
 62
     9
100
AcDbPolyline
 90
        2
 70
     0
 39
0.003
 10
-0.412689
 20
-0.683693
 40
0.003
 41
0.003
 10
0.228437
 20
-0.301106
 40
0.003
 41
0.003
  0
LWPOLYLINE
  5
D1
100
AcDbEntity
  8
0
 62
     9
100
AcDbPolyline
 90
        2
 70
     0
 39
0.003
 10
0.228437
 20
-0.301106
 40
0.003
 41
0.003
 10
0.233689
 20
-0.324685
 40
0.003
 41
0.003
  0
LWPOLYLINE
  5
D2
100
AcDbEntity
  8
0
 62
     9
100
AcDbPolyline
 90
        2
 70
     0
 39
0.003
 10
0.233689
 20
-0.324685
 40
0.003
 41
0.003
 10
-0.407437
 20
-0.707272
 40
0.003
 41
0.003
  0
LWPOLYLINE
  5
D3
100
AcDbEntity
  8
0
 62
     9
100
AcDbPolyline
 90
        2
 70
     0
 39
0.003
 10
-0.407437
 20
-0.707272
 40
0.003
 41
0.003
 10
-0.412689
 20
-0.683693
 40
0.003
 41
0.003
  0
LWPOLYLINE
  5
D4
100
AcDbEntity
  8
0
 62
     9
100
AcDbPolyline
 90
        2
 70
     0
 39
0.003
 10
-0.407437
 20
-0.707272
 40
0.003
 41
0.003
 10
0.233689
 20
-0.324685
 40
0.003
 41
0.003
  0
LWPOLYLINE
  5
D5
100
AcDbEntity
  8
0
 62
     9
100
AcDbPolyline
 90
        2
 70
     0
 39
0.003
 10
0.233689
 20
-0.324685
 40
0.003
 41
0.003
 10
0.239378
 20
-0.346961
 40
0.003
 41
0.003
  0
LWPOLYLINE
  5
D6
100
AcDbEntity
  8
0
 62
     9
100
AcDbPolyline
 90
        2
 70
     0
 39
0.003
 10
0.239378
 20
-0.346961
 40
0.003
 41
0.003
 10
-0.401748
 20
-0.729547
 40
0.003
 41
0.003
  0
LWPOLYLINE
  5
D7
100
AcDbEntity
  8
0
 62
     9
100
AcDbPolyline
 90
        2
 70
     0
 39
0.003
 10
-0.401748
 20
-0.729547
 40
0.003
 41
0.003
 10
-0.407437
 20
-0.707272
 40
0.003
 41
0.003
  0
LWPOLYLINE
  5
D8
100
AcDbEntity
  8
0
 62
     9
100
AcDbPolyline
 90
        2
 70
     0
 39
0.003
 10
-0.401748
 20
-0.729547
 40
0.003
 41
0.003
 10
0.239378
 20
-0.346961
 40
0.003
 41
0.003
  0
LWPOLYLINE
  5
D9
100
AcDbEntity
  8
0
 62
     9
100
AcDbPolyline
 90
        2
 70
     0
 39
0.003
 10
0.239378
 20
-0.346961
 40
0.003
 41
0.003
 10
0.2455
 20
-0.367976
 40
0.003
 41
0.003
  0
LWPOLYLINE
  5
DA
100
AcDbEntity
  8
0
 62
     9
100
AcDbPolyline
 90
        2
 70
     0
 39
0.003
 10
0.2455
 20
-0.367976
 40
0.003
 41
0.003
 10
-0.395626
 20
-0.750563
 40
0.003
 41
0.003
  0
LWPOLYLINE
  5
DB
100
AcDbEntity
  8
0
 62
     9
100
AcDbPolyline
 90
        2
 70
     0
 39
0.003
 10
-0.395626
 20
-0.750563
 40
0.003
 41
0.003
 10
-0.401748
 20
-0.729547
 40
0.003
 41
0.003
  0
LWPOLYLINE
  5
DC
100
AcDbEntity
  8
0
 62
     9
100
AcDbPolyline
 90
        2
 70
     0
 39
0.003
 10
-0.395626
 20
-0.750563
 40
0.003
 41
0.003
 10
0.2455
 20
-0.367976
 40
0.003
 41
0.003
  0
LWPOLYLINE
  5
DD
100
AcDbEntity
  8
0
 62
     9
100
AcDbPolyline
 90
        2
 70
     0
 39
0.003
 10
0.2455
 20
-0.367976
 40
0.003
 41
0.003
 10
0.252039
 20
-0.387795
 40
0.003
 41
0.003
  0
LWPOLYLINE
  5
DE
100
AcDbEntity
  8
0
 62
     9
100
AcDbPolyline
 90
        2
 70
     0
 39
0.003
 10
0.252039
 20
-0.387795
 40
0.003
 41
0.003
 10
-0.389087
 20
-0.770382
 40
0.003
 41
0.003
  0
LWPOLYLINE
  5
DF
100
AcDbEntity
  8
0
 62
     9
100
AcDbPolyline
 90
        2
 70
     0
 39
0.003
 10
-0.389087
 20
-0.770382
 40
0.003
 41
0.003
 10
-0.395626
 20
-0.750563
 40
0.003
 41
0.003
  0
LWPOLYLINE
  5
E0
100
AcDbEntity
  8
0
 62
     9
100
AcDbPolyline
 90
        2
 70
     0
 39
0.003
 10
-0.389087
 20
-0.770382
 40
0.003
 41
0.003
 10
0.252039
 20
-0.387795
 40
0.003
 41
0.003
  0
LWPOLYLINE
  5
E1
100
AcDbEntity
  8
0
 62
     9
100
AcDbPolyline
 90
        2
 70
     0
 39
0.003
 10
0.252039
 20
-0.387795
 40
0.003
 41
0.003
 10
0.258992
 20
-0.406465
 40
0.003
 41
0.003
  0
LWPOLYLINE
  5
E2
100
AcDbEntity
  8
0
 62
     9
100
AcDbPolyline
 90
        2
 70
     0
 39
0.003
 10
0.258992
 20
-0.406465
 40
0.003
 41
0.003
 10
-0.382134
 20
-0.789051
 40
0.003
 41
0.003
  0
LWPOLYLINE
  5
E3
100
AcDbEntity
  8
0
 62
     9
100
AcDbPolyline
 90
        2
 70
     0
 39
0.003
 10
-0.382134
 20
-0.789051
 40
0.003
 41
0.003
 10
-0.389087
 20
-0.770382
 40
0.003
 41
0.003
  0
LWPOLYLINE
  5
E4
100
AcDbEntity
  8
0
 62
     9
100
AcDbPolyline
 90
        2
 70
     0
 39
0.003
 10
-0.382134
 20
-0.789051
 40
0.003
 41
0.003
 10
0.258992
 20
-0.406465
 40
0.003
 41
0.003
  0
LWPOLYLINE
  5
E5
100
AcDbEntity
  8
0
 62
     9
100
AcDbPolyline
 90
        2
 70
     0
 39
0.003
 10
0.258992
 20
-0.406465
 40
0.003
 41
0.003
 10
0.266335
 20
-0.424043
 40
0.003
 41
0.003
  0
LWPOLYLINE
  5
E6
100
AcDbEntity
  8
0
 62
     9
100
AcDbPolyline
 90
        2
 70
     0
 39
0.003
 10
0.266335
 20
-0.424043
 40
0.003
 41
0.003
 10
-0.374791
 20
-0.80663
 40
0.003
 41
0.003
  0
LWPOLYLINE
  5
E7
100
AcDbEntity
  8
0
 62
     9
100
AcDbPolyline
 90
        2
 70
     0
 39
0.003
 10
-0.374791
 20
-0.80663
 40
0.003
 41
0.003
 10
-0.382134
 20
-0.789051
 40
0.003
 41
0.003
  0
LWPOLYLINE
  5
E8
100
AcDbEntity
  8
0
 62
     9
100
AcDbPolyline
 90
        2
 70
     0
 39
0.003
 10
-0.374791
 20
-0.80663
 40
0.003
 41
0.003
 10
0.266335
 20
-0.424043
 40
0.003
 41
0.003
  0
LWPOLYLINE
  5
E9
100
AcDbEntity
  8
0
 62
     9
100
AcDbPolyline
 90
        2
 70
     0
 39
0.003
 10
0.266335
 20
-0.424043
 40
0.003
 41
0.003
 10
0.274079
 20
-0.440571
 40
0.003
 41
0.003
  0
LWPOLYLINE
  5
EA
100
AcDbEntity
  8
0
 62
     9
100
AcDbPolyline
 90
        2
 70
     0
 39
0.003
 10
0.274079
 20
-0.440571
 40
0.003
 41
0.003
 10
-0.367047
 20
-0.823157
 40
0.003
 41
0.003
  0
LWPOLYLINE
  5
EB
100
AcDbEntity
  8
0
 62
     9
100
AcDbPolyline
 90
        2
 70
     0
 39
0.003
 10
-0.367047
 20
-0.823157
 40
0.003
 41
0.003
 10
-0.374791
 20
-0.80663
 40
0.003
 41
0.003
  0
LWPOLYLINE
  5
EC
100
AcDbEntity
  8
0
 62
     9
100
AcDbPolyline
 90
        2
 70
     0
 39
0.003
 10
-0.367047
 20
-0.823157
 40
0.003
 41
0.003
 10
0.274079
 20
-0.440571
 40
0.003
 41
0.003
  0
LWPOLYLINE
  5
ED
100
AcDbEntity
  8
0
 62
     9
100
AcDbPolyline
 90
        2
 70
     0
 39
0.003
 10
0.274079
 20
-0.440571
 40
0.003
 41
0.003
 10
0.282193
 20
-0.45611
 40
0.003
 41
0.003
  0
LWPOLYLINE
  5
EE
100
AcDbEntity
  8
0
 62
     9
100
AcDbPolyline
 90
        2
 70
     0
 39
0.003
 10
0.282193
 20
-0.45611
 40
0.003
 41
0.003
 10
-0.358933
 20
-0.838697
 40
0.003
 41
0.003
  0
LWPOLYLINE
  5
EF
100
AcDbEntity
  8
0
 62
     9
100
AcDbPolyline
 90
        2
 70
     0
 39
0.003
 10
-0.358933
 20
-0.838697
 40
0.003
 41
0.003
 10
-0.367047
 20
-0.823157
 40
0.003
 41
0.003
  0
LWPOLYLINE
  5
F0
100
AcDbEntity
  8
0
 62
     9
100
AcDbPolyline
 90
        2
 70
     0
 39
0.003
 10
-0.358933
 20
-0.838697
 40
0.003
 41
0.003
 10
0.282193
 20
-0.45611
 40
0.003
 41
0.003
  0
LWPOLYLINE
  5
F1
100
AcDbEntity
  8
0
 62
     9
100
AcDbPolyline
 90
        2
 70
     0
 39
0.003
 10
0.282193
 20
-0.45611
 40
0.003
 41
0.003
 10
0.290681
 20
-0.470713
 40
0.003
 41
0.003
  0
LWPOLYLINE
  5
F2
100
AcDbEntity
  8
0
 62
     9
100
AcDbPolyline
 90
        2
 70
     0
 39
0.003
 10
0.290681
 20
-0.470713
 40
0.003
 41
0.003
 10
-0.350445
 20
-0.853299
 40
0.003
 41
0.003
  0
LWPOLYLINE
  5
F3
100
AcDbEntity
  8
0
 62
     9
100
AcDbPolyline
 90
        2
 70
     0
 39
0.003
 10
-0.350445
 20
-0.853299
 40
0.003
 41
0.003
 10
-0.358933
 20
-0.838697
 40
0.003
 41
0.003
  0
LWPOLYLINE
  5
F4
100
AcDbEntity
  8
0
 62
     9
100
AcDbPolyline
 90
        2
 70
     0
 39
0.003
 10
-0.350445
 20
-0.853299
 40
0.003
 41
0.003
 10
0.290681
 20
-0.470713
 40
0.003
 41
0.003
  0
LWPOLYLINE
  5
F5
100
AcDbEntity
  8
0
 62
     9
100
AcDbPolyline
 90
        2
 70
     0
 39
0.003
 10
0.290681
 20
-0.470713
 40
0.003
 41
0.003
 10
0.299516
 20
-0.484433
 40
0.003
 41
0.003
  0
LWPOLYLINE
  5
F6
100
AcDbEntity
  8
0
 62
     9
100
AcDbPolyline
 90
        2
 70
     0
 39
0.003
 10
0.299516
 20
-0.484433
 40
0.003
 41
0.003
 10
-0.34161
 20
-0.86702
 40
0.003
 41
0.003
  0
LWPOLYLINE
  5
F7
100
AcDbEntity
  8
0
 62
     9
100
AcDbPolyline
 90
        2
 70
     0
 39
0.003
 10
-0.34161
 20
-0.86702
 40
0.003
 41
0.003
 10
-0.350445
 20
-0.853299
 40
0.003
 41
0.003
  0
LWPOLYLINE
  5
F8
100
AcDbEntity
  8
0
 62
     9
100
AcDbPolyline
 90
        2
 70
     0
 39
0.003
 10
-0.34161
 20
-0.86702
 40
0.003
 41
0.003
 10
0.299516
 20
-0.484433
 40
0.003
 41
0.003
  0
LWPOLYLINE
  5
F9
100
AcDbEntity
  8
0
 62
     9
100
AcDbPolyline
 90
        2
 70
     0
 39
0.003
 10
0.299516
 20
-0.484433
 40
0.003
 41
0.003
 10
0.308709
 20
-0.497315
 40
0.003
 41
0.003
  0
LWPOLYLINE
  5
FA
100
AcDbEntity
  8
0
 62
     9
100
AcDbPolyline
 90
        2
 70
     0
 39
0.003
 10
0.308709
 20
-0.497315
 40
0.003
 41
0.003
 10
-0.332417
 20
-0.879902
 40
0.003
 41
0.003
  0
LWPOLYLINE
  5
FB
100
AcDbEntity
  8
0
 62
     9
100
AcDbPolyline
 90
        2
 70
     0
 39
0.003
 10
-0.332417
 20
-0.879902
 40
0.003
 41
0.003
 10
-0.34161
 20
-0.86702
 40
0.003
 41
0.003
  0
LWPOLYLINE
  5
FC
100
AcDbEntity
  8
0
 62
     9
100
AcDbPolyline
 90
        2
 70
     0
 39
0.003
 10
-0.332417
 20
-0.879902
 40
0.003
 41
0.003
 10
0.308709
 20
-0.497315
 40
0.003
 41
0.003
  0
LWPOLYLINE
  5
FD
100
AcDbEntity
  8
0
 62
     9
100
AcDbPolyline
 90
        2
 70
     0
 39
0.003
 10
0.308709
 20
-0.497315
 40
0.003
 41
0.003
 10
0.318228
 20
-0.509421
 40
0.003
 41
0.003
  0
LWPOLYLINE
  5
FE
100
AcDbEntity
  8
0
 62
     9
100
AcDbPolyline
 90
        2
 70
     0
 39
0.003
 10
0.318228
 20
-0.509421
 40
0.003
 41
0.003
 10
-0.322898
 20
-0.892008
 40
0.003
 41
0.003
  0
LWPOLYLINE
  5
FF
100
AcDbEntity
  8
0
 62
     9
100
AcDbPolyline
 90
        2
 70
     0
 39
0.003
 10
-0.322898
 20
-0.892008
 40
0.003
 41
0.003
 10
-0.332417
 20
-0.879902
 40
0.003
 41
0.003
  0
LWPOLYLINE
  5
100
100
AcDbEntity
  8
0
 62
     9
100
AcDbPolyline
 90
        2
 70
     0
 39
0.003
 10
-0.322898
 20
-0.892008
 40
0.003
 41
0.003
 10
0.318228
 20
-0.509421
 40
0.003
 41
0.003
  0
LWPOLYLINE
  5
101
100
AcDbEntity
  8
0
 62
     9
100
AcDbPolyline
 90
        2
 70
     0
 39
0.003
 10
0.318228
 20
-0.509421
 40
0.003
 41
0.003
 10
0.328079
 20
-0.520799
 40
0.003
 41
0.003
  0
LWPOLYLINE
  5
102
100
AcDbEntity
  8
0
 62
     9
100
AcDbPolyline
 90
        2
 70
     0
 39
0.003
 10
0.328079
 20
-0.520799
 40
0.003
 41
0.003
 10
-0.313047
 20
-0.903386
 40
0.003
 41
0.003
  0
LWPOLYLINE
  5
103
100
AcDbEntity
  8
0
 62
     9
100
AcDbPolyline
 90
        2
 70
     0
 39
0.003
 10
-0.313047
 20
-0.903386
 40
0.003
 41
0.003
 10
-0.322898
 20
-0.892008
 40
0.003
 41
0.003
  0
LWPOLYLINE
  5
104
100
AcDbEntity
  8
0
 62
     9
100
AcDbPolyline
 90
        2
 70
     0
 39
0.003
 10
-0.313047
 20
-0.903386
 40
0.003
 41
0.003
 10
0.328079
 20
-0.520799
 40
0.003
 41
0.003
  0
LWPOLYLINE
  5
105
100
AcDbEntity
  8
0
 62
     9
100
AcDbPolyline
 90
        2
 70
     0
 39
0.003
 10
0.328079
 20
-0.520799
 40
0.003
 41
0.003
 10
0.338236
 20
-0.531508
 40
0.003
 41
0.003
  0
LWPOLYLINE
  5
106
100
AcDbEntity
  8
0
 62
     9
100
AcDbPolyline
 90
        2
 70
     0
 39
0.003
 10
0.338236
 20
-0.531508
 40
0.003
 41
0.003
 10
-0.30289
 20
-0.914094
 40
0.003
 41
0.003
  0
LWPOLYLINE
  5
107
100
AcDbEntity
  8
0
 62
     9
100
AcDbPolyline
 90
        2
 70
     0
 39
0.003
 10
-0.30289
 20
-0.914094
 40
0.003
 41
0.003
 10
-0.313047
 20
-0.903386
 40
0.003
 41
0.003
  0
LWPOLYLINE
  5
108
100
AcDbEntity
  8
0
 62
     9
100
AcDbPolyline
 90
        2
 70
     0
 39
0.003
 10
-0.30289
 20
-0.914094
 40
0.003
 41
0.003
 10
0.338236
 20
-0.531508
 40
0.003
 41
0.003
  0
LWPOLYLINE
  5
109
100
AcDbEntity
  8
0
 62
     9
100
AcDbPolyline
 90
        2
 70
     0
 39
0.003
 10
0.338236
 20
-0.531508
 40
0.003
 41
0.003
 10
0.348705
 20
-0.541587
 40
0.003
 41
0.003
  0
LWPOLYLINE
  5
10A
100
AcDbEntity
  8
0
 62
     9
100
AcDbPolyline
 90
        2
 70
     0
 39
0.003
 10
0.348705
 20
-0.541587
 40
0.003
 41
0.003
 10
-0.292421
 20
-0.924173
 40
0.003
 41
0.003
  0
LWPOLYLINE
  5
10B
100
AcDbEntity
  8
0
 62
     9
100
AcDbPolyline
 90
        2
 70
     0
 39
0.003
 10
-0.292421
 20
-0.924173
 40
0.003
 41
0.003
 10
-0.30289
 20
-0.914094
 40
0.003
 41
0.003
  0
LWPOLYLINE
  5
10C
100
AcDbEntity
  8
0
 62
     9
100
AcDbPolyline
 90
        2
 70
     0
 39
0.003
 10
-0.292421
 20
-0.924173
 40
0.003
 41
0.003
 10
0.348705
 20
-0.541587
 40
0.003
 41
0.003
  0
LWPOLYLINE
  5
10D
100
AcDbEntity
  8
0
 62
     9
100
AcDbPolyline
 90
        2
 70
     0
 39
0.003
 10
0.348705
 20
-0.541587
 40
0.003
 41
0.003
 10
0.359465
 20
-0.551102
 40
0.003
 41
0.003
  0
LWPOLYLINE
  5
10E
100
AcDbEntity
  8
0
 62
     9
100
AcDbPolyline
 90
        2
 70
     0
 39
0.003
 10
0.359465
 20
-0.551102
 40
0.003
 41
0.003
 10
-0.281661
 20
-0.933689
 40
0.003
 41
0.003
  0
LWPOLYLINE
  5
10F
100
AcDbEntity
  8
0
 62
     9
100
AcDbPolyline
 90
        2
 70
     0
 39
0.003
 10
-0.281661
 20
-0.933689
 40
0.003
 41
0.003
 10
-0.292421
 20
-0.924173
 40
0.003
 41
0.003
  0
LWPOLYLINE
  5
110
100
AcDbEntity
  8
0
 62
     9
100
AcDbPolyline
 90
        2
 70
     0
 39
0.003
 10
-0.281661
 20
-0.933689
 40
0.003
 41
0.003
 10
0.359465
 20
-0.551102
 40
0.003
 41
0.003
  0
LWPOLYLINE
  5
111
100
AcDbEntity
  8
0
 62
     9
100
AcDbPolyline
 90
        2
 70
     0
 39
0.003
 10
0.359465
 20
-0.551102
 40
0.003
 41
0.003
 10
0.370512
 20
-0.560102
 40
0.003
 41
0.003
  0
LWPOLYLINE
  5
112
100
AcDbEntity
  8
0
 62
     9
100
AcDbPolyline
 90
        2
 70
     0
 39
0.003
 10
0.370512
 20
-0.560102
 40
0.003
 41
0.003
 10
-0.270614
 20
-0.942689
 40
0.003
 41
0.003
  0
LWPOLYLINE
  5
113
100
AcDbEntity
  8
0
 62
     9
100
AcDbPolyline
 90
        2
 70
     0
 39
0.003
 10
-0.270614
 20
-0.942689
 40
0.003
 41
0.003
 10
-0.281661
 20
-0.933689
 40
0.003
 41
0.003
  0
LWPOLYLINE
  5
114
100
AcDbEntity
  8
0
 62
     9
100
AcDbPolyline
 90
        2
 70
     0
 39
0.003
 10
-0.270614
 20
-0.942689
 40
0.003
 41
0.003
 10
0.370512
 20
-0.560102
 40
0.003
 41
0.003
  0
LWPOLYLINE
  5
115
100
AcDbEntity
  8
0
 62
     9
100
AcDbPolyline
 90
        2
 70
     0
 39
0.003
 10
0.370512
 20
-0.560102
 40
0.003
 41
0.003
 10
0.381839
 20
-0.568642
 40
0.003
 41
0.003
  0
LWPOLYLINE
  5
116
100
AcDbEntity
  8
0
 62
     9
100
AcDbPolyline
 90
        2
 70
     0
 39
0.003
 10
0.381839
 20
-0.568642
 40
0.003
 41
0.003
 10
-0.259287
 20
-0.951228
 40
0.003
 41
0.003
  0
LWPOLYLINE
  5
117
100
AcDbEntity
  8
0
 62
     9
100
AcDbPolyline
 90
        2
 70
     0
 39
0.003
 10
-0.259287
 20
-0.951228
 40
0.003
 41
0.003
 10
-0.270614
 20
-0.942689
 40
0.003
 41
0.003
  0
LWPOLYLINE
  5
118
100
AcDbEntity
  8
0
 62
     9
100
AcDbPolyline
 90
        2
 70
     0
 39
0.003
 10
-0.259287
 20
-0.951228
 40
0.003
 41
0.003
 10
0.381839
 20
-0.568642
 40
0.003
 41
0.003
  0
LWPOLYLINE
  5
119
100
AcDbEntity
  8
0
 62
     9
100
AcDbPolyline
 90
        2
 70
     0
 39
0.003
 10
0.381839
 20
-0.568642
 40
0.003
 41
0.003
 10
0.393421
 20
-0.576764
 40
0.003
 41
0.003
  0
LWPOLYLINE
  5
11A
100
AcDbEntity
  8
0
 62
     9
100
AcDbPolyline
 90
        2
 70
     0
 39
0.003
 10
0.393421
 20
-0.576764
 40
0.003
 41
0.003
 10
-0.247705
 20
-0.95935
 40
0.003
 41
0.003
  0
LWPOLYLINE
  5
11B
100
AcDbEntity
  8
0
 62
     9
100
AcDbPolyline
 90
        2
 70
     0
 39
0.003
 10
-0.247705
 20
-0.95935
 40
0.003
 41
0.003
 10
-0.259287
 20
-0.951228
 40
0.003
 41
0.003
  0
LWPOLYLINE
  5
11C
100
AcDbEntity
  8
0
 62
     9
100
AcDbPolyline
 90
        2
 70
     0
 39
0.003
 10
-0.247705
 20
-0.95935
 40
0.003
 41
0.003
 10
0.393421
 20
-0.576764
 40
0.003
 41
0.003
  0
LWPOLYLINE
  5
11D
100
AcDbEntity
  8
0
 62
     9
100
AcDbPolyline
 90
        2
 70
     0
 39
0.003
 10
0.393421
 20
-0.576764
 40
0.003
 41
0.003
 10
0.405264
 20
-0.584535
 40
0.003
 41
0.003
  0
LWPOLYLINE
  5
11E
100
AcDbEntity
  8
0
 62
     9
100
AcDbPolyline
 90
        2
 70
     0
 39
0.003
 10
0.405264
 20
-0.584535
 40
0.003
 41
0.003
 10
-0.235862
 20
-0.967122
 40
0.003
 41
0.003
  0
LWPOLYLINE
  5
11F
100
AcDbEntity
  8
0
 62
     9
100
AcDbPolyline
 90
        2
 70
     0
 39
0.003
 10
-0.235862
 20
-0.967122
 40
0.003
 41
0.003
 10
-0.247705
 20
-0.95935
 40
0.003
 41
0.003
  0
LWPOLYLINE
  5
120
100
AcDbEntity
  8
0
 62
     9
100
AcDbPolyline
 90
        2
 70
     0
 39
0.003
 10
-0.235862
 20
-0.967122
 40
0.003
 41
0.003
 10
0.405264
 20
-0.584535
 40
0.003
 41
0.003
  0
LWPOLYLINE
  5
121
100
AcDbEntity
  8
0
 62
     9
100
AcDbPolyline
 90
        2
 70
     0
 39
0.003
 10
0.405264
 20
-0.584535
 40
0.003
 41
0.003
 10
0.417346
 20
-0.591996
 40
0.003
 41
0.003
  0
LWPOLYLINE
  5
122
100
AcDbEntity
  8
0
 62
     9
100
AcDbPolyline
 90
        2
 70
     0
 39
0.003
 10
0.417346
 20
-0.591996
 40
0.003
 41
0.003
 10
-0.22378
 20
-0.974583
 40
0.003
 41
0.003
  0
LWPOLYLINE
  5
123
100
AcDbEntity
  8
0
 62
     9
100
AcDbPolyline
 90
        2
 70
     0
 39
0.003
 10
-0.22378
 20
-0.974583
 40
0.003
 41
0.003
 10
-0.235862
 20
-0.967122
 40
0.003
 41
0.003
  0
LWPOLYLINE
  5
124
100
AcDbEntity
  8
0
 62
     9
100
AcDbPolyline
 90
        2
 70
     0
 39
0.003
 10
-0.22378
 20
-0.974583
 40
0.003
 41
0.003
 10
0.417346
 20
-0.591996
 40
0.003
 41
0.003
  0
LWPOLYLINE
  5
125
100
AcDbEntity
  8
0
 62
     9
100
AcDbPolyline
 90
        2
 70
     0
 39
0.003
 10
0.417346
 20
-0.591996
 40
0.003
 41
0.003
 10
0.429665
 20
-0.599213
 40
0.003
 41
0.003
  0
LWPOLYLINE
  5
126
100
AcDbEntity
  8
0
 62
     9
100
AcDbPolyline
 90
        2
 70
     0
 39
0.003
 10
0.429665
 20
-0.599213
 40
0.003
 41
0.003
 10
-0.211461
 20
-0.981799
 40
0.003
 41
0.003
  0
LWPOLYLINE
  5
127
100
AcDbEntity
  8
0
 62
     9
100
AcDbPolyline
 90
        2
 70
     0
 39
0.003
 10
-0.211461
 20
-0.981799
 40
0.003
 41
0.003
 10
-0.22378
 20
-0.974583
 40
0.003
 41
0.003
  0
LWPOLYLINE
  5
128
100
AcDbEntity
  8
0
 62
     9
100
AcDbPolyline
 90
        2
 70
     0
 39
0.003
 10
-0.211461
 20
-0.981799
 40
0.003
 41
0.003
 10
0.429665
 20
-0.599213
 40
0.003
 41
0.003
  0
LWPOLYLINE
  5
129
100
AcDbEntity
  8
0
 62
     9
100
AcDbPolyline
 90
        2
 70
     0
 39
0.003
 10
0.429665
 20
-0.599213
 40
0.003
 41
0.003
 10
0.441909
 20
-0.606417
 40
0.003
 41
0.003
  0
LWPOLYLINE
  5
12A
100
AcDbEntity
  8
0
 62
     9
100
AcDbPolyline
 90
        2
 70
     0
 39
0.003
 10
0.441909
 20
-0.606417
 40
0.003
 41
0.003
 10
-0.199217
 20
-0.989004
 40
0.003
 41
0.003
  0
LWPOLYLINE
  5
12B
100
AcDbEntity
  8
0
 62
     9
100
AcDbPolyline
 90
        2
 70
     0
 39
0.003
 10
-0.199217
 20
-0.989004
 40
0.003
 41
0.003
 10
-0.211461
 20
-0.981799
 40
0.003
 41
0.003
  0
LWPOLYLINE
  5
12C
100
AcDbEntity
  8
0
 62
     9
100
AcDbPolyline
 90
        2
 70
     0
 39
0.003
 10
-0.199217
 20
-0.989004
 40
0.003
 41
0.003
 10
0.441909
 20
-0.606417
 40
0.003
 41
0.003
  0
LWPOLYLINE
  5
12D
100
AcDbEntity
  8
0
 62
     9
100
AcDbPolyline
 90
        2
 70
     0
 39
0.003
 10
0.441909
 20
-0.606417
 40
0.003
 41
0.003
 10
0.453803
 20
-0.613846
 40
0.003
 41
0.003
  0
LWPOLYLINE
  5
12E
100
AcDbEntity
  8
0
 62
     9
100
AcDbPolyline
 90
        2
 70
     0
 39
0.003
 10
0.453803
 20
-0.613846
 40
0.003
 41
0.003
 10
-0.187323
 20
-0.996433
 40
0.003
 41
0.003
  0
LWPOLYLINE
  5
12F
100
AcDbEntity
  8
0
 62
     9
100
AcDbPolyline
 90
        2
 70
     0
 39
0.003
 10
-0.187323
 20
-0.996433
 40
0.003
 41
0.003
 10
-0.199217
 20
-0.989004
 40
0.003
 41
0.003
  0
LWPOLYLINE
  5
130
100
AcDbEntity
  8
0
 62
     9
100
AcDbPolyline
 90
        2
 70
     0
 39
0.003
 10
-0.187323
 20
-0.996433
 40
0.003
 41
0.003
 10
0.453803
 20
-0.613846
 40
0.003
 41
0.003
  0
LWPOLYLINE
  5
131
100
AcDbEntity
  8
0
 62
     9
100
AcDbPolyline
 90
        2
 70
     0
 39
0.003
 10
0.453803
 20
-0.613846
 40
0.003
 41
0.003
 10
0.465331
 20
-0.621472
 40
0.003
 41
0.003
  0
LWPOLYLINE
  5
132
100
AcDbEntity
  8
0
 62
     9
100
AcDbPolyline
 90
        2
 70
     0
 39
0.003
 10
0.465331
 20
-0.621472
 40
0.003
 41
0.003
 10
-0.175795
 20
-1.004059
 40
0.003
 41
0.003
  0
LWPOLYLINE
  5
133
100
AcDbEntity
  8
0
 62
     9
100
AcDbPolyline
 90
        2
 70
     0
 39
0.003
 10
-0.175795
 20
-1.004059
 40
0.003
 41
0.003
 10
-0.187323
 20
-0.996433
 40
0.003
 41
0.003
  0
LWPOLYLINE
  5
134
100
AcDbEntity
  8
0
 62
     9
100
AcDbPolyline
 90
        2
 70
     0
 39
0.003
 10
-0.175795
 20
-1.004059
 40
0.003
 41
0.003
 10
0.465331
 20
-0.621472
 40
0.003
 41
0.003
  0
LWPOLYLINE
  5
135
100
AcDbEntity
  8
0
 62
     9
100
AcDbPolyline
 90
        2
 70
     0
 39
0.003
 10
0.465331
 20
-0.621472
 40
0.003
 41
0.003
 10
0.476504
 20
-0.629303
 40
0.003
 41
0.003
  0
LWPOLYLINE
  5
136
100
AcDbEntity
  8
0
 62
     9
100
AcDbPolyline
 90
        2
 70
     0
 39
0.003
 10
0.476504
 20
-0.629303
 40
0.003
 41
0.003
 10
-0.164622
 20
-1.01189
 40
0.003
 41
0.003
  0
LWPOLYLINE
  5
137
100
AcDbEntity
  8
0
 62
     9
100
AcDbPolyline
 90
        2
 70
     0
 39
0.003
 10
-0.164622
 20
-1.01189
 40
0.003
 41
0.003
 10
-0.175795
 20
-1.004059
 40
0.003
 41
0.003
  0
LWPOLYLINE
  5
138
100
AcDbEntity
  8
0
 62
     9
100
AcDbPolyline
 90
        2
 70
     0
 39
0.003
 10
-0.164622
 20
-1.01189
 40
0.003
 41
0.003
 10
0.476504
 20
-0.629303
 40
0.003
 41
0.003
  0
LWPOLYLINE
  5
139
100
AcDbEntity
  8
0
 62
     9
100
AcDbPolyline
 90
        2
 70
     0
 39
0.003
 10
0.476504
 20
-0.629303
 40
0.003
 41
0.003
 10
0.487307
 20
-0.637303
 40
0.003
 41
0.003
  0
LWPOLYLINE
  5
13A
100
AcDbEntity
  8
0
 62
     9
100
AcDbPolyline
 90
        2
 70
     0
 39
0.003
 10
0.487307
 20
-0.637303
 40
0.003
 41
0.003
 10
-0.153819
 20
-1.01989
 40
0.003
 41
0.003
  0
LWPOLYLINE
  5
13B
100
AcDbEntity
  8
0
 62
     9
100
AcDbPolyline
 90
        2
 70
     0
 39
0.003
 10
-0.153819
 20
-1.01989
 40
0.003
 41
0.003
 10
-0.164622
 20
-1.01189
 40
0.003
 41
0.003
  0
LWPOLYLINE
  5
13C
100
AcDbEntity
  8
0
 62
     9
100
AcDbPolyline
 90
        2
 70
     0
 39
0.003
 10
-0.153819
 20
-1.01989
 40
0.003
 41
0.003
 10
0.487307
 20
-0.637303
 40
0.003
 41
0.003
  0
LWPOLYLINE
  5
13D
100
AcDbEntity
  8
0
 62
     9
100
AcDbPolyline
 90
        2
 70
     0
 39
0.003
 10
0.487307
 20
-0.637303
 40
0.003
 41
0.003
 10
0.497752
 20
-0.645484
 40
0.003
 41
0.003
  0
LWPOLYLINE
  5
13E
100
AcDbEntity
  8
0
 62
     9
100
AcDbPolyline
 90
        2
 70
     0
 39
0.003
 10
0.497752
 20
-0.645484
 40
0.003
 41
0.003
 10
-0.143374
 20
-1.028071
 40
0.003
 41
0.003
  0
LWPOLYLINE
  5
13F
100
AcDbEntity
  8
0
 62
     9
100
AcDbPolyline
 90
        2
 70
     0
 39
0.003
 10
-0.143374
 20
-1.028071
 40
0.003
 41
0.003
 10
-0.153819
 20
-1.01989
 40
0.003
 41
0.003
  0
LWPOLYLINE
  5
140
100
AcDbEntity
  8
0
 62
     9
100
AcDbPolyline
 90
        2
 70
     0
 39
0.003
 10
-0.143374
 20
-1.028071
 40
0.003
 41
0.003
 10
0.497752
 20
-0.645484
 40
0.003
 41
0.003
  0
LWPOLYLINE
  5
141
100
AcDbEntity
  8
0
 62
     9
100
AcDbPolyline
 90
        2
 70
     0
 39
0.003
 10
0.497752
 20
-0.645484
 40
0.003
 41
0.003
 10
0.507823
 20
-0.653823
 40
0.003
 41
0.003
  0
LWPOLYLINE
  5
142
100
AcDbEntity
  8
0
 62
     9
100
AcDbPolyline
 90
        2
 70
     0
 39
0.003
 10
0.507823
 20
-0.653823
 40
0.003
 41
0.003
 10
-0.133303
 20
-1.036409
 40
0.003
 41
0.003
  0
LWPOLYLINE
  5
143
100
AcDbEntity
  8
0
 62
     9
100
AcDbPolyline
 90
        2
 70
     0
 39
0.003
 10
-0.133303
 20
-1.036409
 40
0.003
 41
0.003
 10
-0.143374
 20
-1.028071
 40
0.003
 41
0.003
  0
LWPOLYLINE
  5
144
100
AcDbEntity
  8
0
 62
     9
100
AcDbPolyline
 90
        2
 70
     0
 39
0.003
 10
-0.133303
 20
-1.036409
 40
0.003
 41
0.003
 10
0.507823
 20
-0.653823
 40
0.003
 41
0.003
  0
LWPOLYLINE
  5
145
100
AcDbEntity
  8
0
 62
     9
100
AcDbPolyline
 90
        2
 70
     0
 39
0.003
 10
0.507823
 20
-0.653823
 40
0.003
 41
0.003
 10
0.517531
 20
-0.662319
 40
0.003
 41
0.003
  0
LWPOLYLINE
  5
146
100
AcDbEntity
  8
0
 62
     9
100
AcDbPolyline
 90
        2
 70
     0
 39
0.003
 10
0.517531
 20
-0.662319
 40
0.003
 41
0.003
 10
-0.123594
 20
-1.044906
 40
0.003
 41
0.003
  0
LWPOLYLINE
  5
147
100
AcDbEntity
  8
0
 62
     9
100
AcDbPolyline
 90
        2
 70
     0
 39
0.003
 10
-0.123594
 20
-1.044906
 40
0.003
 41
0.003
 10
-0.133303
 20
-1.036409
 40
0.003
 41
0.003
  0
LWPOLYLINE
  5
148
100
AcDbEntity
  8
0
 62
     9
100
AcDbPolyline
 90
        2
 70
     0
 39
0.003
 10
-0.123594
 20
-1.044906
 40
0.003
 41
0.003
 10
0.517531
 20
-0.662319
 40
0.003
 41
0.003
  0
LWPOLYLINE
  5
149
100
AcDbEntity
  8
0
 62
     9
100
AcDbPolyline
 90
        2
 70
     0
 39
0.003
 10
0.517531
 20
-0.662319
 40
0.003
 41
0.003
 10
0.526862
 20
-0.670941
 40
0.003
 41
0.003
  0
LWPOLYLINE
  5
14A
100
AcDbEntity
  8
0
 62
     9
100
AcDbPolyline
 90
        2
 70
     0
 39
0.003
 10
0.526862
 20
-0.670941
 40
0.003
 41
0.003
 10
-0.114264
 20
-1.053528
 40
0.003
 41
0.003
  0
LWPOLYLINE
  5
14B
100
AcDbEntity
  8
0
 62
     9
100
AcDbPolyline
 90
        2
 70
     0
 39
0.003
 10
-0.114264
 20
-1.053528
 40
0.003
 41
0.003
 10
-0.123594
 20
-1.044906
 40
0.003
 41
0.003
  0
LWPOLYLINE
  5
14C
100
AcDbEntity
  8
0
 62
     9
100
AcDbPolyline
 90
        2
 70
     0
 39
0.003
 10
-0.114264
 20
-1.053528
 40
0.003
 41
0.003
 10
0.526862
 20
-0.670941
 40
0.003
 41
0.003
  0
LWPOLYLINE
  5
14D
100
AcDbEntity
  8
0
 62
     9
100
AcDbPolyline
 90
        2
 70
     0
 39
0.003
 10
0.526862
 20
-0.670941
 40
0.003
 41
0.003
 10
0.535823
 20
-0.679701
 40
0.003
 41
0.003
  0
LWPOLYLINE
  5
14E
100
AcDbEntity
  8
0
 62
     9
100
AcDbPolyline
 90
        2
 70
     0
 39
0.003
 10
0.535823
 20
-0.679701
 40
0.003
 41
0.003
 10
-0.105303
 20
-1.062287
 40
0.003
 41
0.003
  0
LWPOLYLINE
  5
14F
100
AcDbEntity
  8
0
 62
     9
100
AcDbPolyline
 90
        2
 70
     0
 39
0.003
 10
-0.105303
 20
-1.062287
 40
0.003
 41
0.003
 10
-0.114264
 20
-1.053528
 40
0.003
 41
0.003
  0
LWPOLYLINE
  5
150
100
AcDbEntity
  8
0
 62
     9
100
AcDbPolyline
 90
        2
 70
     0
 39
0.003
 10
-0.105303
 20
-1.062287
 40
0.003
 41
0.003
 10
0.535823
 20
-0.679701
 40
0.003
 41
0.003
  0
LWPOLYLINE
  5
151
100
AcDbEntity
  8
0
 62
     9
100
AcDbPolyline
 90
        2
 70
     0
 39
0.003
 10
0.535823
 20
-0.679701
 40
0.003
 41
0.003
 10
0.544402
 20
-0.688575
 40
0.003
 41
0.003
  0
LWPOLYLINE
  5
152
100
AcDbEntity
  8
0
 62
     9
100
AcDbPolyline
 90
        2
 70
     0
 39
0.003
 10
0.544402
 20
-0.688575
 40
0.003
 41
0.003
 10
-0.096724
 20
-1.071161
 40
0.003
 41
0.003
  0
LWPOLYLINE
  5
153
100
AcDbEntity
  8
0
 62
     9
100
AcDbPolyline
 90
        2
 70
     0
 39
0.003
 10
-0.096724
 20
-1.071161
 40
0.003
 41
0.003
 10
-0.105303
 20
-1.062287
 40
0.003
 41
0.003
  0
LWPOLYLINE
  5
154
100
AcDbEntity
  8
0
 62
     9
100
AcDbPolyline
 90
        2
 70
     0
 39
0.003
 10
-0.096724
 20
-1.071161
 40
0.003
 41
0.003
 10
0.544402
 20
-0.688575
 40
0.003
 41
0.003
  0
LWPOLYLINE
  5
155
100
AcDbEntity
  8
0
 62
     9
100
AcDbPolyline
 90
        2
 70
     0
 39
0.003
 10
0.544402
 20
-0.688575
 40
0.003
 41
0.003
 10
0.55261
 20
-0.697563
 40
0.003
 41
0.003
  0
LWPOLYLINE
  5
156
100
AcDbEntity
  8
0
 62
     9
100
AcDbPolyline
 90
        2
 70
     0
 39
0.003
 10
0.55261
 20
-0.697563
 40
0.003
 41
0.003
 10
-0.088516
 20
-1.08015
 40
0.003
 41
0.003
  0
LWPOLYLINE
  5
157
100
AcDbEntity
  8
0
 62
     9
100
AcDbPolyline
 90
        2
 70
     0
 39
0.003
 10
-0.088516
 20
-1.08015
 40
0.003
 41
0.003
 10
-0.096724
 20
-1.071161
 40
0.003
 41
0.003
  0
LWPOLYLINE
  5
158
100
AcDbEntity
  8
0
 62
     9
100
AcDbPolyline
 90
        2
 70
     0
 39
0.003
 10
-0.088516
 20
-1.08015
 40
0.003
 41
0.003
 10
0.55261
 20
-0.697563
 40
0.003
 41
0.003
  0
LWPOLYLINE
  5
159
100
AcDbEntity
  8
0
 62
     9
100
AcDbPolyline
 90
        2
 70
     0
 39
0.003
 10
0.55261
 20
-0.697563
 40
0.003
 41
0.003
 10
0.560429
 20
-0.706642
 40
0.003
 41
0.003
  0
LWPOLYLINE
  5
15A
100
AcDbEntity
  8
0
 62
     9
100
AcDbPolyline
 90
        2
 70
     0
 39
0.003
 10
0.560429
 20
-0.706642
 40
0.003
 41
0.003
 10
-0.080697
 20
-1.089228
 40
0.003
 41
0.003
  0
LWPOLYLINE
  5
15B
100
AcDbEntity
  8
0
 62
     9
100
AcDbPolyline
 90
        2
 70
     0
 39
0.003
 10
-0.080697
 20
-1.089228
 40
0.003
 41
0.003
 10
-0.088516
 20
-1.08015
 40
0.003
 41
0.003
  0
LWPOLYLINE
  5
15C
100
AcDbEntity
  8
0
 62
     9
100
AcDbPolyline
 90
        2
 70
     0
 39
0.003
 10
-0.080697
 20
-1.089228
 40
0.003
 41
0.003
 10
0.560429
 20
-0.706642
 40
0.003
 41
0.003
  0
LWPOLYLINE
  5
15D
100
AcDbEntity
  8
0
 62
     9
100
AcDbPolyline
 90
        2
 70
     0
 39
0.003
 10
0.560429
 20
-0.706642
 40
0.003
 41
0.003
 10
0.567878
 20
-0.715811
 40
0.003
 41
0.003
  0
LWPOLYLINE
  5
15E
100
AcDbEntity
  8
0
 62
     9
100
AcDbPolyline
 90
        2
 70
     0
 39
0.003
 10
0.567878
 20
-0.715811
 40
0.003
 41
0.003
 10
-0.073248
 20
-1.098398
 40
0.003
 41
0.003
  0
LWPOLYLINE
  5
15F
100
AcDbEntity
  8
0
 62
     9
100
AcDbPolyline
 90
        2
 70
     0
 39
0.003
 10
-0.073248
 20
-1.098398
 40
0.003
 41
0.003
 10
-0.080697
 20
-1.089228
 40
0.003
 41
0.003
  0
LWPOLYLINE
  5
160
100
AcDbEntity
  8
0
 62
     9
100
AcDbPolyline
 90
        2
 70
     0
 39
0.003
 10
-0.073248
 20
-1.098398
 40
0.003
 41
0.003
 10
0.567878
 20
-0.715811
 40
0.003
 41
0.003
  0
LWPOLYLINE
  5
161
100
AcDbEntity
  8
0
 62
     9
100
AcDbPolyline
 90
        2
 70
     0
 39
0.003
 10
0.567878
 20
-0.715811
 40
0.003
 41
0.003
 10
0.574933
 20
-0.725051
 40
0.003
 41
0.003
  0
LWPOLYLINE
  5
162
100
AcDbEntity
  8
0
 62
     9
100
AcDbPolyline
 90
        2
 70
     0
 39
0.003
 10
0.574933
 20
-0.725051
 40
0.003
 41
0.003
 10
-0.066193
 20
-1.107638
 40
0.003
 41
0.003
  0
LWPOLYLINE
  5
163
100
AcDbEntity
  8
0
 62
     9
100
AcDbPolyline
 90
        2
 70
     0
 39
0.003
 10
-0.066193
 20
-1.107638
 40
0.003
 41
0.003
 10
-0.073248
 20
-1.098398
 40
0.003
 41
0.003
  0
LWPOLYLINE
  5
164
100
AcDbEntity
  8
0
 62
     9
100
AcDbPolyline
 90
        2
 70
     0
 39
0.003
 10
-0.066193
 20
-1.107638
 40
0.003
 41
0.003
 10
0.574933
 20
-0.725051
 40
0.003
 41
0.003
  0
LWPOLYLINE
  5
165
100
AcDbEntity
  8
0
 62
     9
100
AcDbPolyline
 90
        2
 70
     0
 39
0.003
 10
0.574933
 20
-0.725051
 40
0.003
 41
0.003
 10
0.58161
 20
-0.734362
 40
0.003
 41
0.003
  0
LWPOLYLINE
  5
166
100
AcDbEntity
  8
0
 62
     9
100
AcDbPolyline
 90
        2
 70
     0
 39
0.003
 10
0.58161
 20
-0.734362
 40
0.003
 41
0.003
 10
-0.059516
 20
-1.116949
 40
0.003
 41
0.003
  0
LWPOLYLINE
  5
167
100
AcDbEntity
  8
0
 62
     9
100
AcDbPolyline
 90
        2
 70
     0
 39
0.003
 10
-0.059516
 20
-1.116949
 40
0.003
 41
0.003
 10
-0.066193
 20
-1.107638
 40
0.003
 41
0.003
  0
LWPOLYLINE
  5
168
100
AcDbEntity
  8
0
 62
     9
100
AcDbPolyline
 90
        2
 70
     0
 39
0.003
 10
-0.059516
 20
-1.116949
 40
0.003
 41
0.003
 10
0.58161
 20
-0.734362
 40
0.003
 41
0.003
  0
LWPOLYLINE
  5
169
100
AcDbEntity
  8
0
 62
     9
100
AcDbPolyline
 90
        2
 70
     0
 39
0.003
 10
0.58161
 20
-0.734362
 40
0.003
 41
0.003
 10
0.58789
 20
-0.743717
 40
0.003
 41
0.003
  0
LWPOLYLINE
  5
16A
100
AcDbEntity
  8
0
 62
     9
100
AcDbPolyline
 90
        2
 70
     0
 39
0.003
 10
0.58789
 20
-0.743717
 40
0.003
 41
0.003
 10
-0.053236
 20
-1.126303
 40
0.003
 41
0.003
  0
LWPOLYLINE
  5
16B
100
AcDbEntity
  8
0
 62
     9
100
AcDbPolyline
 90
        2
 70
     0
 39
0.003
 10
-0.053236
 20
-1.126303
 40
0.003
 41
0.003
 10
-0.059516
 20
-1.116949
 40
0.003
 41
0.003
  0
LWPOLYLINE
  5
16C
100
AcDbEntity
  8
0
 62
     9
100
AcDbPolyline
 90
        2
 70
     0
 39
0.003
 10
-0.053236
 20
-1.126303
 40
0.003
 41
0.003
 10
0.58789
 20
-0.743717
 40
0.003
 41
0.003
  0
LWPOLYLINE
  5
16D
100
AcDbEntity
  8
0
 62
     9
100
AcDbPolyline
 90
        2
 70
     0
 39
0.003
 10
0.58789
 20
-0.743717
 40
0.003
 41
0.003
 10
0.593783
 20
-0.753122
 40
0.003
 41
0.003
  0
LWPOLYLINE
  5
16E
100
AcDbEntity
  8
0
 62
     9
100
AcDbPolyline
 90
        2
 70
     0
 39
0.003
 10
0.593783
 20
-0.753122
 40
0.003
 41
0.003
 10
-0.047343
 20
-1.135709
 40
0.003
 41
0.003
  0
LWPOLYLINE
  5
16F
100
AcDbEntity
  8
0
 62
     9
100
AcDbPolyline
 90
        2
 70
     0
 39
0.003
 10
-0.047343
 20
-1.135709
 40
0.003
 41
0.003
 10
-0.053236
 20
-1.126303
 40
0.003
 41
0.003
  0
LWPOLYLINE
  5
170
100
AcDbEntity
  8
0
 62
     9
100
AcDbPolyline
 90
        2
 70
     0
 39
0.003
 10
-0.047343
 20
-1.135709
 40
0.003
 41
0.003
 10
0.593783
 20
-0.753122
 40
0.003
 41
0.003
  0
LWPOLYLINE
  5
171
100
AcDbEntity
  8
0
 62
     9
100
AcDbPolyline
 90
        2
 70
     0
 39
0.003
 10
0.593783
 20
-0.753122
 40
0.003
 41
0.003
 10
0.599283
 20
-0.762555
 40
0.003
 41
0.003
  0
LWPOLYLINE
  5
172
100
AcDbEntity
  8
0
 62
     9
100
AcDbPolyline
 90
        2
 70
     0
 39
0.003
 10
0.599283
 20
-0.762555
 40
0.003
 41
0.003
 10
-0.041843
 20
-1.145142
 40
0.003
 41
0.003
  0
LWPOLYLINE
  5
173
100
AcDbEntity
  8
0
 62
     9
100
AcDbPolyline
 90
        2
 70
     0
 39
0.003
 10
-0.041843
 20
-1.145142
 40
0.003
 41
0.003
 10
-0.047343
 20
-1.135709
 40
0.003
 41
0.003
  0
LWPOLYLINE
  5
174
100
AcDbEntity
  8
0
 62
     9
100
AcDbPolyline
 90
        2
 70
     0
 39
0.003
 10
-0.041843
 20
-1.145142
 40
0.003
 41
0.003
 10
0.599283
 20
-0.762555
 40
0.003
 41
0.003
  0
LWPOLYLINE
  5
175
100
AcDbEntity
  8
0
 62
     9
100
AcDbPolyline
 90
        2
 70
     0
 39
0.003
 10
0.599283
 20
-0.762555
 40
0.003
 41
0.003
 10
0.604394
 20
-0.772016
 40
0.003
 41
0.003
  0
LWPOLYLINE
  5
176
100
AcDbEntity
  8
0
 62
     9
100
AcDbPolyline
 90
        2
 70
     0
 39
0.003
 10
0.604394
 20
-0.772016
 40
0.003
 41
0.003
 10
-0.036732
 20
-1.154602
 40
0.003
 41
0.003
  0
LWPOLYLINE
  5
177
100
AcDbEntity
  8
0
 62
     9
100
AcDbPolyline
 90
        2
 70
     0
 39
0.003
 10
-0.036732
 20
-1.154602
 40
0.003
 41
0.003
 10
-0.041843
 20
-1.145142
 40
0.003
 41
0.003
  0
LWPOLYLINE
  5
178
100
AcDbEntity
  8
0
 62
     9
100
AcDbPolyline
 90
        2
 70
     0
 39
0.003
 10
-0.036732
 20
-1.154602
 40
0.003
 41
0.003
 10
0.604394
 20
-0.772016
 40
0.003
 41
0.003
  0
LWPOLYLINE
  5
179
100
AcDbEntity
  8
0
 62
     9
100
AcDbPolyline
 90
        2
 70
     0
 39
0.003
 10
0.604394
 20
-0.772016
 40
0.003
 41
0.003
 10
0.609102
 20
-0.781476
 40
0.003
 41
0.003
  0
LWPOLYLINE
  5
17A
100
AcDbEntity
  8
0
 62
     9
100
AcDbPolyline
 90
        2
 70
     0
 39
0.003
 10
0.609102
 20
-0.781476
 40
0.003
 41
0.003
 10
-0.032024
 20
-1.164063
 40
0.003
 41
0.003
  0
LWPOLYLINE
  5
17B
100
AcDbEntity
  8
0
 62
     9
100
AcDbPolyline
 90
        2
 70
     0
 39
0.003
 10
-0.032024
 20
-1.164063
 40
0.003
 41
0.003
 10
-0.036732
 20
-1.154602
 40
0.003
 41
0.003
  0
LWPOLYLINE
  5
17C
100
AcDbEntity
  8
0
 62
     9
100
AcDbPolyline
 90
        2
 70
     0
 39
0.003
 10
-0.032024
 20
-1.164063
 40
0.003
 41
0.003
 10
0.609102
 20
-0.781476
 40
0.003
 41
0.003
  0
LWPOLYLINE
  5
17D
100
AcDbEntity
  8
0
 62
     9
100
AcDbPolyline
 90
        2
 70
     0
 39
0.003
 10
0.609102
 20
-0.781476
 40
0.003
 41
0.003
 10
0.613417
 20
-0.790945
 40
0.003
 41
0.003
  0
LWPOLYLINE
  5
17E
100
AcDbEntity
  8
0
 62
     9
100
AcDbPolyline
 90
        2
 70
     0
 39
0.003
 10
0.613417
 20
-0.790945
 40
0.003
 41
0.003
 10
-0.027709
 20
-1.173531
 40
0.003
 41
0.003
  0
LWPOLYLINE
  5
17F
100
AcDbEntity
  8
0
 62
     9
100
AcDbPolyline
 90
        2
 70
     0
 39
0.003
 10
-0.027709
 20
-1.173531
 40
0.003
 41
0.003
 10
-0.032024
 20
-1.164063
 40
0.003
 41
0.003
  0
LWPOLYLINE
  5
180
100
AcDbEntity
  8
0
 62
     9
100
AcDbPolyline
 90
        2
 70
     0
 39
0.003
 10
-0.027709
 20
-1.173531
 40
0.003
 41
0.003
 10
0.613417
 20
-0.790945
 40
0.003
 41
0.003
  0
LWPOLYLINE
  5
181
100
AcDbEntity
  8
0
 62
     9
100
AcDbPolyline
 90
        2
 70
     0
 39
0.003
 10
0.613417
 20
-0.790945
 40
0.003
 41
0.003
 10
0.617327
 20
-0.800402
 40
0.003
 41
0.003
  0
LWPOLYLINE
  5
182
100
AcDbEntity
  8
0
 62
     9
100
AcDbPolyline
 90
        2
 70
     0
 39
0.003
 10
0.617327
 20
-0.800402
 40
0.003
 41
0.003
 10
-0.023799
 20
-1.182988
 40
0.003
 41
0.003
  0
LWPOLYLINE
  5
183
100
AcDbEntity
  8
0
 62
     9
100
AcDbPolyline
 90
        2
 70
     0
 39
0.003
 10
-0.023799
 20
-1.182988
 40
0.003
 41
0.003
 10
-0.027709
 20
-1.173531
 40
0.003
 41
0.003
  0
LWPOLYLINE
  5
184
100
AcDbEntity
  8
0
 62
     9
100
AcDbPolyline
 90
        2
 70
     0
 39
0.003
 10
-0.023799
 20
-1.182988
 40
0.003
 41
0.003
 10
0.617327
 20
-0.800402
 40
0.003
 41
0.003
  0
LWPOLYLINE
  5
185
100
AcDbEntity
  8
0
 62
     9
100
AcDbPolyline
 90
        2
 70
     0
 39
0.003
 10
0.617327
 20
-0.800402
 40
0.003
 41
0.003
 10
0.620843
 20
-0.809843
 40
0.003
 41
0.003
  0
LWPOLYLINE
  5
186
100
AcDbEntity
  8
0
 62
     9
100
AcDbPolyline
 90
        2
 70
     0
 39
0.003
 10
0.620843
 20
-0.809843
 40
0.003
 41
0.003
 10
-0.020283
 20
-1.192429
 40
0.003
 41
0.003
  0
LWPOLYLINE
  5
187
100
AcDbEntity
  8
0
 62
     9
100
AcDbPolyline
 90
        2
 70
     0
 39
0.003
 10
-0.020283
 20
-1.192429
 40
0.003
 41
0.003
 10
-0.023799
 20
-1.182988
 40
0.003
 41
0.003
  0
LWPOLYLINE
  5
188
100
AcDbEntity
  8
0
 62
     9
100
AcDbPolyline
 90
        2
 70
     0
 39
0.003
 10
-0.020283
 20
-1.192429
 40
0.003
 41
0.003
 10
0.620843
 20
-0.809843
 40
0.003
 41
0.003
  0
LWPOLYLINE
  5
189
100
AcDbEntity
  8
0
 62
     9
100
AcDbPolyline
 90
        2
 70
     0
 39
0.003
 10
0.620843
 20
-0.809843
 40
0.003
 41
0.003
 10
0.623941
 20
-0.81924
 40
0.003
 41
0.003
  0
LWPOLYLINE
  5
18A
100
AcDbEntity
  8
0
 62
     9
100
AcDbPolyline
 90
        2
 70
     0
 39
0.003
 10
0.623941
 20
-0.81924
 40
0.003
 41
0.003
 10
-0.017185
 20
-1.201827
 40
0.003
 41
0.003
  0
LWPOLYLINE
  5
18B
100
AcDbEntity
  8
0
 62
     9
100
AcDbPolyline
 90
        2
 70
     0
 39
0.003
 10
-0.017185
 20
-1.201827
 40
0.003
 41
0.003
 10
-0.020283
 20
-1.192429
 40
0.003
 41
0.003
  0
LWPOLYLINE
  5
18C
100
AcDbEntity
  8
0
 62
     9
100
AcDbPolyline
 90
        2
 70
     0
 39
0.003
 10
-0.017185
 20
-1.201827
 40
0.003
 41
0.003
 10
0.623941
 20
-0.81924
 40
0.003
 41
0.003
  0
LWPOLYLINE
  5
18D
100
AcDbEntity
  8
0
 62
     9
100
AcDbPolyline
 90
        2
 70
     0
 39
0.003
 10
0.623941
 20
-0.81924
 40
0.003
 41
0.003
 10
0.626642
 20
-0.828606
 40
0.003
 41
0.003
  0
LWPOLYLINE
  5
18E
100
AcDbEntity
  8
0
 62
     9
100
AcDbPolyline
 90
        2
 70
     0
 39
0.003
 10
0.626642
 20
-0.828606
 40
0.003
 41
0.003
 10
-0.014484
 20
-1.211193
 40
0.003
 41
0.003
  0
LWPOLYLINE
  5
18F
100
AcDbEntity
  8
0
 62
     9
100
AcDbPolyline
 90
        2
 70
     0
 39
0.003
 10
-0.014484
 20
-1.211193
 40
0.003
 41
0.003
 10
-0.017185
 20
-1.201827
 40
0.003
 41
0.003
  0
LWPOLYLINE
  5
190
100
AcDbEntity
  8
0
 62
     9
100
AcDbPolyline
 90
        2
 70
     0
 39
0.003
 10
-0.014484
 20
-1.211193
 40
0.003
 41
0.003
 10
0.626642
 20
-0.828606
 40
0.003
 41
0.003
  0
LWPOLYLINE
  5
191
100
AcDbEntity
  8
0
 62
     9
100
AcDbPolyline
 90
        2
 70
     0
 39
0.003
 10
0.626642
 20
-0.828606
 40
0.003
 41
0.003
 10
0.628929
 20
-0.837909
 40
0.003
 41
0.003
  0
LWPOLYLINE
  5
192
100
AcDbEntity
  8
0
 62
     9
100
AcDbPolyline
 90
        2
 70
     0
 39
0.003
 10
0.628929
 20
-0.837909
 40
0.003
 41
0.003
 10
-0.012197
 20
-1.220496
 40
0.003
 41
0.003
  0
LWPOLYLINE
  5
193
100
AcDbEntity
  8
0
 62
     9
100
AcDbPolyline
 90
        2
 70
     0
 39
0.003
 10
-0.012197
 20
-1.220496
 40
0.003
 41
0.003
 10
-0.014484
 20
-1.211193
 40
0.003
 41
0.003
  0
LWPOLYLINE
  5
194
100
AcDbEntity
  8
0
 62
     9
100
AcDbPolyline
 90
        2
 70
     0
 39
0.003
 10
-0.012197
 20
-1.220496
 40
0.003
 41
0.003
 10
0.628929
 20
-0.837909
 40
0.003
 41
0.003
  0
LWPOLYLINE
  5
195
100
AcDbEntity
  8
0
 62
     9
100
AcDbPolyline
 90
        2
 70
     0
 39
0.003
 10
0.628929
 20
-0.837909
 40
0.003
 41
0.003
 10
0.630815
 20
-0.847157
 40
0.003
 41
0.003
  0
LWPOLYLINE
  5
196
100
AcDbEntity
  8
0
 62
     9
100
AcDbPolyline
 90
        2
 70
     0
 39
0.003
 10
0.630815
 20
-0.847157
 40
0.003
 41
0.003
 10
-0.010311
 20
-1.229744
 40
0.003
 41
0.003
  0
LWPOLYLINE
  5
197
100
AcDbEntity
  8
0
 62
     9
100
AcDbPolyline
 90
        2
 70
     0
 39
0.003
 10
-0.010311
 20
-1.229744
 40
0.003
 41
0.003
 10
-0.012197
 20
-1.220496
 40
0.003
 41
0.003
  0
LWPOLYLINE
  5
198
100
AcDbEntity
  8
0
 62
     9
100
AcDbPolyline
 90
        2
 70
     0
 39
0.003
 10
-0.010311
 20
-1.229744
 40
0.003
 41
0.003
 10
0.630815
 20
-0.847157
 40
0.003
 41
0.003
  0
LWPOLYLINE
  5
199
100
AcDbEntity
  8
0
 62
     9
100
AcDbPolyline
 90
        2
 70
     0
 39
0.003
 10
0.630815
 20
-0.847157
 40
0.003
 41
0.003
 10
0.632276
 20
-0.856319
 40
0.003
 41
0.003
  0
LWPOLYLINE
  5
19A
100
AcDbEntity
  8
0
 62
     9
100
AcDbPolyline
 90
        2
 70
     0
 39
0.003
 10
0.632276
 20
-0.856319
 40
0.003
 41
0.003
 10
-0.00885
 20
-1.238906
 40
0.003
 41
0.003
  0
LWPOLYLINE
  5
19B
100
AcDbEntity
  8
0
 62
     9
100
AcDbPolyline
 90
        2
 70
     0
 39
0.003
 10
-0.00885
 20
-1.238906
 40
0.003
 41
0.003
 10
-0.010311
 20
-1.229744
 40
0.003
 41
0.003
  0
LWPOLYLINE
  5
19C
100
AcDbEntity
  8
0
 62
     9
100
AcDbPolyline
 90
        2
 70
     0
 39
0.003
 10
-0.00885
 20
-1.238906
 40
0.003
 41
0.003
 10
0.632276
 20
-0.856319
 40
0.003
 41
0.003
  0
LWPOLYLINE
  5
19D
100
AcDbEntity
  8
0
 62
     9
100
AcDbPolyline
 90
        2
 70
     0
 39
0.003
 10
0.632276
 20
-0.856319
 40
0.003
 41
0.003
 10
0.633331
 20
-0.865402
 40
0.003
 41
0.003
  0
LWPOLYLINE
  5
19E
100
AcDbEntity
  8
0
 62
     9
100
AcDbPolyline
 90
        2
 70
     0
 39
0.003
 10
0.633331
 20
-0.865402
 40
0.003
 41
0.003
 10
-0.007795
 20
-1.247988
 40
0.003
 41
0.003
  0
LWPOLYLINE
  5
19F
100
AcDbEntity
  8
0
 62
     9
100
AcDbPolyline
 90
        2
 70
     0
 39
0.003
 10
-0.007795
 20
-1.247988
 40
0.003
 41
0.003
 10
-0.00885
 20
-1.238906
 40
0.003
 41
0.003
  0
LWPOLYLINE
  5
1A0
100
AcDbEntity
  8
0
 62
     9
100
AcDbPolyline
 90
        2
 70
     0
 39
0.003
 10
-0.007795
 20
-1.247988
 40
0.003
 41
0.003
 10
0.633331
 20
-0.865402
 40
0.003
 41
0.003
  0
LWPOLYLINE
  5
1A1
100
AcDbEntity
  8
0
 62
     9
100
AcDbPolyline
 90
        2
 70
     0
 39
0.003
 10
0.633331
 20
-0.865402
 40
0.003
 41
0.003
 10
0.633965
 20
-0.874386
 40
0.003
 41
0.003
  0
LWPOLYLINE
  5
1A2
100
AcDbEntity
  8
0
 62
     9
100
AcDbPolyline
 90
        2
 70
     0
 39
0.003
 10
0.633965
 20
-0.874386
 40
0.003
 41
0.003
 10
-0.007161
 20
-1.256972
 40
0.003
 41
0.003
  0
LWPOLYLINE
  5
1A3
100
AcDbEntity
  8
0
 62
     9
100
AcDbPolyline
 90
        2
 70
     0
 39
0.003
 10
-0.007161
 20
-1.256972
 40
0.003
 41
0.003
 10
-0.007795
 20
-1.247988
 40
0.003
 41
0.003
  0
LWPOLYLINE
  5
1A4
100
AcDbEntity
  8
0
 62
     9
100
AcDbPolyline
 90
        2
 70
     0
 39
0.003
 10
-0.007161
 20
-1.256972
 40
0.003
 41
0.003
 10
0.633965
 20
-0.874386
 40
0.003
 41
0.003
  0
LWPOLYLINE
  5
1A5
100
AcDbEntity
  8
0
 62
     9
100
AcDbPolyline
 90
        2
 70
     0
 39
0.003
 10
0.633965
 20
-0.874386
 40
0.003
 41
0.003
 10
0.634185
 20
-0.883268
 40
0.003
 41
0.003
  0
LWPOLYLINE
  5
1A6
100
AcDbEntity
  8
0
 62
     9
100
AcDbPolyline
 90
        2
 70
     0
 39
0.003
 10
0.634185
 20
-0.883268
 40
0.003
 41
0.003
 10
-0.006941
 20
-1.265854
 40
0.003
 41
0.003
  0
LWPOLYLINE
  5
1A7
100
AcDbEntity
  8
0
 62
     9
100
AcDbPolyline
 90
        2
 70
     0
 39
0.003
 10
-0.006941
 20
-1.265854
 40
0.003
 41
0.003
 10
-0.007161
 20
-1.256972
 40
0.003
 41
0.003
  0
LWPOLYLINE
  5
1A8
100
AcDbEntity
  8
0
 62
     9
100
AcDbPolyline
 90
        2
 70
     0
 39
0.003
 10
-0.006941
 20
-1.265854
 40
0.003
 41
0.003
 10
0.634185
 20
-0.883268
 40
0.003
 41
0.003
  0
LWPOLYLINE
  5
1A9
100
AcDbEntity
  8
0
 62
     9
100
AcDbPolyline
 90
        2
 70
     0
 39
0.003
 10
0.634185
 20
-0.883268
 40
0.003
 41
0.003
 10
0.634079
 20
-0.891913
 40
0.003
 41
0.003
  0
LWPOLYLINE
  5
1AA
100
AcDbEntity
  8
0
 62
     9
100
AcDbPolyline
 90
        2
 70
     0
 39
0.003
 10
0.634079
 20
-0.891913
 40
0.003
 41
0.003
 10
-0.007047
 20
-1.2745
 40
0.003
 41
0.003
  0
LWPOLYLINE
  5
1AB
100
AcDbEntity
  8
0
 62
     9
100
AcDbPolyline
 90
        2
 70
     0
 39
0.003
 10
-0.007047
 20
-1.2745
 40
0.003
 41
0.003
 10
-0.006941
 20
-1.265854
 40
0.003
 41
0.003
  0
LWPOLYLINE
  5
1AC
100
AcDbEntity
  8
0
 62
     9
100
AcDbPolyline
 90
        2
 70
     0
 39
0.003
 10
-0.007047
 20
-1.2745
 40
0.003
 41
0.003
 10
0.634079
 20
-0.891913
 40
0.003
 41
0.003
  0
LWPOLYLINE
  5
1AD
100
AcDbEntity
  8
0
 62
     9
100
AcDbPolyline
 90
        2
 70
     0
 39
0.003
 10
0.634079
 20
-0.891913
 40
0.003
 41
0.003
 10
0.633776
 20
-0.900228
 40
0.003
 41
0.003
  0
LWPOLYLINE
  5
1AE
100
AcDbEntity
  8
0
 62
     9
100
AcDbPolyline
 90
        2
 70
     0
 39
0.003
 10
0.633776
 20
-0.900228
 40
0.003
 41
0.003
 10
-0.00735
 20
-1.282815
 40
0.003
 41
0.003
  0
LWPOLYLINE
  5
1AF
100
AcDbEntity
  8
0
 62
     9
100
AcDbPolyline
 90
        2
 70
     0
 39
0.003
 10
-0.00735
 20
-1.282815
 40
0.003
 41
0.003
 10
-0.007047
 20
-1.2745
 40
0.003
 41
0.003
  0
LWPOLYLINE
  5
1B0
100
AcDbEntity
  8
0
 62
     9
100
AcDbPolyline
 90
        2
 70
     0
 39
0.003
 10
-0.00735
 20
-1.282815
 40
0.003
 41
0.003
 10
0.633776
 20
-0.900228
 40
0.003
 41
0.003
  0
LWPOLYLINE
  5
1B1
100
AcDbEntity
  8
0
 62
     9
100
AcDbPolyline
 90
        2
 70
     0
 39
0.003
 10
0.633776
 20
-0.900228
 40
0.003
 41
0.003
 10
0.633268
 20
-0.908213
 40
0.003
 41
0.003
  0
LWPOLYLINE
  5
1B2
100
AcDbEntity
  8
0
 62
     9
100
AcDbPolyline
 90
        2
 70
     0
 39
0.003
 10
0.633268
 20
-0.908213
 40
0.003
 41
0.003
 10
-0.007858
 20
-1.290799
 40
0.003
 41
0.003
  0
LWPOLYLINE
  5
1B3
100
AcDbEntity
  8
0
 62
     9
100
AcDbPolyline
 90
        2
 70
     0
 39
0.003
 10
-0.007858
 20
-1.290799
 40
0.003
 41
0.003
 10
-0.00735
 20
-1.282815
 40
0.003
 41
0.003
  0
LWPOLYLINE
  5
1B4
100
AcDbEntity
  8
0
 62
     9
100
AcDbPolyline
 90
        2
 70
     0
 39
0.003
 10
-0.007858
 20
-1.290799
 40
0.003
 41
0.003
 10
0.633268
 20
-0.908213
 40
0.003
 41
0.003
  0
LWPOLYLINE
  5
1B5
100
AcDbEntity
  8
0
 62
     9
100
AcDbPolyline
 90
        2
 70
     0
 39
0.003
 10
0.633268
 20
-0.908213
 40
0.003
 41
0.003
 10
0.632579
 20
-0.91589
 40
0.003
 41
0.003
  0
LWPOLYLINE
  5
1B6
100
AcDbEntity
  8
0
 62
     9
100
AcDbPolyline
 90
        2
 70
     0
 39
0.003
 10
0.632579
 20
-0.91589
 40
0.003
 41
0.003
 10
-0.008547
 20
-1.298476
 40
0.003
 41
0.003
  0
LWPOLYLINE
  5
1B7
100
AcDbEntity
  8
0
 62
     9
100
AcDbPolyline
 90
        2
 70
     0
 39
0.003
 10
-0.008547
 20
-1.298476
 40
0.003
 41
0.003
 10
-0.007858
 20
-1.290799
 40
0.003
 41
0.003
  0
LWPOLYLINE
  5
1B8
100
AcDbEntity
  8
0
 62
   253
100
AcDbPolyline
 90
        2
 70
     0
 39
0.003
 10
-0.008547
 20
-1.298476
 40
0.003
 41
0.003
 10
0.632579
 20
-0.91589
 40
0.003
 41
0.003
  0
LWPOLYLINE
  5
1B9
100
AcDbEntity
  8
0
 62
   253
100
AcDbPolyline
 90
        2
 70
     0
 39
0.003
 10
0.632579
 20
-0.91589
 40
0.003
 41
0.003
 10
0.631697
 20
-0.923252
 40
0.003
 41
0.003
  0
LWPOLYLINE
  5
1BA
100
AcDbEntity
  8
0
 62
   253
100
AcDbPolyline
 90
        2
 70
     0
 39
0.003
 10
0.631697
 20
-0.923252
 40
0.003
 41
0.003
 10
-0.009429
 20
-1.305839
 40
0.003
 41
0.003
  0
LWPOLYLINE
  5
1BB
100
AcDbEntity
  8
0
 62
   253
100
AcDbPolyline
 90
        2
 70
     0
 39
0.003
 10
-0.009429
 20
-1.305839
 40
0.003
 41
0.003
 10
-0.008547
 20
-1.298476
 40
0.003
 41
0.003
  0
LWPOLYLINE
  5
1BC
100
AcDbEntity
  8
0
 62
   253
100
AcDbPolyline
 90
        2
 70
     0
 39
0.003
 10
-0.009429
 20
-1.305839
 40
0.003
 41
0.003
 10
0.631697
 20
-0.923252
 40
0.003
 41
0.003
  0
LWPOLYLINE
  5
1BD
100
AcDbEntity
  8
0
 62
   253
100
AcDbPolyline
 90
        2
 70
     0
 39
0.003
 10
0.631697
 20
-0.923252
 40
0.003
 41
0.003
 10
0.630642
 20
-0.930323
 40
0.003
 41
0.003
  0
LWPOLYLINE
  5
1BE
100
AcDbEntity
  8
0
 62
   253
100
AcDbPolyline
 90
        2
 70
     0
 39
0.003
 10
0.630642
 20
-0.930323
 40
0.003
 41
0.003
 10
-0.010484
 20
-1.312909
 40
0.003
 41
0.003
  0
LWPOLYLINE
  5
1BF
100
AcDbEntity
  8
0
 62
   253
100
AcDbPolyline
 90
        2
 70
     0
 39
0.003
 10
-0.010484
 20
-1.312909
 40
0.003
 41
0.003
 10
-0.009429
 20
-1.305839
 40
0.003
 41
0.003
  0
LWPOLYLINE
  5
1C0
100
AcDbEntity
  8
0
 62
   253
100
AcDbPolyline
 90
        2
 70
     0
 39
0.003
 10
-0.010484
 20
-1.312909
 40
0.003
 41
0.003
 10
0.630642
 20
-0.930323
 40
0.003
 41
0.003
  0
LWPOLYLINE
  5
1C1
100
AcDbEntity
  8
0
 62
   253
100
AcDbPolyline
 90
        2
 70
     0
 39
0.003
 10
0.630642
 20
-0.930323
 40
0.003
 41
0.003
 10
0.629413
 20
-0.937106
 40
0.003
 41
0.003
  0
LWPOLYLINE
  5
1C2
100
AcDbEntity
  8
0
 62
   253
100
AcDbPolyline
 90
        2
 70
     0
 39
0.003
 10
0.629413
 20
-0.937106
 40
0.003
 41
0.003
 10
-0.011713
 20
-1.319693
 40
0.003
 41
0.003
  0
LWPOLYLINE
  5
1C3
100
AcDbEntity
  8
0
 62
   253
100
AcDbPolyline
 90
        2
 70
     0
 39
0.003
 10
-0.011713
 20
-1.319693
 40
0.003
 41
0.003
 10
-0.010484
 20
-1.312909
 40
0.003
 41
0.003
  0
LWPOLYLINE
  5
1C4
100
AcDbEntity
  8
0
 62
   253
100
AcDbPolyline
 90
        2
 70
     0
 39
0.003
 10
-0.011713
 20
-1.319693
 40
0.003
 41
0.003
 10
0.629413
 20
-0.937106
 40
0.003
 41
0.003
  0
LWPOLYLINE
  5
1C5
100
AcDbEntity
  8
0
 62
   253
100
AcDbPolyline
 90
        2
 70
     0
 39
0.003
 10
0.629413
 20
-0.937106
 40
0.003
 41
0.003
 10
0.628028
 20
-0.943618
 40
0.003
 41
0.003
  0
LWPOLYLINE
  5
1C6
100
AcDbEntity
  8
0
 62
   253
100
AcDbPolyline
 90
        2
 70
     0
 39
0.003
 10
0.628028
 20
-0.943618
 40
0.003
 41
0.003
 10
-0.013098
 20
-1.326205
 40
0.003
 41
0.003
  0
LWPOLYLINE
  5
1C7
100
AcDbEntity
  8
0
 62
   253
100
AcDbPolyline
 90
        2
 70
     0
 39
0.003
 10
-0.013098
 20
-1.326205
 40
0.003
 41
0.003
 10
-0.011713
 20
-1.319693
 40
0.003
 41
0.003
  0
LWPOLYLINE
  5
1C8
100
AcDbEntity
  8
0
 62
   253
100
AcDbPolyline
 90
        2
 70
     0
 39
0.003
 10
-0.013098
 20
-1.326205
 40
0.003
 41
0.003
 10
0.628028
 20
-0.943618
 40
0.003
 41
0.003
  0
LWPOLYLINE
  5
1C9
100
AcDbEntity
  8
0
 62
   253
100
AcDbPolyline
 90
        2
 70
     0
 39
0.003
 10
0.628028
 20
-0.943618
 40
0.003
 41
0.003
 10
0.626469
 20
-0.949854
 40
0.003
 41
0.003
  0
LWPOLYLINE
  5
1CA
100
AcDbEntity
  8
0
 62
   253
100
AcDbPolyline
 90
        2
 70
     0
 39
0.003
 10
0.626469
 20
-0.949854
 40
0.003
 41
0.003
 10
-0.014657
 20
-1.332441
 40
0.003
 41
0.003
  0
LWPOLYLINE
  5
1CB
100
AcDbEntity
  8
0
 62
   253
100
AcDbPolyline
 90
        2
 70
     0
 39
0.003
 10
-0.014657
 20
-1.332441
 40
0.003
 41
0.003
 10
-0.013098
 20
-1.326205
 40
0.003
 41
0.003
  0
LWPOLYLINE
  5
1CC
100
AcDbEntity
  8
0
 62
   253
100
AcDbPolyline
 90
        2
 70
     0
 39
0.003
 10
-0.014657
 20
-1.332441
 40
0.003
 41
0.003
 10
0.626469
 20
-0.949854
 40
0.003
 41
0.003
  0
LWPOLYLINE
  5
1CD
100
AcDbEntity
  8
0
 62
   253
100
AcDbPolyline
 90
        2
 70
     0
 39
0.003
 10
0.626469
 20
-0.949854
 40
0.003
 41
0.003
 10
0.624768
 20
-0.955839
 40
0.003
 41
0.003
  0
LWPOLYLINE
  5
1CE
100
AcDbEntity
  8
0
 62
   253
100
AcDbPolyline
 90
        2
 70
     0
 39
0.003
 10
0.624768
 20
-0.955839
 40
0.003
 41
0.003
 10
-0.016358
 20
-1.338425
 40
0.003
 41
0.003
  0
LWPOLYLINE
  5
1CF
100
AcDbEntity
  8
0
 62
   253
100
AcDbPolyline
 90
        2
 70
     0
 39
0.003
 10
-0.016358
 20
-1.338425
 40
0.003
 41
0.003
 10
-0.014657
 20
-1.332441
 40
0.003
 41
0.003
  0
LWPOLYLINE
  5
1D0
100
AcDbEntity
  8
0
 62
   253
100
AcDbPolyline
 90
        2
 70
     0
 39
0.003
 10
-0.016358
 20
-1.338425
 40
0.003
 41
0.003
 10
0.624768
 20
-0.955839
 40
0.003
 41
0.003
  0
LWPOLYLINE
  5
1D1
100
AcDbEntity
  8
0
 62
   253
100
AcDbPolyline
 90
        2
 70
     0
 39
0.003
 10
0.624768
 20
-0.955839
 40
0.003
 41
0.003
 10
0.622917
 20
-0.961571
 40
0.003
 41
0.003
  0
LWPOLYLINE
  5
1D2
100
AcDbEntity
  8
0
 62
   253
100
AcDbPolyline
 90
        2
 70
     0
 39
0.003
 10
0.622917
 20
-0.961571
 40
0.003
 41
0.003
 10
-0.018209
 20
-1.344157
 40
0.003
 41
0.003
  0
LWPOLYLINE
  5
1D3
100
AcDbEntity
  8
0
 62
   253
100
AcDbPolyline
 90
        2
 70
     0
 39
0.003
 10
-0.018209
 20
-1.344157
 40
0.003
 41
0.003
 10
-0.016358
 20
-1.338425
 40
0.003
 41
0.003
  0
LWPOLYLINE
  5
1D4
100
AcDbEntity
  8
0
 62
   253
100
AcDbPolyline
 90
        2
 70
     0
 39
0.003
 10
-0.018209
 20
-1.344157
 40
0.003
 41
0.003
 10
0.622917
 20
-0.961571
 40
0.003
 41
0.003
  0
LWPOLYLINE
  5
1D5
100
AcDbEntity
  8
0
 62
   253
100
AcDbPolyline
 90
        2
 70
     0
 39
0.003
 10
0.622917
 20
-0.961571
 40
0.003
 41
0.003
 10
0.620933
 20
-0.967075
 40
0.003
 41
0.003
  0
LWPOLYLINE
  5
1D6
100
AcDbEntity
  8
0
 62
   253
100
AcDbPolyline
 90
        2
 70
     0
 39
0.003
 10
0.620933
 20
-0.967075
 40
0.003
 41
0.003
 10
-0.020193
 20
-1.349661
 40
0.003
 41
0.003
  0
LWPOLYLINE
  5
1D7
100
AcDbEntity
  8
0
 62
   253
100
AcDbPolyline
 90
        2
 70
     0
 39
0.003
 10
-0.020193
 20
-1.349661
 40
0.003
 41
0.003
 10
-0.018209
 20
-1.344157
 40
0.003
 41
0.003
  0
LWPOLYLINE
  5
1D8
100
AcDbEntity
  8
0
 62
   253
100
AcDbPolyline
 90
        2
 70
     0
 39
0.003
 10
-0.020193
 20
-1.349661
 40
0.003
 41
0.003
 10
0.620933
 20
-0.967075
 40
0.003
 41
0.003
  0
LWPOLYLINE
  5
1D9
100
AcDbEntity
  8
0
 62
   253
100
AcDbPolyline
 90
        2
 70
     0
 39
0.003
 10
0.620933
 20
-0.967075
 40
0.003
 41
0.003
 10
0.618811
 20
-0.972346
 40
0.003
 41
0.003
  0
LWPOLYLINE
  5
1DA
100
AcDbEntity
  8
0
 62
   253
100
AcDbPolyline
 90
        2
 70
     0
 39
0.003
 10
0.618811
 20
-0.972346
 40
0.003
 41
0.003
 10
-0.022315
 20
-1.354933
 40
0.003
 41
0.003
  0
LWPOLYLINE
  5
1DB
100
AcDbEntity
  8
0
 62
   253
100
AcDbPolyline
 90
        2
 70
     0
 39
0.003
 10
-0.022315
 20
-1.354933
 40
0.003
 41
0.003
 10
-0.020193
 20
-1.349661
 40
0.003
 41
0.003
  0
LWPOLYLINE
  5
1DC
100
AcDbEntity
  8
0
 62
   252
100
AcDbPolyline
 90
        2
 70
     0
 39
0.003
 10
-0.022315
 20
-1.354933
 40
0.003
 41
0.003
 10
0.618811
 20
-0.972346
 40
0.003
 41
0.003
  0
LWPOLYLINE
  5
1DD
100
AcDbEntity
  8
0
 62
   252
100
AcDbPolyline
 90
        2
 70
     0
 39
0.003
 10
0.618811
 20
-0.972346
 40
0.003
 41
0.003
 10
0.616571
 20
-0.977402
 40
0.003
 41
0.003
  0
LWPOLYLINE
  5
1DE
100
AcDbEntity
  8
0
 62
   252
100
AcDbPolyline
 90
        2
 70
     0
 39
0.003
 10
0.616571
 20
-0.977402
 40
0.003
 41
0.003
 10
-0.024555
 20
-1.359988
 40
0.003
 41
0.003
  0
LWPOLYLINE
  5
1DF
100
AcDbEntity
  8
0
 62
   252
100
AcDbPolyline
 90
        2
 70
     0
 39
0.003
 10
-0.024555
 20
-1.359988
 40
0.003
 41
0.003
 10
-0.022315
 20
-1.354933
 40
0.003
 41
0.003
  0
LWPOLYLINE
  5
1E0
100
AcDbEntity
  8
0
 62
   252
100
AcDbPolyline
 90
        2
 70
     0
 39
0.003
 10
-0.024555
 20
-1.359988
 40
0.003
 41
0.003
 10
0.616571
 20
-0.977402
 40
0.003
 41
0.003
  0
LWPOLYLINE
  5
1E1
100
AcDbEntity
  8
0
 62
   252
100
AcDbPolyline
 90
        2
 70
     0
 39
0.003
 10
0.616571
 20
-0.977402
 40
0.003
 41
0.003
 10
0.614209
 20
-0.982248
 40
0.003
 41
0.003
  0
LWPOLYLINE
  5
1E2
100
AcDbEntity
  8
0
 62
   252
100
AcDbPolyline
 90
        2
 70
     0
 39
0.003
 10
0.614209
 20
-0.982248
 40
0.003
 41
0.003
 10
-0.026917
 20
-1.364835
 40
0.003
 41
0.003
  0
LWPOLYLINE
  5
1E3
100
AcDbEntity
  8
0
 62
   252
100
AcDbPolyline
 90
        2
 70
     0
 39
0.003
 10
-0.026917
 20
-1.364835
 40
0.003
 41
0.003
 10
-0.024555
 20
-1.359988
 40
0.003
 41
0.003
  0
LWPOLYLINE
  5
1E4
100
AcDbEntity
  8
0
 62
   252
100
AcDbPolyline
 90
        2
 70
     0
 39
0.003
 10
-0.026917
 20
-1.364835
 40
0.003
 41
0.003
 10
0.614209
 20
-0.982248
 40
0.003
 41
0.003
  0
LWPOLYLINE
  5
1E5
100
AcDbEntity
  8
0
 62
   252
100
AcDbPolyline
 90
        2
 70
     0
 39
0.003
 10
0.614209
 20
-0.982248
 40
0.003
 41
0.003
 10
0.611736
 20
-0.986902
 40
0.003
 41
0.003
  0
LWPOLYLINE
  5
1E6
100
AcDbEntity
  8
0
 62
   252
100
AcDbPolyline
 90
        2
 70
     0
 39
0.003
 10
0.611736
 20
-0.986902
 40
0.003
 41
0.003
 10
-0.02939
 20
-1.369488
 40
0.003
 41
0.003
  0
LWPOLYLINE
  5
1E7
100
AcDbEntity
  8
0
 62
   252
100
AcDbPolyline
 90
        2
 70
     0
 39
0.003
 10
-0.02939
 20
-1.369488
 40
0.003
 41
0.003
 10
-0.026917
 20
-1.364835
 40
0.003
 41
0.003
  0
LWPOLYLINE
  5
1E8
100
AcDbEntity
  8
0
 62
     8
100
AcDbPolyline
 90
        2
 70
     0
 39
0.003
 10
-0.02939
 20
-1.369488
 40
0.003
 41
0.003
 10
0.611736
 20
-0.986902
 40
0.003
 41
0.003
  0
LWPOLYLINE
  5
1E9
100
AcDbEntity
  8
0
 62
     8
100
AcDbPolyline
 90
        2
 70
     0
 39
0.003
 10
0.611736
 20
-0.986902
 40
0.003
 41
0.003
 10
0.60915
 20
-0.991358
 40
0.003
 41
0.003
  0
LWPOLYLINE
  5
1EA
100
AcDbEntity
  8
0
 62
     8
100
AcDbPolyline
 90
        2
 70
     0
 39
0.003
 10
0.60915
 20
-0.991358
 40
0.003
 41
0.003
 10
-0.031976
 20
-1.373945
 40
0.003
 41
0.003
  0
LWPOLYLINE
  5
1EB
100
AcDbEntity
  8
0
 62
     8
100
AcDbPolyline
 90
        2
 70
     0
 39
0.003
 10
-0.031976
 20
-1.373945
 40
0.003
 41
0.003
 10
-0.02939
 20
-1.369488
 40
0.003
 41
0.003
  0
LWPOLYLINE
  5
1EC
100
AcDbEntity
  8
0
 62
     8
100
AcDbPolyline
 90
        2
 70
     0
 39
0.003
 10
-0.031976
 20
-1.373945
 40
0.003
 41
0.003
 10
0.60915
 20
-0.991358
 40
0.003
 41
0.003
  0
LWPOLYLINE
  5
1ED
100
AcDbEntity
  8
0
 62
     8
100
AcDbPolyline
 90
        2
 70
     0
 39
0.003
 10
0.60915
 20
-0.991358
 40
0.003
 41
0.003
 10
0.606472
 20
-0.995642
 40
0.003
 41
0.003
  0
LWPOLYLINE
  5
1EE
100
AcDbEntity
  8
0
 62
     8
100
AcDbPolyline
 90
        2
 70
     0
 39
0.003
 10
0.606472
 20
-0.995642
 40
0.003
 41
0.003
 10
-0.034654
 20
-1.378228
 40
0.003
 41
0.003
  0
LWPOLYLINE
  5
1EF
100
AcDbEntity
  8
0
 62
     8
100
AcDbPolyline
 90
        2
 70
     0
 39
0.003
 10
-0.034654
 20
-1.378228
 40
0.003
 41
0.003
 10
-0.031976
 20
-1.373945
 40
0.003
 41
0.003
  0
LWPOLYLINE
  5
1F0
100
AcDbEntity
  8
0
 62
     8
100
AcDbPolyline
 90
        2
 70
     0
 39
0.003
 10
-0.034654
 20
-1.378228
 40
0.003
 41
0.003
 10
0.606472
 20
-0.995642
 40
0.003
 41
0.003
  0
LWPOLYLINE
  5
1F1
100
AcDbEntity
  8
0
 62
     8
100
AcDbPolyline
 90
        2
 70
     0
 39
0.003
 10
0.606472
 20
-0.995642
 40
0.003
 41
0.003
 10
0.603697
 20
-0.999752
 40
0.003
 41
0.003
  0
LWPOLYLINE
  5
1F2
100
AcDbEntity
  8
0
 62
     8
100
AcDbPolyline
 90
        2
 70
     0
 39
0.003
 10
0.603697
 20
-0.999752
 40
0.003
 41
0.003
 10
-0.037429
 20
-1.382339
 40
0.003
 41
0.003
  0
LWPOLYLINE
  5
1F3
100
AcDbEntity
  8
0
 62
     8
100
AcDbPolyline
 90
        2
 70
     0
 39
0.003
 10
-0.037429
 20
-1.382339
 40
0.003
 41
0.003
 10
-0.034654
 20
-1.378228
 40
0.003
 41
0.003
  0
LWPOLYLINE
  5
1F4
100
AcDbEntity
  8
0
 62
   127
100
AcDbPolyline
 90
        2
 70
     0
 39
0.003
 10
-0.037429
 20
-1.382339
 40
0.003
 41
0.003
 10
0.603697
 20
-0.999752
 40
0.003
 41
0.003
  0
LWPOLYLINE
  5
1F5
100
AcDbEntity
  8
0
 62
   127
100
AcDbPolyline
 90
        2
 70
     0
 39
0.003
 10
0.603697
 20
-0.999752
 40
0.003
 41
0.003
 10
0.600843
 20
-1.003709
 40
0.003
 41
0.003
  0
LWPOLYLINE
  5
1F6
100
AcDbEntity
  8
0
 62
   127
100
AcDbPolyline
 90
        2
 70
     0
 39
0.003
 10
0.600843
 20
-1.003709
 40
0.003
 41
0.003
 10
-0.040283
 20
-1.386295
 40
0.003
 41
0.003
  0
LWPOLYLINE
  5
1F7
100
AcDbEntity
  8
0
 62
   127
100
AcDbPolyline
 90
        2
 70
     0
 39
0.003
 10
-0.040283
 20
-1.386295
 40
0.003
 41
0.003
 10
-0.037429
 20
-1.382339
 40
0.003
 41
0.003
  0
LWPOLYLINE
  5
1F8
100
AcDbEntity
  8
0
 62
   127
100
AcDbPolyline
 90
        2
 70
     0
 39
0.003
 10
-0.040283
 20
-1.386295
 40
0.003
 41
0.003
 10
0.600843
 20
-1.003709
 40
0.003
 41
0.003
  0
LWPOLYLINE
  5
1F9
100
AcDbEntity
  8
0
 62
   127
100
AcDbPolyline
 90
        2
 70
     0
 39
0.003
 10
0.600843
 20
-1.003709
 40
0.003
 41
0.003
 10
0.597902
 20
-1.007508
 40
0.003
 41
0.003
  0
LWPOLYLINE
  5
1FA
100
AcDbEntity
  8
0
 62
   127
100
AcDbPolyline
 90
        2
 70
     0
 39
0.003
 10
0.597902
 20
-1.007508
 40
0.003
 41
0.003
 10
-0.043224
 20
-1.390094
 40
0.003
 41
0.003
  0
LWPOLYLINE
  5
1FB
100
AcDbEntity
  8
0
 62
   127
100
AcDbPolyline
 90
        2
 70
     0
 39
0.003
 10
-0.043224
 20
-1.390094
 40
0.003
 41
0.003
 10
-0.040283
 20
-1.386295
 40
0.003
 41
0.003
  0
LWPOLYLINE
  5
1FC
100
AcDbEntity
  8
0
 62
   251
100
AcDbPolyline
 90
        2
 70
     0
 39
0.003
 10
-0.043224
 20
-1.390094
 40
0.003
 41
0.003
 10
0.597902
 20
-1.007508
 40
0.003
 41
0.003
  0
LWPOLYLINE
  5
1FD
100
AcDbEntity
  8
0
 62
   251
100
AcDbPolyline
 90
        2
 70
     0
 39
0.003
 10
0.597902
 20
-1.007508
 40
0.003
 41
0.003
 10
0.59489
 20
-1.011177
 40
0.003
 41
0.003
  0
LWPOLYLINE
  5
1FE
100
AcDbEntity
  8
0
 62
   251
100
AcDbPolyline
 90
        2
 70
     0
 39
0.003
 10
0.59489
 20
-1.011177
 40
0.003
 41
0.003
 10
-0.046236
 20
-1.393764
 40
0.003
 41
0.003
  0
LWPOLYLINE
  5
1FF
100
AcDbEntity
  8
0
 62
   251
100
AcDbPolyline
 90
        2
 70
     0
 39
0.003
 10
-0.046236
 20
-1.393764
 40
0.003
 41
0.003
 10
-0.043224
 20
-1.390094
 40
0.003
 41
0.003
  0
LWPOLYLINE
  5
200
100
AcDbEntity
  8
0
 62
   251
100
AcDbPolyline
 90
        2
 70
     0
 39
0.003
 10
-0.046236
 20
-1.393764
 40
0.003
 41
0.003
 10
0.59489
 20
-1.011177
 40
0.003
 41
0.003
  0
LWPOLYLINE
  5
201
100
AcDbEntity
  8
0
 62
   251
100
AcDbPolyline
 90
        2
 70
     0
 39
0.003
 10
0.59489
 20
-1.011177
 40
0.003
 41
0.003
 10
0.591811
 20
-1.014713
 40
0.003
 41
0.003
  0
LWPOLYLINE
  5
202
100
AcDbEntity
  8
0
 62
   251
100
AcDbPolyline
 90
        2
 70
     0
 39
0.003
 10
0.591811
 20
-1.014713
 40
0.003
 41
0.003
 10
-0.049315
 20
-1.397299
 40
0.003
 41
0.003
  0
LWPOLYLINE
  5
203
100
AcDbEntity
  8
0
 62
   251
100
AcDbPolyline
 90
        2
 70
     0
 39
0.003
 10
-0.049315
 20
-1.397299
 40
0.003
 41
0.003
 10
-0.046236
 20
-1.393764
 40
0.003
 41
0.003
  0
LWPOLYLINE
  5
204
100
AcDbEntity
  8
0
 62
   251
100
AcDbPolyline
 90
        2
 70
     0
 39
0.003
 10
-0.049315
 20
-1.397299
 40
0.003
 41
0.003
 10
0.591811
 20
-1.014713
 40
0.003
 41
0.003
  0
LWPOLYLINE
  5
205
100
AcDbEntity
  8
0
 62
   251
100
AcDbPolyline
 90
        2
 70
     0
 39
0.003
 10
0.591811
 20
-1.014713
 40
0.003
 41
0.003
 10
0.588677
 20
-1.018134
 40
0.003
 41
0.003
  0
LWPOLYLINE
  5
206
100
AcDbEntity
  8
0
 62
   251
100
AcDbPolyline
 90
        2
 70
     0
 39
0.003
 10
0.588677
 20
-1.018134
 40
0.003
 41
0.003
 10
-0.052449
 20
-1.40072
 40
0.003
 41
0.003
  0
LWPOLYLINE
  5
207
100
AcDbEntity
  8
0
 62
   251
100
AcDbPolyline
 90
        2
 70
     0
 39
0.003
 10
-0.052449
 20
-1.40072
 40
0.003
 41
0.003
 10
-0.049315
 20
-1.397299
 40
0.003
 41
0.003
  0
LWPOLYLINE
  5
208
100
AcDbEntity
  8
0
 62
   251
100
AcDbPolyline
 90
        2
 70
     0
 39
0.003
 10
-0.052449
 20
-1.40072
 40
0.003
 41
0.003
 10
0.588677
 20
-1.018134
 40
0.003
 41
0.003
  0
LWPOLYLINE
  5
209
100
AcDbEntity
  8
0
 62
   251
100
AcDbPolyline
 90
        2
 70
     0
 39
0.003
 10
0.588677
 20
-1.018134
 40
0.003
 41
0.003
 10
0.585484
 20
-1.021437
 40
0.003
 41
0.003
  0
LWPOLYLINE
  5
20A
100
AcDbEntity
  8
0
 62
   251
100
AcDbPolyline
 90
        2
 70
     0
 39
0.003
 10
0.585484
 20
-1.021437
 40
0.003
 41
0.003
 10
-0.055642
 20
-1.404024
 40
0.003
 41
0.003
  0
LWPOLYLINE
  5
20B
100
AcDbEntity
  8
0
 62
   251
100
AcDbPolyline
 90
        2
 70
     0
 39
0.003
 10
-0.055642
 20
-1.404024
 40
0.003
 41
0.003
 10
-0.052449
 20
-1.40072
 40
0.003
 41
0.003
  0
LWPOLYLINE
  5
20C
100
AcDbEntity
  8
0
 62
   139
100
AcDbPolyline
 90
        2
 70
     0
 39
0.003
 10
-0.055642
 20
-1.404024
 40
0.003
 41
0.003
 10
0.585484
 20
-1.021437
 40
0.003
 41
0.003
  0
LWPOLYLINE
  5
20D
100
AcDbEntity
  8
0
 62
   139
100
AcDbPolyline
 90
        2
 70
     0
 39
0.003
 10
0.585484
 20
-1.021437
 40
0.003
 41
0.003
 10
0.582248
 20
-1.024646
 40
0.003
 41
0.003
  0
LWPOLYLINE
  5
20E
100
AcDbEntity
  8
0
 62
   139
100
AcDbPolyline
 90
        2
 70
     0
 39
0.003
 10
0.582248
 20
-1.024646
 40
0.003
 41
0.003
 10
-0.058878
 20
-1.407232
 40
0.003
 41
0.003
  0
LWPOLYLINE
  5
20F
100
AcDbEntity
  8
0
 62
   139
100
AcDbPolyline
 90
        2
 70
     0
 39
0.003
 10
-0.058878
 20
-1.407232
 40
0.003
 41
0.003
 10
-0.055642
 20
-1.404024
 40
0.003
 41
0.003
  0
LWPOLYLINE
  5
210
100
AcDbEntity
  8
0
 62
   139
100
AcDbPolyline
 90
        2
 70
     0
 39
0.003
 10
-0.058878
 20
-1.407232
 40
0.003
 41
0.003
 10
0.582248
 20
-1.024646
 40
0.003
 41
0.003
  0
LWPOLYLINE
  5
211
100
AcDbEntity
  8
0
 62
   139
100
AcDbPolyline
 90
        2
 70
     0
 39
0.003
 10
0.582248
 20
-1.024646
 40
0.003
 41
0.003
 10
0.578969
 20
-1.02776
 40
0.003
 41
0.003
  0
LWPOLYLINE
  5
212
100
AcDbEntity
  8
0
 62
   139
100
AcDbPolyline
 90
        2
 70
     0
 39
0.003
 10
0.578969
 20
-1.02776
 40
0.003
 41
0.003
 10
-0.062157
 20
-1.410346
 40
0.003
 41
0.003
  0
LWPOLYLINE
  5
213
100
AcDbEntity
  8
0
 62
   139
100
AcDbPolyline
 90
        2
 70
     0
 39
0.003
 10
-0.062157
 20
-1.410346
 40
0.003
 41
0.003
 10
-0.058878
 20
-1.407232
 40
0.003
 41
0.003
  0
LWPOLYLINE
  5
214
100
AcDbEntity
  8
0
 62
   251
100
AcDbPolyline
 90
        2
 70
     0
 39
0.003
 10
-0.062157
 20
-1.410346
 40
0.003
 41
0.003
 10
0.578969
 20
-1.02776
 40
0.003
 41
0.003
  0
LWPOLYLINE
  5
215
100
AcDbEntity
  8
0
 62
   251
100
AcDbPolyline
 90
        2
 70
     0
 39
0.003
 10
0.578969
 20
-1.02776
 40
0.003
 41
0.003
 10
0.575661
 20
-1.030799
 40
0.003
 41
0.003
  0
LWPOLYLINE
  5
216
100
AcDbEntity
  8
0
 62
   251
100
AcDbPolyline
 90
        2
 70
     0
 39
0.003
 10
0.575661
 20
-1.030799
 40
0.003
 41
0.003
 10
-0.065465
 20
-1.413386
 40
0.003
 41
0.003
  0
LWPOLYLINE
  5
217
100
AcDbEntity
  8
0
 62
   251
100
AcDbPolyline
 90
        2
 70
     0
 39
0.003
 10
-0.065465
 20
-1.413386
 40
0.003
 41
0.003
 10
-0.062157
 20
-1.410346
 40
0.003
 41
0.003
  0
LWPOLYLINE
  5
218
100
AcDbEntity
  8
0
 62
   251
100
AcDbPolyline
 90
        2
 70
     0
 39
0.003
 10
-0.065465
 20
-1.413386
 40
0.003
 41
0.003
 10
0.575661
 20
-1.030799
 40
0.003
 41
0.003
  0
LWPOLYLINE
  5
219
100
AcDbEntity
  8
0
 62
   251
100
AcDbPolyline
 90
        2
 70
     0
 39
0.003
 10
0.575661
 20
-1.030799
 40
0.003
 41
0.003
 10
0.572319
 20
-1.033764
 40
0.003
 41
0.003
  0
LWPOLYLINE
  5
21A
100
AcDbEntity
  8
0
 62
   251
100
AcDbPolyline
 90
        2
 70
     0
 39
0.003
 10
0.572319
 20
-1.033764
 40
0.003
 41
0.003
 10
-0.068807
 20
-1.41635
 40
0.003
 41
0.003
  0
LWPOLYLINE
  5
21B
100
AcDbEntity
  8
0
 62
   251
100
AcDbPolyline
 90
        2
 70
     0
 39
0.003
 10
-0.068807
 20
-1.41635
 40
0.003
 41
0.003
 10
-0.065465
 20
-1.413386
 40
0.003
 41
0.003
  0
LWPOLYLINE
  5
21C
100
AcDbEntity
  8
0
 62
   251
100
AcDbPolyline
 90
        2
 70
     0
 39
0.003
 10
-0.068807
 20
-1.41635
 40
0.003
 41
0.003
 10
0.572319
 20
-1.033764
 40
0.003
 41
0.003
  0
LWPOLYLINE
  5
21D
100
AcDbEntity
  8
0
 62
   251
100
AcDbPolyline
 90
        2
 70
     0
 39
0.003
 10
0.572319
 20
-1.033764
 40
0.003
 41
0.003
 10
0.568965
 20
-1.036669
 40
0.003
 41
0.003
  0
LWPOLYLINE
  5
21E
100
AcDbEntity
  8
0
 62
   251
100
AcDbPolyline
 90
        2
 70
     0
 39
0.003
 10
0.568965
 20
-1.036669
 40
0.003
 41
0.003
 10
-0.072161
 20
-1.419256
 40
0.003
 41
0.003
  0
LWPOLYLINE
  5
21F
100
AcDbEntity
  8
0
 62
   251
100
AcDbPolyline
 90
        2
 70
     0
 39
0.003
 10
-0.072161
 20
-1.419256
 40
0.003
 41
0.003
 10
-0.068807
 20
-1.41635
 40
0.003
 41
0.003
  0
LWPOLYLINE
  5
220
100
AcDbEntity
  8
0
 62
   251
100
AcDbPolyline
 90
        2
 70
     0
 39
0.003
 10
-0.072161
 20
-1.419256
 40
0.003
 41
0.003
 10
0.568965
 20
-1.036669
 40
0.003
 41
0.003
  0
LWPOLYLINE
  5
221
100
AcDbEntity
  8
0
 62
   251
100
AcDbPolyline
 90
        2
 70
     0
 39
0.003
 10
0.568965
 20
-1.036669
 40
0.003
 41
0.003
 10
0.565594
 20
-1.03952
 40
0.003
 41
0.003
  0
LWPOLYLINE
  5
222
100
AcDbEntity
  8
0
 62
   251
100
AcDbPolyline
 90
        2
 70
     0
 39
0.003
 10
0.565594
 20
-1.03952
 40
0.003
 41
0.003
 10
-0.075531
 20
-1.422106
 40
0.003
 41
0.003
  0
LWPOLYLINE
  5
223
100
AcDbEntity
  8
0
 62
   251
100
AcDbPolyline
 90
        2
 70
     0
 39
0.003
 10
-0.075531
 20
-1.422106
 40
0.003
 41
0.003
 10
-0.072161
 20
-1.419256
 40
0.003
 41
0.003
  0
LWPOLYLINE
  5
224
100
AcDbEntity
  8
0
 62
   251
100
AcDbPolyline
 90
        2
 70
     0
 39
0.003
 10
-0.075531
 20
-1.422106
 40
0.003
 41
0.003
 10
0.565594
 20
-1.03952
 40
0.003
 41
0.003
  0
LWPOLYLINE
  5
225
100
AcDbEntity
  8
0
 62
   251
100
AcDbPolyline
 90
        2
 70
     0
 39
0.003
 10
0.565594
 20
-1.03952
 40
0.003
 41
0.003
 10
0.562224
 20
-1.042339
 40
0.003
 41
0.003
  0
LWPOLYLINE
  5
226
100
AcDbEntity
  8
0
 62
   251
100
AcDbPolyline
 90
        2
 70
     0
 39
0.003
 10
0.562224
 20
-1.042339
 40
0.003
 41
0.003
 10
-0.078902
 20
-1.424925
 40
0.003
 41
0.003
  0
LWPOLYLINE
  5
227
100
AcDbEntity
  8
0
 62
   251
100
AcDbPolyline
 90
        2
 70
     0
 39
0.003
 10
-0.078902
 20
-1.424925
 40
0.003
 41
0.003
 10
-0.075531
 20
-1.422106
 40
0.003
 41
0.003
  0
LWPOLYLINE
  5
228
100
AcDbEntity
  8
0
 62
     0
100
AcDbPolyline
 90
        2
 70
     0
 39
0.003
 10
-0.798508
 20
0.252894
 40
0.003
 41
0.003
 10
-0.157382
 20
0.63548
 40
0.003
 41
0.003
  0
LWPOLYLINE
  5
229
100
AcDbEntity
  8
0
 62
     0
100
AcDbPolyline
 90
        2
 70
     0
 39
0.003
 10
-0.157382
 20
0.63548
 40
0.003
 41
0.003
 10
-0.13135
 20
0.634929
 40
0.003
 41
0.003
  0
LWPOLYLINE
  5
22A
100
AcDbEntity
  8
0
 62
     0
100
AcDbPolyline
 90
        2
 70
     0
 39
0.003
 10
-0.13135
 20
0.634929
 40
0.003
 41
0.003
 10
-0.106524
 20
0.633287
 40
0.003
 41
0.003
  0
LWPOLYLINE
  5
22B
100
AcDbEntity
  8
0
 62
     0
100
AcDbPolyline
 90
        2
 70
     0
 39
0.003
 10
-0.106524
 20
0.633287
 40
0.003
 41
0.003
 10
-0.082866
 20
0.630531
 40
0.003
 41
0.003
  0
LWPOLYLINE
  5
22C
100
AcDbEntity
  8
0
 62
     0
100
AcDbPolyline
 90
        2
 70
     0
 39
0.003
 10
-0.082866
 20
0.630531
 40
0.003
 41
0.003
 10
-0.060362
 20
0.626657
 40
0.003
 41
0.003
  0
LWPOLYLINE
  5
22D
100
AcDbEntity
  8
0
 62
     0
100
AcDbPolyline
 90
        2
 70
     0
 39
0.003
 10
-0.060362
 20
0.626657
 40
0.003
 41
0.003
 10
-0.038972
 20
0.621646
 40
0.003
 41
0.003
  0
LWPOLYLINE
  5
22E
100
AcDbEntity
  8
0
 62
     0
100
AcDbPolyline
 90
        2
 70
     0
 39
0.003
 10
-0.038972
 20
0.621646
 40
0.003
 41
0.003
 10
-0.018689
 20
0.6155
 40
0.003
 41
0.003
  0
LWPOLYLINE
  5
22F
100
AcDbEntity
  8
0
 62
     0
100
AcDbPolyline
 90
        2
 70
     0
 39
0.003
 10
-0.018689
 20
0.6155
 40
0.003
 41
0.003
 10
0.000524
 20
0.608197
 40
0.003
 41
0.003
  0
LWPOLYLINE
  5
230
100
AcDbEntity
  8
0
 62
     0
100
AcDbPolyline
 90
        2
 70
     0
 39
0.003
 10
0.000524
 20
0.608197
 40
0.003
 41
0.003
 10
0.018677
 20
0.599732
 40
0.003
 41
0.003
  0
LWPOLYLINE
  5
231
100
AcDbEntity
  8
0
 62
     0
100
AcDbPolyline
 90
        2
 70
     0
 39
0.003
 10
0.018677
 20
0.599732
 40
0.003
 41
0.003
 10
0.035815
 20
0.590083
 40
0.003
 41
0.003
  0
LWPOLYLINE
  5
232
100
AcDbEntity
  8
0
 62
     0
100
AcDbPolyline
 90
        2
 70
     0
 39
0.003
 10
0.035815
 20
0.590083
 40
0.003
 41
0.003
 10
0.051945
 20
0.579252
 40
0.003
 41
0.003
  0
LWPOLYLINE
  5
233
100
AcDbEntity
  8
0
 62
     0
100
AcDbPolyline
 90
        2
 70
     0
 39
0.003
 10
0.051945
 20
0.579252
 40
0.003
 41
0.003
 10
0.067102
 20
0.56722
 40
0.003
 41
0.003
  0
LWPOLYLINE
  5
234
100
AcDbEntity
  8
0
 62
     0
100
AcDbPolyline
 90
        2
 70
     0
 39
0.003
 10
0.067102
 20
0.56722
 40
0.003
 41
0.003
 10
0.081299
 20
0.553984
 40
0.003
 41
0.003
  0
LWPOLYLINE
  5
235
100
AcDbEntity
  8
0
 62
     0
100
AcDbPolyline
 90
        2
 70
     0
 39
0.003
 10
0.081299
 20
0.553984
 40
0.003
 41
0.003
 10
0.094571
 20
0.539524
 40
0.003
 41
0.003
  0
LWPOLYLINE
  5
236
100
AcDbEntity
  8
0
 62
     0
100
AcDbPolyline
 90
        2
 70
     0
 39
0.003
 10
0.094571
 20
0.539524
 40
0.003
 41
0.003
 10
0.106937
 20
0.523835
 40
0.003
 41
0.003
  0
LWPOLYLINE
  5
237
100
AcDbEntity
  8
0
 62
     0
100
AcDbPolyline
 90
        2
 70
     0
 39
0.003
 10
0.106937
 20
0.523835
 40
0.003
 41
0.003
 10
0.118421
 20
0.506898
 40
0.003
 41
0.003
  0
LWPOLYLINE
  5
238
100
AcDbEntity
  8
0
 62
     0
100
AcDbPolyline
 90
        2
 70
     0
 39
0.003
 10
0.118421
 20
0.506898
 40
0.003
 41
0.003
 10
0.129043
 20
0.488717
 40
0.003
 41
0.003
  0
LWPOLYLINE
  5
239
100
AcDbEntity
  8
0
 62
     0
100
AcDbPolyline
 90
        2
 70
     0
 39
0.003
 10
0.129043
 20
0.488717
 40
0.003
 41
0.003
 10
0.138843
 20
0.46926
 40
0.003
 41
0.003
  0
LWPOLYLINE
  5
23A
100
AcDbEntity
  8
0
 62
     0
100
AcDbPolyline
 90
        2
 70
     0
 39
0.003
 10
0.138843
 20
0.46926
 40
0.003
 41
0.003
 10
0.147831
 20
0.448535
 40
0.003
 41
0.003
  0
LWPOLYLINE
  5
23B
100
AcDbEntity
  8
0
 62
     0
100
AcDbPolyline
 90
        2
 70
     0
 39
0.003
 10
0.147831
 20
0.448535
 40
0.003
 41
0.003
 10
0.156035
 20
0.426528
 40
0.003
 41
0.003
  0
LWPOLYLINE
  5
23C
100
AcDbEntity
  8
0
 62
     0
100
AcDbPolyline
 90
        2
 70
     0
 39
0.003
 10
0.156035
 20
0.426528
 40
0.003
 41
0.003
 10
0.16348
 20
0.403213
 40
0.003
 41
0.003
  0
LWPOLYLINE
  5
23D
100
AcDbEntity
  8
0
 62
     0
100
AcDbPolyline
 90
        2
 70
     0
 39
0.003
 10
0.16348
 20
0.403213
 40
0.003
 41
0.003
 10
0.170193
 20
0.378594
 40
0.003
 41
0.003
  0
LWPOLYLINE
  5
23E
100
AcDbEntity
  8
0
 62
     0
100
AcDbPolyline
 90
        2
 70
     0
 39
0.003
 10
0.170193
 20
0.378594
 40
0.003
 41
0.003
 10
0.176189
 20
0.352646
 40
0.003
 41
0.003
  0
LWPOLYLINE
  5
23F
100
AcDbEntity
  8
0
 62
     0
100
AcDbPolyline
 90
        2
 70
     0
 39
0.003
 10
0.176189
 20
0.352646
 40
0.003
 41
0.003
 10
0.181504
 20
0.32537
 40
0.003
 41
0.003
  0
LWPOLYLINE
  5
240
100
AcDbEntity
  8
0
 62
     0
100
AcDbPolyline
 90
        2
 70
     0
 39
0.003
 10
0.181504
 20
0.32537
 40
0.003
 41
0.003
 10
0.18615
 20
0.296748
 40
0.003
 41
0.003
  0
LWPOLYLINE
  5
241
100
AcDbEntity
  8
0
 62
     0
100
AcDbPolyline
 90
        2
 70
     0
 39
0.003
 10
0.18615
 20
0.296748
 40
0.003
 41
0.003
 10
0.190169
 20
0.26678
 40
0.003
 41
0.003
  0
LWPOLYLINE
  5
242
100
AcDbEntity
  8
0
 62
     0
100
AcDbPolyline
 90
        2
 70
     0
 39
0.003
 10
0.190169
 20
0.26678
 40
0.003
 41
0.003
 10
0.193563
 20
0.235445
 40
0.003
 41
0.003
  0
LWPOLYLINE
  5
243
100
AcDbEntity
  8
0
 62
     0
100
AcDbPolyline
 90
        2
 70
     0
 39
0.003
 10
0.193563
 20
0.235445
 40
0.003
 41
0.003
 10
0.196378
 20
0.202732
 40
0.003
 41
0.003
  0
LWPOLYLINE
  5
244
100
AcDbEntity
  8
0
 62
     0
100
AcDbPolyline
 90
        2
 70
     0
 39
0.003
 10
0.196378
 20
0.202732
 40
0.003
 41
0.003
 10
0.198614
 20
0.16863
 40
0.003
 41
0.003
  0
LWPOLYLINE
  5
245
100
AcDbEntity
  8
0
 62
     0
100
AcDbPolyline
 90
        2
 70
     0
 39
0.003
 10
0.198614
 20
0.16863
 40
0.003
 41
0.003
 10
0.200319
 20
0.133134
 40
0.003
 41
0.003
  0
LWPOLYLINE
  5
246
100
AcDbEntity
  8
0
 62
     0
100
AcDbPolyline
 90
        2
 70
     0
 39
0.003
 10
0.200319
 20
0.133134
 40
0.003
 41
0.003
 10
0.201504
 20
0.096224
 40
0.003
 41
0.003
  0
LWPOLYLINE
  5
247
100
AcDbEntity
  8
0
 62
     0
100
AcDbPolyline
 90
        2
 70
     0
 39
0.003
 10
0.201504
 20
0.096224
 40
0.003
 41
0.003
 10
0.202201
 20
0.057898
 40
0.003
 41
0.003
  0
LWPOLYLINE
  5
248
100
AcDbEntity
  8
0
 62
     0
100
AcDbPolyline
 90
        2
 70
     0
 39
0.003
 10
0.202201
 20
0.057898
 40
0.003
 41
0.003
 10
0.202421
 20
0.018134
 40
0.003
 41
0.003
  0
LWPOLYLINE
  5
249
100
AcDbEntity
  8
0
 62
     0
100
AcDbPolyline
 90
        2
 70
     0
 39
0.003
 10
0.202421
 20
0.018134
 40
0.003
 41
0.003
 10
0.202701
 20
-0.021406
 40
0.003
 41
0.003
  0
LWPOLYLINE
  5
24A
100
AcDbEntity
  8
0
 62
     0
100
AcDbPolyline
 90
        2
 70
     0
 39
0.003
 10
0.202701
 20
-0.021406
 40
0.003
 41
0.003
 10
0.20352
 20
-0.059114
 40
0.003
 41
0.003
  0
LWPOLYLINE
  5
24B
100
AcDbEntity
  8
0
 62
     0
100
AcDbPolyline
 90
        2
 70
     0
 39
0.003
 10
0.20352
 20
-0.059114
 40
0.003
 41
0.003
 10
0.204874
 20
-0.095043
 40
0.003
 41
0.003
  0
LWPOLYLINE
  5
24C
100
AcDbEntity
  8
0
 62
     0
100
AcDbPolyline
 90
        2
 70
     0
 39
0.003
 10
0.204874
 20
-0.095043
 40
0.003
 41
0.003
 10
0.206752
 20
-0.129248
 40
0.003
 41
0.003
  0
LWPOLYLINE
  5
24D
100
AcDbEntity
  8
0
 62
     0
100
AcDbPolyline
 90
        2
 70
     0
 39
0.003
 10
0.206752
 20
-0.129248
 40
0.003
 41
0.003
 10
0.209146
 20
-0.161772
 40
0.003
 41
0.003
  0
LWPOLYLINE
  5
24E
100
AcDbEntity
  8
0
 62
     0
100
AcDbPolyline
 90
        2
 70
     0
 39
0.003
 10
0.209146
 20
-0.161772
 40
0.003
 41
0.003
 10
0.212039
 20
-0.192673
 40
0.003
 41
0.003
  0
LWPOLYLINE
  5
24F
100
AcDbEntity
  8
0
 62
     0
100
AcDbPolyline
 90
        2
 70
     0
 39
0.003
 10
0.212039
 20
-0.192673
 40
0.003
 41
0.003
 10
0.215429
 20
-0.222
 40
0.003
 41
0.003
  0
LWPOLYLINE
  5
250
100
AcDbEntity
  8
0
 62
     0
100
AcDbPolyline
 90
        2
 70
     0
 39
0.003
 10
0.215429
 20
-0.222
 40
0.003
 41
0.003
 10
0.219291
 20
-0.249823
 40
0.003
 41
0.003
  0
LWPOLYLINE
  5
251
100
AcDbEntity
  8
0
 62
     0
100
AcDbPolyline
 90
        2
 70
     0
 39
0.003
 10
0.219291
 20
-0.249823
 40
0.003
 41
0.003
 10
0.223638
 20
-0.276169
 40
0.003
 41
0.003
  0
LWPOLYLINE
  5
252
100
AcDbEntity
  8
0
 62
     0
100
AcDbPolyline
 90
        2
 70
     0
 39
0.003
 10
0.223638
 20
-0.276169
 40
0.003
 41
0.003
 10
0.228437
 20
-0.301106
 40
0.003
 41
0.003
  0
LWPOLYLINE
  5
253
100
AcDbEntity
  8
0
 62
     0
100
AcDbPolyline
 90
        2
 70
     0
 39
0.003
 10
0.228437
 20
-0.301106
 40
0.003
 41
0.003
 10
0.233689
 20
-0.324685
 40
0.003
 41
0.003
  0
LWPOLYLINE
  5
254
100
AcDbEntity
  8
0
 62
     0
100
AcDbPolyline
 90
        2
 70
     0
 39
0.003
 10
0.233689
 20
-0.324685
 40
0.003
 41
0.003
 10
0.239378
 20
-0.346961
 40
0.003
 41
0.003
  0
LWPOLYLINE
  5
255
100
AcDbEntity
  8
0
 62
     0
100
AcDbPolyline
 90
        2
 70
     0
 39
0.003
 10
0.239378
 20
-0.346961
 40
0.003
 41
0.003
 10
0.2455
 20
-0.367976
 40
0.003
 41
0.003
  0
LWPOLYLINE
  5
256
100
AcDbEntity
  8
0
 62
     0
100
AcDbPolyline
 90
        2
 70
     0
 39
0.003
 10
0.2455
 20
-0.367976
 40
0.003
 41
0.003
 10
0.252039
 20
-0.387795
 40
0.003
 41
0.003
  0
LWPOLYLINE
  5
257
100
AcDbEntity
  8
0
 62
     0
100
AcDbPolyline
 90
        2
 70
     0
 39
0.003
 10
0.252039
 20
-0.387795
 40
0.003
 41
0.003
 10
0.258992
 20
-0.406465
 40
0.003
 41
0.003
  0
LWPOLYLINE
  5
258
100
AcDbEntity
  8
0
 62
     0
100
AcDbPolyline
 90
        2
 70
     0
 39
0.003
 10
0.258992
 20
-0.406465
 40
0.003
 41
0.003
 10
0.266335
 20
-0.424043
 40
0.003
 41
0.003
  0
LWPOLYLINE
  5
259
100
AcDbEntity
  8
0
 62
     0
100
AcDbPolyline
 90
        2
 70
     0
 39
0.003
 10
0.266335
 20
-0.424043
 40
0.003
 41
0.003
 10
0.274079
 20
-0.440571
 40
0.003
 41
0.003
  0
LWPOLYLINE
  5
25A
100
AcDbEntity
  8
0
 62
     0
100
AcDbPolyline
 90
        2
 70
     0
 39
0.003
 10
0.274079
 20
-0.440571
 40
0.003
 41
0.003
 10
0.282193
 20
-0.45611
 40
0.003
 41
0.003
  0
LWPOLYLINE
  5
25B
100
AcDbEntity
  8
0
 62
     0
100
AcDbPolyline
 90
        2
 70
     0
 39
0.003
 10
0.282193
 20
-0.45611
 40
0.003
 41
0.003
 10
0.290681
 20
-0.470713
 40
0.003
 41
0.003
  0
LWPOLYLINE
  5
25C
100
AcDbEntity
  8
0
 62
     0
100
AcDbPolyline
 90
        2
 70
     0
 39
0.003
 10
0.290681
 20
-0.470713
 40
0.003
 41
0.003
 10
0.299516
 20
-0.484433
 40
0.003
 41
0.003
  0
LWPOLYLINE
  5
25D
100
AcDbEntity
  8
0
 62
     0
100
AcDbPolyline
 90
        2
 70
     0
 39
0.003
 10
0.299516
 20
-0.484433
 40
0.003
 41
0.003
 10
0.308709
 20
-0.497315
 40
0.003
 41
0.003
  0
LWPOLYLINE
  5
25E
100
AcDbEntity
  8
0
 62
     0
100
AcDbPolyline
 90
        2
 70
     0
 39
0.003
 10
0.308709
 20
-0.497315
 40
0.003
 41
0.003
 10
0.318228
 20
-0.509421
 40
0.003
 41
0.003
  0
LWPOLYLINE
  5
25F
100
AcDbEntity
  8
0
 62
     0
100
AcDbPolyline
 90
        2
 70
     0
 39
0.003
 10
0.318228
 20
-0.509421
 40
0.003
 41
0.003
 10
0.328079
 20
-0.520799
 40
0.003
 41
0.003
  0
LWPOLYLINE
  5
260
100
AcDbEntity
  8
0
 62
     0
100
AcDbPolyline
 90
        2
 70
     0
 39
0.003
 10
0.328079
 20
-0.520799
 40
0.003
 41
0.003
 10
0.338236
 20
-0.531508
 40
0.003
 41
0.003
  0
LWPOLYLINE
  5
261
100
AcDbEntity
  8
0
 62
     0
100
AcDbPolyline
 90
        2
 70
     0
 39
0.003
 10
0.338236
 20
-0.531508
 40
0.003
 41
0.003
 10
0.348705
 20
-0.541587
 40
0.003
 41
0.003
  0
LWPOLYLINE
  5
262
100
AcDbEntity
  8
0
 62
     0
100
AcDbPolyline
 90
        2
 70
     0
 39
0.003
 10
0.348705
 20
-0.541587
 40
0.003
 41
0.003
 10
0.359465
 20
-0.551102
 40
0.003
 41
0.003
  0
LWPOLYLINE
  5
263
100
AcDbEntity
  8
0
 62
     0
100
AcDbPolyline
 90
        2
 70
     0
 39
0.003
 10
0.359465
 20
-0.551102
 40
0.003
 41
0.003
 10
0.370512
 20
-0.560102
 40
0.003
 41
0.003
  0
LWPOLYLINE
  5
264
100
AcDbEntity
  8
0
 62
     0
100
AcDbPolyline
 90
        2
 70
     0
 39
0.003
 10
0.370512
 20
-0.560102
 40
0.003
 41
0.003
 10
0.381839
 20
-0.568642
 40
0.003
 41
0.003
  0
LWPOLYLINE
  5
265
100
AcDbEntity
  8
0
 62
     0
100
AcDbPolyline
 90
        2
 70
     0
 39
0.003
 10
0.381839
 20
-0.568642
 40
0.003
 41
0.003
 10
0.393421
 20
-0.576764
 40
0.003
 41
0.003
  0
LWPOLYLINE
  5
266
100
AcDbEntity
  8
0
 62
     0
100
AcDbPolyline
 90
        2
 70
     0
 39
0.003
 10
0.393421
 20
-0.576764
 40
0.003
 41
0.003
 10
0.405264
 20
-0.584535
 40
0.003
 41
0.003
  0
LWPOLYLINE
  5
267
100
AcDbEntity
  8
0
 62
     0
100
AcDbPolyline
 90
        2
 70
     0
 39
0.003
 10
0.405264
 20
-0.584535
 40
0.003
 41
0.003
 10
0.417346
 20
-0.591996
 40
0.003
 41
0.003
  0
LWPOLYLINE
  5
268
100
AcDbEntity
  8
0
 62
     0
100
AcDbPolyline
 90
        2
 70
     0
 39
0.003
 10
0.417346
 20
-0.591996
 40
0.003
 41
0.003
 10
0.429665
 20
-0.599213
 40
0.003
 41
0.003
  0
LWPOLYLINE
  5
269
100
AcDbEntity
  8
0
 62
     0
100
AcDbPolyline
 90
        2
 70
     0
 39
0.003
 10
0.429665
 20
-0.599213
 40
0.003
 41
0.003
 10
0.441909
 20
-0.606417
 40
0.003
 41
0.003
  0
LWPOLYLINE
  5
26A
100
AcDbEntity
  8
0
 62
     0
100
AcDbPolyline
 90
        2
 70
     0
 39
0.003
 10
0.441909
 20
-0.606417
 40
0.003
 41
0.003
 10
0.453803
 20
-0.613846
 40
0.003
 41
0.003
  0
LWPOLYLINE
  5
26B
100
AcDbEntity
  8
0
 62
     0
100
AcDbPolyline
 90
        2
 70
     0
 39
0.003
 10
0.453803
 20
-0.613846
 40
0.003
 41
0.003
 10
0.465331
 20
-0.621472
 40
0.003
 41
0.003
  0
LWPOLYLINE
  5
26C
100
AcDbEntity
  8
0
 62
     0
100
AcDbPolyline
 90
        2
 70
     0
 39
0.003
 10
0.465331
 20
-0.621472
 40
0.003
 41
0.003
 10
0.476504
 20
-0.629303
 40
0.003
 41
0.003
  0
LWPOLYLINE
  5
26D
100
AcDbEntity
  8
0
 62
     0
100
AcDbPolyline
 90
        2
 70
     0
 39
0.003
 10
0.476504
 20
-0.629303
 40
0.003
 41
0.003
 10
0.487307
 20
-0.637303
 40
0.003
 41
0.003
  0
LWPOLYLINE
  5
26E
100
AcDbEntity
  8
0
 62
     0
100
AcDbPolyline
 90
        2
 70
     0
 39
0.003
 10
0.487307
 20
-0.637303
 40
0.003
 41
0.003
 10
0.497752
 20
-0.645484
 40
0.003
 41
0.003
  0
LWPOLYLINE
  5
26F
100
AcDbEntity
  8
0
 62
     0
100
AcDbPolyline
 90
        2
 70
     0
 39
0.003
 10
0.497752
 20
-0.645484
 40
0.003
 41
0.003
 10
0.507823
 20
-0.653823
 40
0.003
 41
0.003
  0
LWPOLYLINE
  5
270
100
AcDbEntity
  8
0
 62
     0
100
AcDbPolyline
 90
        2
 70
     0
 39
0.003
 10
0.507823
 20
-0.653823
 40
0.003
 41
0.003
 10
0.517531
 20
-0.662319
 40
0.003
 41
0.003
  0
LWPOLYLINE
  5
271
100
AcDbEntity
  8
0
 62
     0
100
AcDbPolyline
 90
        2
 70
     0
 39
0.003
 10
0.517531
 20
-0.662319
 40
0.003
 41
0.003
 10
0.526862
 20
-0.670941
 40
0.003
 41
0.003
  0
LWPOLYLINE
  5
272
100
AcDbEntity
  8
0
 62
     0
100
AcDbPolyline
 90
        2
 70
     0
 39
0.003
 10
0.526862
 20
-0.670941
 40
0.003
 41
0.003
 10
0.535823
 20
-0.679701
 40
0.003
 41
0.003
  0
LWPOLYLINE
  5
273
100
AcDbEntity
  8
0
 62
     0
100
AcDbPolyline
 90
        2
 70
     0
 39
0.003
 10
0.535823
 20
-0.679701
 40
0.003
 41
0.003
 10
0.544402
 20
-0.688575
 40
0.003
 41
0.003
  0
LWPOLYLINE
  5
274
100
AcDbEntity
  8
0
 62
     0
100
AcDbPolyline
 90
        2
 70
     0
 39
0.003
 10
0.544402
 20
-0.688575
 40
0.003
 41
0.003
 10
0.55261
 20
-0.697563
 40
0.003
 41
0.003
  0
LWPOLYLINE
  5
275
100
AcDbEntity
  8
0
 62
     0
100
AcDbPolyline
 90
        2
 70
     0
 39
0.003
 10
0.55261
 20
-0.697563
 40
0.003
 41
0.003
 10
0.560429
 20
-0.706642
 40
0.003
 41
0.003
  0
LWPOLYLINE
  5
276
100
AcDbEntity
  8
0
 62
     0
100
AcDbPolyline
 90
        2
 70
     0
 39
0.003
 10
0.560429
 20
-0.706642
 40
0.003
 41
0.003
 10
0.567878
 20
-0.715811
 40
0.003
 41
0.003
  0
LWPOLYLINE
  5
277
100
AcDbEntity
  8
0
 62
     0
100
AcDbPolyline
 90
        2
 70
     0
 39
0.003
 10
0.567878
 20
-0.715811
 40
0.003
 41
0.003
 10
0.574933
 20
-0.725051
 40
0.003
 41
0.003
  0
LWPOLYLINE
  5
278
100
AcDbEntity
  8
0
 62
     0
100
AcDbPolyline
 90
        2
 70
     0
 39
0.003
 10
0.574933
 20
-0.725051
 40
0.003
 41
0.003
 10
0.58161
 20
-0.734362
 40
0.003
 41
0.003
  0
LWPOLYLINE
  5
279
100
AcDbEntity
  8
0
 62
     0
100
AcDbPolyline
 90
        2
 70
     0
 39
0.003
 10
0.58161
 20
-0.734362
 40
0.003
 41
0.003
 10
0.58789
 20
-0.743717
 40
0.003
 41
0.003
  0
LWPOLYLINE
  5
27A
100
AcDbEntity
  8
0
 62
     0
100
AcDbPolyline
 90
        2
 70
     0
 39
0.003
 10
0.58789
 20
-0.743717
 40
0.003
 41
0.003
 10
0.593783
 20
-0.753122
 40
0.003
 41
0.003
  0
LWPOLYLINE
  5
27B
100
AcDbEntity
  8
0
 62
     0
100
AcDbPolyline
 90
        2
 70
     0
 39
0.003
 10
0.593783
 20
-0.753122
 40
0.003
 41
0.003
 10
0.599283
 20
-0.762555
 40
0.003
 41
0.003
  0
LWPOLYLINE
  5
27C
100
AcDbEntity
  8
0
 62
     0
100
AcDbPolyline
 90
        2
 70
     0
 39
0.003
 10
0.599283
 20
-0.762555
 40
0.003
 41
0.003
 10
0.604394
 20
-0.772016
 40
0.003
 41
0.003
  0
LWPOLYLINE
  5
27D
100
AcDbEntity
  8
0
 62
     0
100
AcDbPolyline
 90
        2
 70
     0
 39
0.003
 10
0.604394
 20
-0.772016
 40
0.003
 41
0.003
 10
0.609102
 20
-0.781476
 40
0.003
 41
0.003
  0
LWPOLYLINE
  5
27E
100
AcDbEntity
  8
0
 62
     0
100
AcDbPolyline
 90
        2
 70
     0
 39
0.003
 10
0.609102
 20
-0.781476
 40
0.003
 41
0.003
 10
0.613417
 20
-0.790945
 40
0.003
 41
0.003
  0
LWPOLYLINE
  5
27F
100
AcDbEntity
  8
0
 62
     0
100
AcDbPolyline
 90
        2
 70
     0
 39
0.003
 10
0.613417
 20
-0.790945
 40
0.003
 41
0.003
 10
0.617327
 20
-0.800402
 40
0.003
 41
0.003
  0
LWPOLYLINE
  5
280
100
AcDbEntity
  8
0
 62
     0
100
AcDbPolyline
 90
        2
 70
     0
 39
0.003
 10
0.617327
 20
-0.800402
 40
0.003
 41
0.003
 10
0.620843
 20
-0.809843
 40
0.003
 41
0.003
  0
LWPOLYLINE
  5
281
100
AcDbEntity
  8
0
 62
     0
100
AcDbPolyline
 90
        2
 70
     0
 39
0.003
 10
0.620843
 20
-0.809843
 40
0.003
 41
0.003
 10
0.623941
 20
-0.81924
 40
0.003
 41
0.003
  0
LWPOLYLINE
  5
282
100
AcDbEntity
  8
0
 62
     0
100
AcDbPolyline
 90
        2
 70
     0
 39
0.003
 10
0.623941
 20
-0.81924
 40
0.003
 41
0.003
 10
0.626642
 20
-0.828606
 40
0.003
 41
0.003
  0
LWPOLYLINE
  5
283
100
AcDbEntity
  8
0
 62
     0
100
AcDbPolyline
 90
        2
 70
     0
 39
0.003
 10
0.626642
 20
-0.828606
 40
0.003
 41
0.003
 10
0.628929
 20
-0.837909
 40
0.003
 41
0.003
  0
LWPOLYLINE
  5
284
100
AcDbEntity
  8
0
 62
     0
100
AcDbPolyline
 90
        2
 70
     0
 39
0.003
 10
0.628929
 20
-0.837909
 40
0.003
 41
0.003
 10
0.630815
 20
-0.847157
 40
0.003
 41
0.003
  0
LWPOLYLINE
  5
285
100
AcDbEntity
  8
0
 62
     0
100
AcDbPolyline
 90
        2
 70
     0
 39
0.003
 10
0.630815
 20
-0.847157
 40
0.003
 41
0.003
 10
0.632276
 20
-0.856319
 40
0.003
 41
0.003
  0
LWPOLYLINE
  5
286
100
AcDbEntity
  8
0
 62
     0
100
AcDbPolyline
 90
        2
 70
     0
 39
0.003
 10
0.632276
 20
-0.856319
 40
0.003
 41
0.003
 10
0.633331
 20
-0.865402
 40
0.003
 41
0.003
  0
LWPOLYLINE
  5
287
100
AcDbEntity
  8
0
 62
     0
100
AcDbPolyline
 90
        2
 70
     0
 39
0.003
 10
0.633331
 20
-0.865402
 40
0.003
 41
0.003
 10
0.633965
 20
-0.874386
 40
0.003
 41
0.003
  0
LWPOLYLINE
  5
288
100
AcDbEntity
  8
0
 62
     0
100
AcDbPolyline
 90
        2
 70
     0
 39
0.003
 10
0.633965
 20
-0.874386
 40
0.003
 41
0.003
 10
0.634185
 20
-0.883268
 40
0.003
 41
0.003
  0
LWPOLYLINE
  5
289
100
AcDbEntity
  8
0
 62
     0
100
AcDbPolyline
 90
        2
 70
     0
 39
0.003
 10
0.634185
 20
-0.883268
 40
0.003
 41
0.003
 10
0.634079
 20
-0.891913
 40
0.003
 41
0.003
  0
LWPOLYLINE
  5
28A
100
AcDbEntity
  8
0
 62
     0
100
AcDbPolyline
 90
        2
 70
     0
 39
0.003
 10
0.634079
 20
-0.891913
 40
0.003
 41
0.003
 10
0.633776
 20
-0.900228
 40
0.003
 41
0.003
  0
LWPOLYLINE
  5
28B
100
AcDbEntity
  8
0
 62
     0
100
AcDbPolyline
 90
        2
 70
     0
 39
0.003
 10
0.633776
 20
-0.900228
 40
0.003
 41
0.003
 10
0.633268
 20
-0.908213
 40
0.003
 41
0.003
  0
LWPOLYLINE
  5
28C
100
AcDbEntity
  8
0
 62
     0
100
AcDbPolyline
 90
        2
 70
     0
 39
0.003
 10
0.633268
 20
-0.908213
 40
0.003
 41
0.003
 10
0.632579
 20
-0.91589
 40
0.003
 41
0.003
  0
LWPOLYLINE
  5
28D
100
AcDbEntity
  8
0
 62
     0
100
AcDbPolyline
 90
        2
 70
     0
 39
0.003
 10
0.632579
 20
-0.91589
 40
0.003
 41
0.003
 10
0.631697
 20
-0.923252
 40
0.003
 41
0.003
  0
LWPOLYLINE
  5
28E
100
AcDbEntity
  8
0
 62
     0
100
AcDbPolyline
 90
        2
 70
     0
 39
0.003
 10
0.631697
 20
-0.923252
 40
0.003
 41
0.003
 10
0.630642
 20
-0.930323
 40
0.003
 41
0.003
  0
LWPOLYLINE
  5
28F
100
AcDbEntity
  8
0
 62
     0
100
AcDbPolyline
 90
        2
 70
     0
 39
0.003
 10
0.630642
 20
-0.930323
 40
0.003
 41
0.003
 10
0.629413
 20
-0.937106
 40
0.003
 41
0.003
  0
LWPOLYLINE
  5
290
100
AcDbEntity
  8
0
 62
     0
100
AcDbPolyline
 90
        2
 70
     0
 39
0.003
 10
0.629413
 20
-0.937106
 40
0.003
 41
0.003
 10
0.628028
 20
-0.943618
 40
0.003
 41
0.003
  0
LWPOLYLINE
  5
291
100
AcDbEntity
  8
0
 62
     0
100
AcDbPolyline
 90
        2
 70
     0
 39
0.003
 10
0.628028
 20
-0.943618
 40
0.003
 41
0.003
 10
0.626469
 20
-0.949854
 40
0.003
 41
0.003
  0
LWPOLYLINE
  5
292
100
AcDbEntity
  8
0
 62
     0
100
AcDbPolyline
 90
        2
 70
     0
 39
0.003
 10
0.626469
 20
-0.949854
 40
0.003
 41
0.003
 10
0.624768
 20
-0.955839
 40
0.003
 41
0.003
  0
LWPOLYLINE
  5
293
100
AcDbEntity
  8
0
 62
     0
100
AcDbPolyline
 90
        2
 70
     0
 39
0.003
 10
0.624768
 20
-0.955839
 40
0.003
 41
0.003
 10
0.622917
 20
-0.961571
 40
0.003
 41
0.003
  0
LWPOLYLINE
  5
294
100
AcDbEntity
  8
0
 62
     0
100
AcDbPolyline
 90
        2
 70
     0
 39
0.003
 10
0.622917
 20
-0.961571
 40
0.003
 41
0.003
 10
0.620933
 20
-0.967075
 40
0.003
 41
0.003
  0
LWPOLYLINE
  5
295
100
AcDbEntity
  8
0
 62
     0
100
AcDbPolyline
 90
        2
 70
     0
 39
0.003
 10
0.620933
 20
-0.967075
 40
0.003
 41
0.003
 10
0.618811
 20
-0.972346
 40
0.003
 41
0.003
  0
LWPOLYLINE
  5
296
100
AcDbEntity
  8
0
 62
     0
100
AcDbPolyline
 90
        2
 70
     0
 39
0.003
 10
0.618811
 20
-0.972346
 40
0.003
 41
0.003
 10
0.616571
 20
-0.977402
 40
0.003
 41
0.003
  0
LWPOLYLINE
  5
297
100
AcDbEntity
  8
0
 62
     0
100
AcDbPolyline
 90
        2
 70
     0
 39
0.003
 10
0.616571
 20
-0.977402
 40
0.003
 41
0.003
 10
0.614209
 20
-0.982248
 40
0.003
 41
0.003
  0
LWPOLYLINE
  5
298
100
AcDbEntity
  8
0
 62
     0
100
AcDbPolyline
 90
        2
 70
     0
 39
0.003
 10
0.614209
 20
-0.982248
 40
0.003
 41
0.003
 10
0.611736
 20
-0.986902
 40
0.003
 41
0.003
  0
LWPOLYLINE
  5
299
100
AcDbEntity
  8
0
 62
     0
100
AcDbPolyline
 90
        2
 70
     0
 39
0.003
 10
0.611736
 20
-0.986902
 40
0.003
 41
0.003
 10
0.60915
 20
-0.991358
 40
0.003
 41
0.003
  0
LWPOLYLINE
  5
29A
100
AcDbEntity
  8
0
 62
     0
100
AcDbPolyline
 90
        2
 70
     0
 39
0.003
 10
0.60915
 20
-0.991358
 40
0.003
 41
0.003
 10
0.606472
 20
-0.995642
 40
0.003
 41
0.003
  0
LWPOLYLINE
  5
29B
100
AcDbEntity
  8
0
 62
     0
100
AcDbPolyline
 90
        2
 70
     0
 39
0.003
 10
0.606472
 20
-0.995642
 40
0.003
 41
0.003
 10
0.603697
 20
-0.999752
 40
0.003
 41
0.003
  0
LWPOLYLINE
  5
29C
100
AcDbEntity
  8
0
 62
     0
100
AcDbPolyline
 90
        2
 70
     0
 39
0.003
 10
0.603697
 20
-0.999752
 40
0.003
 41
0.003
 10
0.600843
 20
-1.003709
 40
0.003
 41
0.003
  0
LWPOLYLINE
  5
29D
100
AcDbEntity
  8
0
 62
     0
100
AcDbPolyline
 90
        2
 70
     0
 39
0.003
 10
0.600843
 20
-1.003709
 40
0.003
 41
0.003
 10
0.597902
 20
-1.007508
 40
0.003
 41
0.003
  0
LWPOLYLINE
  5
29E
100
AcDbEntity
  8
0
 62
     0
100
AcDbPolyline
 90
        2
 70
     0
 39
0.003
 10
0.597902
 20
-1.007508
 40
0.003
 41
0.003
 10
0.59489
 20
-1.011177
 40
0.003
 41
0.003
  0
LWPOLYLINE
  5
29F
100
AcDbEntity
  8
0
 62
     0
100
AcDbPolyline
 90
        2
 70
     0
 39
0.003
 10
0.59489
 20
-1.011177
 40
0.003
 41
0.003
 10
0.591811
 20
-1.014713
 40
0.003
 41
0.003
  0
LWPOLYLINE
  5
2A0
100
AcDbEntity
  8
0
 62
     0
100
AcDbPolyline
 90
        2
 70
     0
 39
0.003
 10
0.591811
 20
-1.014713
 40
0.003
 41
0.003
 10
0.588677
 20
-1.018134
 40
0.003
 41
0.003
  0
LWPOLYLINE
  5
2A1
100
AcDbEntity
  8
0
 62
     0
100
AcDbPolyline
 90
        2
 70
     0
 39
0.003
 10
0.588677
 20
-1.018134
 40
0.003
 41
0.003
 10
0.585484
 20
-1.021437
 40
0.003
 41
0.003
  0
LWPOLYLINE
  5
2A2
100
AcDbEntity
  8
0
 62
     0
100
AcDbPolyline
 90
        2
 70
     0
 39
0.003
 10
0.585484
 20
-1.021437
 40
0.003
 41
0.003
 10
0.582248
 20
-1.024646
 40
0.003
 41
0.003
  0
LWPOLYLINE
  5
2A3
100
AcDbEntity
  8
0
 62
     0
100
AcDbPolyline
 90
        2
 70
     0
 39
0.003
 10
0.582248
 20
-1.024646
 40
0.003
 41
0.003
 10
0.578969
 20
-1.02776
 40
0.003
 41
0.003
  0
LWPOLYLINE
  5
2A4
100
AcDbEntity
  8
0
 62
     0
100
AcDbPolyline
 90
        2
 70
     0
 39
0.003
 10
0.578969
 20
-1.02776
 40
0.003
 41
0.003
 10
0.575661
 20
-1.030799
 40
0.003
 41
0.003
  0
LWPOLYLINE
  5
2A5
100
AcDbEntity
  8
0
 62
     0
100
AcDbPolyline
 90
        2
 70
     0
 39
0.003
 10
0.575661
 20
-1.030799
 40
0.003
 41
0.003
 10
0.572319
 20
-1.033764
 40
0.003
 41
0.003
  0
LWPOLYLINE
  5
2A6
100
AcDbEntity
  8
0
 62
     0
100
AcDbPolyline
 90
        2
 70
     0
 39
0.003
 10
0.572319
 20
-1.033764
 40
0.003
 41
0.003
 10
0.568965
 20
-1.036669
 40
0.003
 41
0.003
  0
LWPOLYLINE
  5
2A7
100
AcDbEntity
  8
0
 62
     0
100
AcDbPolyline
 90
        2
 70
     0
 39
0.003
 10
0.568965
 20
-1.036669
 40
0.003
 41
0.003
 10
0.565594
 20
-1.03952
 40
0.003
 41
0.003
  0
LWPOLYLINE
  5
2A8
100
AcDbEntity
  8
0
 62
     0
100
AcDbPolyline
 90
        2
 70
     0
 39
0.003
 10
0.565594
 20
-1.03952
 40
0.003
 41
0.003
 10
0.562224
 20
-1.042339
 40
0.003
 41
0.003
  0
LWPOLYLINE
  5
2A9
100
AcDbEntity
  8
0
 62
     0
100
AcDbPolyline
 90
        2
 70
     0
 39
0.003
 10
0.562224
 20
-1.042339
 40
0.003
 41
0.003
 10
-0.078902
 20
-1.424925
 40
0.003
 41
0.003
  0
LWPOLYLINE
  5
2AA
100
AcDbEntity
  8
0
 62
     0
100
AcDbPolyline
 90
        2
 70
     0
 39
0.003
 10
-0.078902
 20
-1.424925
 40
0.003
 41
0.003
 10
-0.075531
 20
-1.422106
 40
0.003
 41
0.003
  0
LWPOLYLINE
  5
2AB
100
AcDbEntity
  8
0
 62
     0
100
AcDbPolyline
 90
        2
 70
     0
 39
0.003
 10
-0.075531
 20
-1.422106
 40
0.003
 41
0.003
 10
-0.072161
 20
-1.419256
 40
0.003
 41
0.003
  0
LWPOLYLINE
  5
2AC
100
AcDbEntity
  8
0
 62
     0
100
AcDbPolyline
 90
        2
 70
     0
 39
0.003
 10
-0.072161
 20
-1.419256
 40
0.003
 41
0.003
 10
-0.068807
 20
-1.41635
 40
0.003
 41
0.003
  0
LWPOLYLINE
  5
2AD
100
AcDbEntity
  8
0
 62
     0
100
AcDbPolyline
 90
        2
 70
     0
 39
0.003
 10
-0.068807
 20
-1.41635
 40
0.003
 41
0.003
 10
-0.065465
 20
-1.413386
 40
0.003
 41
0.003
  0
LWPOLYLINE
  5
2AE
100
AcDbEntity
  8
0
 62
     0
100
AcDbPolyline
 90
        2
 70
     0
 39
0.003
 10
-0.065465
 20
-1.413386
 40
0.003
 41
0.003
 10
-0.062157
 20
-1.410346
 40
0.003
 41
0.003
  0
LWPOLYLINE
  5
2AF
100
AcDbEntity
  8
0
 62
     0
100
AcDbPolyline
 90
        2
 70
     0
 39
0.003
 10
-0.062157
 20
-1.410346
 40
0.003
 41
0.003
 10
-0.058878
 20
-1.407232
 40
0.003
 41
0.003
  0
LWPOLYLINE
  5
2B0
100
AcDbEntity
  8
0
 62
     0
100
AcDbPolyline
 90
        2
 70
     0
 39
0.003
 10
-0.058878
 20
-1.407232
 40
0.003
 41
0.003
 10
-0.055642
 20
-1.404024
 40
0.003
 41
0.003
  0
LWPOLYLINE
  5
2B1
100
AcDbEntity
  8
0
 62
     0
100
AcDbPolyline
 90
        2
 70
     0
 39
0.003
 10
-0.055642
 20
-1.404024
 40
0.003
 41
0.003
 10
-0.052449
 20
-1.40072
 40
0.003
 41
0.003
  0
LWPOLYLINE
  5
2B2
100
AcDbEntity
  8
0
 62
     0
100
AcDbPolyline
 90
        2
 70
     0
 39
0.003
 10
-0.052449
 20
-1.40072
 40
0.003
 41
0.003
 10
-0.049315
 20
-1.397299
 40
0.003
 41
0.003
  0
LWPOLYLINE
  5
2B3
100
AcDbEntity
  8
0
 62
     0
100
AcDbPolyline
 90
        2
 70
     0
 39
0.003
 10
-0.049315
 20
-1.397299
 40
0.003
 41
0.003
 10
-0.046236
 20
-1.393764
 40
0.003
 41
0.003
  0
LWPOLYLINE
  5
2B4
100
AcDbEntity
  8
0
 62
     0
100
AcDbPolyline
 90
        2
 70
     0
 39
0.003
 10
-0.046236
 20
-1.393764
 40
0.003
 41
0.003
 10
-0.043224
 20
-1.390094
 40
0.003
 41
0.003
  0
LWPOLYLINE
  5
2B5
100
AcDbEntity
  8
0
 62
     0
100
AcDbPolyline
 90
        2
 70
     0
 39
0.003
 10
-0.043224
 20
-1.390094
 40
0.003
 41
0.003
 10
-0.040283
 20
-1.386295
 40
0.003
 41
0.003
  0
LWPOLYLINE
  5
2B6
100
AcDbEntity
  8
0
 62
     0
100
AcDbPolyline
 90
        2
 70
     0
 39
0.003
 10
-0.040283
 20
-1.386295
 40
0.003
 41
0.003
 10
-0.037429
 20
-1.382339
 40
0.003
 41
0.003
  0
LWPOLYLINE
  5
2B7
100
AcDbEntity
  8
0
 62
     0
100
AcDbPolyline
 90
        2
 70
     0
 39
0.003
 10
-0.037429
 20
-1.382339
 40
0.003
 41
0.003
 10
-0.034654
 20
-1.378228
 40
0.003
 41
0.003
  0
LWPOLYLINE
  5
2B8
100
AcDbEntity
  8
0
 62
     0
100
AcDbPolyline
 90
        2
 70
     0
 39
0.003
 10
-0.034654
 20
-1.378228
 40
0.003
 41
0.003
 10
-0.031976
 20
-1.373945
 40
0.003
 41
0.003
  0
LWPOLYLINE
  5
2B9
100
AcDbEntity
  8
0
 62
     0
100
AcDbPolyline
 90
        2
 70
     0
 39
0.003
 10
-0.031976
 20
-1.373945
 40
0.003
 41
0.003
 10
-0.02939
 20
-1.369488
 40
0.003
 41
0.003
  0
LWPOLYLINE
  5
2BA
100
AcDbEntity
  8
0
 62
     0
100
AcDbPolyline
 90
        2
 70
     0
 39
0.003
 10
-0.02939
 20
-1.369488
 40
0.003
 41
0.003
 10
-0.026917
 20
-1.364835
 40
0.003
 41
0.003
  0
LWPOLYLINE
  5
2BB
100
AcDbEntity
  8
0
 62
     0
100
AcDbPolyline
 90
        2
 70
     0
 39
0.003
 10
-0.026917
 20
-1.364835
 40
0.003
 41
0.003
 10
-0.024555
 20
-1.359988
 40
0.003
 41
0.003
  0
LWPOLYLINE
  5
2BC
100
AcDbEntity
  8
0
 62
     0
100
AcDbPolyline
 90
        2
 70
     0
 39
0.003
 10
-0.024555
 20
-1.359988
 40
0.003
 41
0.003
 10
-0.022315
 20
-1.354933
 40
0.003
 41
0.003
  0
LWPOLYLINE
  5
2BD
100
AcDbEntity
  8
0
 62
     0
100
AcDbPolyline
 90
        2
 70
     0
 39
0.003
 10
-0.022315
 20
-1.354933
 40
0.003
 41
0.003
 10
-0.020193
 20
-1.349661
 40
0.003
 41
0.003
  0
LWPOLYLINE
  5
2BE
100
AcDbEntity
  8
0
 62
     0
100
AcDbPolyline
 90
        2
 70
     0
 39
0.003
 10
-0.020193
 20
-1.349661
 40
0.003
 41
0.003
 10
-0.018209
 20
-1.344157
 40
0.003
 41
0.003
  0
LWPOLYLINE
  5
2BF
100
AcDbEntity
  8
0
 62
     0
100
AcDbPolyline
 90
        2
 70
     0
 39
0.003
 10
-0.018209
 20
-1.344157
 40
0.003
 41
0.003
 10
-0.016358
 20
-1.338425
 40
0.003
 41
0.003
  0
LWPOLYLINE
  5
2C0
100
AcDbEntity
  8
0
 62
     0
100
AcDbPolyline
 90
        2
 70
     0
 39
0.003
 10
-0.016358
 20
-1.338425
 40
0.003
 41
0.003
 10
-0.014657
 20
-1.332441
 40
0.003
 41
0.003
  0
LWPOLYLINE
  5
2C1
100
AcDbEntity
  8
0
 62
     0
100
AcDbPolyline
 90
        2
 70
     0
 39
0.003
 10
-0.014657
 20
-1.332441
 40
0.003
 41
0.003
 10
-0.013098
 20
-1.326205
 40
0.003
 41
0.003
  0
LWPOLYLINE
  5
2C2
100
AcDbEntity
  8
0
 62
     0
100
AcDbPolyline
 90
        2
 70
     0
 39
0.003
 10
-0.013098
 20
-1.326205
 40
0.003
 41
0.003
 10
-0.011713
 20
-1.319693
 40
0.003
 41
0.003
  0
LWPOLYLINE
  5
2C3
100
AcDbEntity
  8
0
 62
     0
100
AcDbPolyline
 90
        2
 70
     0
 39
0.003
 10
-0.011713
 20
-1.319693
 40
0.003
 41
0.003
 10
-0.010484
 20
-1.312909
 40
0.003
 41
0.003
  0
LWPOLYLINE
  5
2C4
100
AcDbEntity
  8
0
 62
     0
100
AcDbPolyline
 90
        2
 70
     0
 39
0.003
 10
-0.010484
 20
-1.312909
 40
0.003
 41
0.003
 10
-0.009429
 20
-1.305839
 40
0.003
 41
0.003
  0
LWPOLYLINE
  5
2C5
100
AcDbEntity
  8
0
 62
     0
100
AcDbPolyline
 90
        2
 70
     0
 39
0.003
 10
-0.009429
 20
-1.305839
 40
0.003
 41
0.003
 10
-0.008547
 20
-1.298476
 40
0.003
 41
0.003
  0
LWPOLYLINE
  5
2C6
100
AcDbEntity
  8
0
 62
     0
100
AcDbPolyline
 90
        2
 70
     0
 39
0.003
 10
-0.008547
 20
-1.298476
 40
0.003
 41
0.003
 10
-0.007858
 20
-1.290799
 40
0.003
 41
0.003
  0
LWPOLYLINE
  5
2C7
100
AcDbEntity
  8
0
 62
     0
100
AcDbPolyline
 90
        2
 70
     0
 39
0.003
 10
-0.007858
 20
-1.290799
 40
0.003
 41
0.003
 10
-0.00735
 20
-1.282815
 40
0.003
 41
0.003
  0
LWPOLYLINE
  5
2C8
100
AcDbEntity
  8
0
 62
     0
100
AcDbPolyline
 90
        2
 70
     0
 39
0.003
 10
-0.00735
 20
-1.282815
 40
0.003
 41
0.003
 10
-0.007047
 20
-1.2745
 40
0.003
 41
0.003
  0
LWPOLYLINE
  5
2C9
100
AcDbEntity
  8
0
 62
     0
100
AcDbPolyline
 90
        2
 70
     0
 39
0.003
 10
-0.007047
 20
-1.2745
 40
0.003
 41
0.003
 10
-0.006941
 20
-1.265854
 40
0.003
 41
0.003
  0
LWPOLYLINE
  5
2CA
100
AcDbEntity
  8
0
 62
     0
100
AcDbPolyline
 90
        2
 70
     0
 39
0.003
 10
-0.006941
 20
-1.265854
 40
0.003
 41
0.003
 10
-0.007161
 20
-1.256972
 40
0.003
 41
0.003
  0
LWPOLYLINE
  5
2CB
100
AcDbEntity
  8
0
 62
     0
100
AcDbPolyline
 90
        2
 70
     0
 39
0.003
 10
-0.007161
 20
-1.256972
 40
0.003
 41
0.003
 10
-0.007795
 20
-1.247988
 40
0.003
 41
0.003
  0
LWPOLYLINE
  5
2CC
100
AcDbEntity
  8
0
 62
     0
100
AcDbPolyline
 90
        2
 70
     0
 39
0.003
 10
-0.007795
 20
-1.247988
 40
0.003
 41
0.003
 10
-0.00885
 20
-1.238906
 40
0.003
 41
0.003
  0
LWPOLYLINE
  5
2CD
100
AcDbEntity
  8
0
 62
     0
100
AcDbPolyline
 90
        2
 70
     0
 39
0.003
 10
-0.00885
 20
-1.238906
 40
0.003
 41
0.003
 10
-0.010311
 20
-1.229744
 40
0.003
 41
0.003
  0
LWPOLYLINE
  5
2CE
100
AcDbEntity
  8
0
 62
     0
100
AcDbPolyline
 90
        2
 70
     0
 39
0.003
 10
-0.010311
 20
-1.229744
 40
0.003
 41
0.003
 10
-0.012197
 20
-1.220496
 40
0.003
 41
0.003
  0
LWPOLYLINE
  5
2CF
100
AcDbEntity
  8
0
 62
     0
100
AcDbPolyline
 90
        2
 70
     0
 39
0.003
 10
-0.012197
 20
-1.220496
 40
0.003
 41
0.003
 10
-0.014484
 20
-1.211193
 40
0.003
 41
0.003
  0
LWPOLYLINE
  5
2D0
100
AcDbEntity
  8
0
 62
     0
100
AcDbPolyline
 90
        2
 70
     0
 39
0.003
 10
-0.014484
 20
-1.211193
 40
0.003
 41
0.003
 10
-0.017185
 20
-1.201827
 40
0.003
 41
0.003
  0
LWPOLYLINE
  5
2D1
100
AcDbEntity
  8
0
 62
     0
100
AcDbPolyline
 90
        2
 70
     0
 39
0.003
 10
-0.017185
 20
-1.201827
 40
0.003
 41
0.003
 10
-0.020283
 20
-1.192429
 40
0.003
 41
0.003
  0
LWPOLYLINE
  5
2D2
100
AcDbEntity
  8
0
 62
     0
100
AcDbPolyline
 90
        2
 70
     0
 39
0.003
 10
-0.020283
 20
-1.192429
 40
0.003
 41
0.003
 10
-0.023799
 20
-1.182988
 40
0.003
 41
0.003
  0
LWPOLYLINE
  5
2D3
100
AcDbEntity
  8
0
 62
     0
100
AcDbPolyline
 90
        2
 70
     0
 39
0.003
 10
-0.023799
 20
-1.182988
 40
0.003
 41
0.003
 10
-0.027709
 20
-1.173531
 40
0.003
 41
0.003
  0
LWPOLYLINE
  5
2D4
100
AcDbEntity
  8
0
 62
     0
100
AcDbPolyline
 90
        2
 70
     0
 39
0.003
 10
-0.027709
 20
-1.173531
 40
0.003
 41
0.003
 10
-0.032024
 20
-1.164063
 40
0.003
 41
0.003
  0
LWPOLYLINE
  5
2D5
100
AcDbEntity
  8
0
 62
     0
100
AcDbPolyline
 90
        2
 70
     0
 39
0.003
 10
-0.032024
 20
-1.164063
 40
0.003
 41
0.003
 10
-0.036732
 20
-1.154602
 40
0.003
 41
0.003
  0
LWPOLYLINE
  5
2D6
100
AcDbEntity
  8
0
 62
     0
100
AcDbPolyline
 90
        2
 70
     0
 39
0.003
 10
-0.036732
 20
-1.154602
 40
0.003
 41
0.003
 10
-0.041843
 20
-1.145142
 40
0.003
 41
0.003
  0
LWPOLYLINE
  5
2D7
100
AcDbEntity
  8
0
 62
     0
100
AcDbPolyline
 90
        2
 70
     0
 39
0.003
 10
-0.041843
 20
-1.145142
 40
0.003
 41
0.003
 10
-0.047343
 20
-1.135709
 40
0.003
 41
0.003
  0
LWPOLYLINE
  5
2D8
100
AcDbEntity
  8
0
 62
     0
100
AcDbPolyline
 90
        2
 70
     0
 39
0.003
 10
-0.047343
 20
-1.135709
 40
0.003
 41
0.003
 10
-0.053236
 20
-1.126303
 40
0.003
 41
0.003
  0
LWPOLYLINE
  5
2D9
100
AcDbEntity
  8
0
 62
     0
100
AcDbPolyline
 90
        2
 70
     0
 39
0.003
 10
-0.053236
 20
-1.126303
 40
0.003
 41
0.003
 10
-0.059516
 20
-1.116949
 40
0.003
 41
0.003
  0
LWPOLYLINE
  5
2DA
100
AcDbEntity
  8
0
 62
     0
100
AcDbPolyline
 90
        2
 70
     0
 39
0.003
 10
-0.059516
 20
-1.116949
 40
0.003
 41
0.003
 10
-0.066193
 20
-1.107638
 40
0.003
 41
0.003
  0
LWPOLYLINE
  5
2DB
100
AcDbEntity
  8
0
 62
     0
100
AcDbPolyline
 90
        2
 70
     0
 39
0.003
 10
-0.066193
 20
-1.107638
 40
0.003
 41
0.003
 10
-0.073248
 20
-1.098398
 40
0.003
 41
0.003
  0
LWPOLYLINE
  5
2DC
100
AcDbEntity
  8
0
 62
     0
100
AcDbPolyline
 90
        2
 70
     0
 39
0.003
 10
-0.073248
 20
-1.098398
 40
0.003
 41
0.003
 10
-0.080697
 20
-1.089228
 40
0.003
 41
0.003
  0
LWPOLYLINE
  5
2DD
100
AcDbEntity
  8
0
 62
     0
100
AcDbPolyline
 90
        2
 70
     0
 39
0.003
 10
-0.080697
 20
-1.089228
 40
0.003
 41
0.003
 10
-0.088516
 20
-1.08015
 40
0.003
 41
0.003
  0
LWPOLYLINE
  5
2DE
100
AcDbEntity
  8
0
 62
     0
100
AcDbPolyline
 90
        2
 70
     0
 39
0.003
 10
-0.088516
 20
-1.08015
 40
0.003
 41
0.003
 10
-0.096724
 20
-1.071161
 40
0.003
 41
0.003
  0
LWPOLYLINE
  5
2DF
100
AcDbEntity
  8
0
 62
     0
100
AcDbPolyline
 90
        2
 70
     0
 39
0.003
 10
-0.096724
 20
-1.071161
 40
0.003
 41
0.003
 10
-0.105303
 20
-1.062287
 40
0.003
 41
0.003
  0
LWPOLYLINE
  5
2E0
100
AcDbEntity
  8
0
 62
     0
100
AcDbPolyline
 90
        2
 70
     0
 39
0.003
 10
-0.105303
 20
-1.062287
 40
0.003
 41
0.003
 10
-0.114264
 20
-1.053528
 40
0.003
 41
0.003
  0
LWPOLYLINE
  5
2E1
100
AcDbEntity
  8
0
 62
     0
100
AcDbPolyline
 90
        2
 70
     0
 39
0.003
 10
-0.114264
 20
-1.053528
 40
0.003
 41
0.003
 10
-0.123594
 20
-1.044906
 40
0.003
 41
0.003
  0
LWPOLYLINE
  5
2E2
100
AcDbEntity
  8
0
 62
     0
100
AcDbPolyline
 90
        2
 70
     0
 39
0.003
 10
-0.123594
 20
-1.044906
 40
0.003
 41
0.003
 10
-0.133303
 20
-1.036409
 40
0.003
 41
0.003
  0
LWPOLYLINE
  5
2E3
100
AcDbEntity
  8
0
 62
     0
100
AcDbPolyline
 90
        2
 70
     0
 39
0.003
 10
-0.133303
 20
-1.036409
 40
0.003
 41
0.003
 10
-0.143374
 20
-1.028071
 40
0.003
 41
0.003
  0
LWPOLYLINE
  5
2E4
100
AcDbEntity
  8
0
 62
     0
100
AcDbPolyline
 90
        2
 70
     0
 39
0.003
 10
-0.143374
 20
-1.028071
 40
0.003
 41
0.003
 10
-0.153819
 20
-1.01989
 40
0.003
 41
0.003
  0
LWPOLYLINE
  5
2E5
100
AcDbEntity
  8
0
 62
     0
100
AcDbPolyline
 90
        2
 70
     0
 39
0.003
 10
-0.153819
 20
-1.01989
 40
0.003
 41
0.003
 10
-0.164622
 20
-1.01189
 40
0.003
 41
0.003
  0
LWPOLYLINE
  5
2E6
100
AcDbEntity
  8
0
 62
     0
100
AcDbPolyline
 90
        2
 70
     0
 39
0.003
 10
-0.164622
 20
-1.01189
 40
0.003
 41
0.003
 10
-0.175795
 20
-1.004059
 40
0.003
 41
0.003
  0
LWPOLYLINE
  5
2E7
100
AcDbEntity
  8
0
 62
     0
100
AcDbPolyline
 90
        2
 70
     0
 39
0.003
 10
-0.175795
 20
-1.004059
 40
0.003
 41
0.003
 10
-0.187323
 20
-0.996433
 40
0.003
 41
0.003
  0
LWPOLYLINE
  5
2E8
100
AcDbEntity
  8
0
 62
     0
100
AcDbPolyline
 90
        2
 70
     0
 39
0.003
 10
-0.187323
 20
-0.996433
 40
0.003
 41
0.003
 10
-0.199217
 20
-0.989004
 40
0.003
 41
0.003
  0
LWPOLYLINE
  5
2E9
100
AcDbEntity
  8
0
 62
     0
100
AcDbPolyline
 90
        2
 70
     0
 39
0.003
 10
-0.199217
 20
-0.989004
 40
0.003
 41
0.003
 10
-0.211461
 20
-0.981799
 40
0.003
 41
0.003
  0
LWPOLYLINE
  5
2EA
100
AcDbEntity
  8
0
 62
     0
100
AcDbPolyline
 90
        2
 70
     0
 39
0.003
 10
-0.211461
 20
-0.981799
 40
0.003
 41
0.003
 10
-0.22378
 20
-0.974583
 40
0.003
 41
0.003
  0
LWPOLYLINE
  5
2EB
100
AcDbEntity
  8
0
 62
     0
100
AcDbPolyline
 90
        2
 70
     0
 39
0.003
 10
-0.22378
 20
-0.974583
 40
0.003
 41
0.003
 10
-0.235862
 20
-0.967122
 40
0.003
 41
0.003
  0
LWPOLYLINE
  5
2EC
100
AcDbEntity
  8
0
 62
     0
100
AcDbPolyline
 90
        2
 70
     0
 39
0.003
 10
-0.235862
 20
-0.967122
 40
0.003
 41
0.003
 10
-0.247705
 20
-0.95935
 40
0.003
 41
0.003
  0
LWPOLYLINE
  5
2ED
100
AcDbEntity
  8
0
 62
     0
100
AcDbPolyline
 90
        2
 70
     0
 39
0.003
 10
-0.247705
 20
-0.95935
 40
0.003
 41
0.003
 10
-0.259287
 20
-0.951228
 40
0.003
 41
0.003
  0
LWPOLYLINE
  5
2EE
100
AcDbEntity
  8
0
 62
     0
100
AcDbPolyline
 90
        2
 70
     0
 39
0.003
 10
-0.259287
 20
-0.951228
 40
0.003
 41
0.003
 10
-0.270614
 20
-0.942689
 40
0.003
 41
0.003
  0
LWPOLYLINE
  5
2EF
100
AcDbEntity
  8
0
 62
     0
100
AcDbPolyline
 90
        2
 70
     0
 39
0.003
 10
-0.270614
 20
-0.942689
 40
0.003
 41
0.003
 10
-0.281661
 20
-0.933689
 40
0.003
 41
0.003
  0
LWPOLYLINE
  5
2F0
100
AcDbEntity
  8
0
 62
     0
100
AcDbPolyline
 90
        2
 70
     0
 39
0.003
 10
-0.281661
 20
-0.933689
 40
0.003
 41
0.003
 10
-0.292421
 20
-0.924173
 40
0.003
 41
0.003
  0
LWPOLYLINE
  5
2F1
100
AcDbEntity
  8
0
 62
     0
100
AcDbPolyline
 90
        2
 70
     0
 39
0.003
 10
-0.292421
 20
-0.924173
 40
0.003
 41
0.003
 10
-0.30289
 20
-0.914094
 40
0.003
 41
0.003
  0
LWPOLYLINE
  5
2F2
100
AcDbEntity
  8
0
 62
     0
100
AcDbPolyline
 90
        2
 70
     0
 39
0.003
 10
-0.30289
 20
-0.914094
 40
0.003
 41
0.003
 10
-0.313047
 20
-0.903386
 40
0.003
 41
0.003
  0
LWPOLYLINE
  5
2F3
100
AcDbEntity
  8
0
 62
     0
100
AcDbPolyline
 90
        2
 70
     0
 39
0.003
 10
-0.313047
 20
-0.903386
 40
0.003
 41
0.003
 10
-0.322898
 20
-0.892008
 40
0.003
 41
0.003
  0
LWPOLYLINE
  5
2F4
100
AcDbEntity
  8
0
 62
     0
100
AcDbPolyline
 90
        2
 70
     0
 39
0.003
 10
-0.322898
 20
-0.892008
 40
0.003
 41
0.003
 10
-0.332417
 20
-0.879902
 40
0.003
 41
0.003
  0
LWPOLYLINE
  5
2F5
100
AcDbEntity
  8
0
 62
     0
100
AcDbPolyline
 90
        2
 70
     0
 39
0.003
 10
-0.332417
 20
-0.879902
 40
0.003
 41
0.003
 10
-0.34161
 20
-0.86702
 40
0.003
 41
0.003
  0
LWPOLYLINE
  5
2F6
100
AcDbEntity
  8
0
 62
     0
100
AcDbPolyline
 90
        2
 70
     0
 39
0.003
 10
-0.34161
 20
-0.86702
 40
0.003
 41
0.003
 10
-0.350445
 20
-0.853299
 40
0.003
 41
0.003
  0
LWPOLYLINE
  5
2F7
100
AcDbEntity
  8
0
 62
     0
100
AcDbPolyline
 90
        2
 70
     0
 39
0.003
 10
-0.350445
 20
-0.853299
 40
0.003
 41
0.003
 10
-0.358933
 20
-0.838697
 40
0.003
 41
0.003
  0
LWPOLYLINE
  5
2F8
100
AcDbEntity
  8
0
 62
     0
100
AcDbPolyline
 90
        2
 70
     0
 39
0.003
 10
-0.358933
 20
-0.838697
 40
0.003
 41
0.003
 10
-0.367047
 20
-0.823157
 40
0.003
 41
0.003
  0
LWPOLYLINE
  5
2F9
100
AcDbEntity
  8
0
 62
     0
100
AcDbPolyline
 90
        2
 70
     0
 39
0.003
 10
-0.367047
 20
-0.823157
 40
0.003
 41
0.003
 10
-0.374791
 20
-0.80663
 40
0.003
 41
0.003
  0
LWPOLYLINE
  5
2FA
100
AcDbEntity
  8
0
 62
     0
100
AcDbPolyline
 90
        2
 70
     0
 39
0.003
 10
-0.374791
 20
-0.80663
 40
0.003
 41
0.003
 10
-0.382134
 20
-0.789051
 40
0.003
 41
0.003
  0
LWPOLYLINE
  5
2FB
100
AcDbEntity
  8
0
 62
     0
100
AcDbPolyline
 90
        2
 70
     0
 39
0.003
 10
-0.382134
 20
-0.789051
 40
0.003
 41
0.003
 10
-0.389087
 20
-0.770382
 40
0.003
 41
0.003
  0
LWPOLYLINE
  5
2FC
100
AcDbEntity
  8
0
 62
     0
100
AcDbPolyline
 90
        2
 70
     0
 39
0.003
 10
-0.389087
 20
-0.770382
 40
0.003
 41
0.003
 10
-0.395626
 20
-0.750563
 40
0.003
 41
0.003
  0
LWPOLYLINE
  5
2FD
100
AcDbEntity
  8
0
 62
     0
100
AcDbPolyline
 90
        2
 70
     0
 39
0.003
 10
-0.395626
 20
-0.750563
 40
0.003
 41
0.003
 10
-0.401748
 20
-0.729547
 40
0.003
 41
0.003
  0
LWPOLYLINE
  5
2FE
100
AcDbEntity
  8
0
 62
     0
100
AcDbPolyline
 90
        2
 70
     0
 39
0.003
 10
-0.401748
 20
-0.729547
 40
0.003
 41
0.003
 10
-0.407437
 20
-0.707272
 40
0.003
 41
0.003
  0
LWPOLYLINE
  5
2FF
100
AcDbEntity
  8
0
 62
     0
100
AcDbPolyline
 90
        2
 70
     0
 39
0.003
 10
-0.407437
 20
-0.707272
 40
0.003
 41
0.003
 10
-0.412689
 20
-0.683693
 40
0.003
 41
0.003
  0
LWPOLYLINE
  5
300
100
AcDbEntity
  8
0
 62
     0
100
AcDbPolyline
 90
        2
 70
     0
 39
0.003
 10
-0.412689
 20
-0.683693
 40
0.003
 41
0.003
 10
-0.417488
 20
-0.658756
 40
0.003
 41
0.003
  0
LWPOLYLINE
  5
301
100
AcDbEntity
  8
0
 62
     0
100
AcDbPolyline
 90
        2
 70
     0
 39
0.003
 10
-0.417488
 20
-0.658756
 40
0.003
 41
0.003
 10
-0.421835
 20
-0.632409
 40
0.003
 41
0.003
  0
LWPOLYLINE
  5
302
100
AcDbEntity
  8
0
 62
     0
100
AcDbPolyline
 90
        2
 70
     0
 39
0.003
 10
-0.421835
 20
-0.632409
 40
0.003
 41
0.003
 10
-0.425697
 20
-0.604587
 40
0.003
 41
0.003
  0
LWPOLYLINE
  5
303
100
AcDbEntity
  8
0
 62
     0
100
AcDbPolyline
 90
        2
 70
     0
 39
0.003
 10
-0.425697
 20
-0.604587
 40
0.003
 41
0.003
 10
-0.429087
 20
-0.57526
 40
0.003
 41
0.003
  0
LWPOLYLINE
  5
304
100
AcDbEntity
  8
0
 62
     0
100
AcDbPolyline
 90
        2
 70
     0
 39
0.003
 10
-0.429087
 20
-0.57526
 40
0.003
 41
0.003
 10
-0.43198
 20
-0.544358
 40
0.003
 41
0.003
  0
LWPOLYLINE
  5
305
100
AcDbEntity
  8
0
 62
     0
100
AcDbPolyline
 90
        2
 70
     0
 39
0.003
 10
-0.43198
 20
-0.544358
 40
0.003
 41
0.003
 10
-0.434374
 20
-0.511835
 40
0.003
 41
0.003
  0
LWPOLYLINE
  5
306
100
AcDbEntity
  8
0
 62
     0
100
AcDbPolyline
 90
        2
 70
     0
 39
0.003
 10
-0.434374
 20
-0.511835
 40
0.003
 41
0.003
 10
-0.436252
 20
-0.47763
 40
0.003
 41
0.003
  0
LWPOLYLINE
  5
307
100
AcDbEntity
  8
0
 62
     0
100
AcDbPolyline
 90
        2
 70
     0
 39
0.003
 10
-0.436252
 20
-0.47763
 40
0.003
 41
0.003
 10
-0.437606
 20
-0.441701
 40
0.003
 41
0.003
  0
LWPOLYLINE
  5
308
100
AcDbEntity
  8
0
 62
     0
100
AcDbPolyline
 90
        2
 70
     0
 39
0.003
 10
-0.437606
 20
-0.441701
 40
0.003
 41
0.003
 10
-0.438425
 20
-0.403992
 40
0.003
 41
0.003
  0
LWPOLYLINE
  5
309
100
AcDbEntity
  8
0
 62
     0
100
AcDbPolyline
 90
        2
 70
     0
 39
0.003
 10
-0.438425
 20
-0.403992
 40
0.003
 41
0.003
 10
-0.438705
 20
-0.364453
 40
0.003
 41
0.003
  0
LWPOLYLINE
  5
30A
100
AcDbEntity
  8
0
 62
     0
100
AcDbPolyline
 90
        2
 70
     0
 39
0.003
 10
-0.438705
 20
-0.364453
 40
0.003
 41
0.003
 10
-0.438925
 20
-0.324689
 40
0.003
 41
0.003
  0
LWPOLYLINE
  5
30B
100
AcDbEntity
  8
0
 62
     0
100
AcDbPolyline
 90
        2
 70
     0
 39
0.003
 10
-0.438925
 20
-0.324689
 40
0.003
 41
0.003
 10
-0.439622
 20
-0.286362
 40
0.003
 41
0.003
  0
LWPOLYLINE
  5
30C
100
AcDbEntity
  8
0
 62
     0
100
AcDbPolyline
 90
        2
 70
     0
 39
0.003
 10
-0.439622
 20
-0.286362
 40
0.003
 41
0.003
 10
-0.440807
 20
-0.249453
 40
0.003
 41
0.003
  0
LWPOLYLINE
  5
30D
100
AcDbEntity
  8
0
 62
     0
100
AcDbPolyline
 90
        2
 70
     0
 39
0.003
 10
-0.440807
 20
-0.249453
 40
0.003
 41
0.003
 10
-0.442512
 20
-0.213957
 40
0.003
 41
0.003
  0
LWPOLYLINE
  5
30E
100
AcDbEntity
  8
0
 62
     0
100
AcDbPolyline
 90
        2
 70
     0
 39
0.003
 10
-0.442512
 20
-0.213957
 40
0.003
 41
0.003
 10
-0.444748
 20
-0.179854
 40
0.003
 41
0.003
  0
LWPOLYLINE
  5
30F
100
AcDbEntity
  8
0
 62
     0
100
AcDbPolyline
 90
        2
 70
     0
 39
0.003
 10
-0.444748
 20
-0.179854
 40
0.003
 41
0.003
 10
-0.447563
 20
-0.147142
 40
0.003
 41
0.003
  0
LWPOLYLINE
  5
310
100
AcDbEntity
  8
0
 62
     0
100
AcDbPolyline
 90
        2
 70
     0
 39
0.003
 10
-0.447563
 20
-0.147142
 40
0.003
 41
0.003
 10
-0.450957
 20
-0.115807
 40
0.003
 41
0.003
  0
LWPOLYLINE
  5
311
100
AcDbEntity
  8
0
 62
     0
100
AcDbPolyline
 90
        2
 70
     0
 39
0.003
 10
-0.450957
 20
-0.115807
 40
0.003
 41
0.003
 10
-0.454976
 20
-0.085839
 40
0.003
 41
0.003
  0
LWPOLYLINE
  5
312
100
AcDbEntity
  8
0
 62
     0
100
AcDbPolyline
 90
        2
 70
     0
 39
0.003
 10
-0.454976
 20
-0.085839
 40
0.003
 41
0.003
 10
-0.459622
 20
-0.057217
 40
0.003
 41
0.003
  0
LWPOLYLINE
  5
313
100
AcDbEntity
  8
0
 62
     0
100
AcDbPolyline
 90
        2
 70
     0
 39
0.003
 10
-0.459622
 20
-0.057217
 40
0.003
 41
0.003
 10
-0.464937
 20
-0.029941
 40
0.003
 41
0.003
  0
LWPOLYLINE
  5
314
100
AcDbEntity
  8
0
 62
     0
100
AcDbPolyline
 90
        2
 70
     0
 39
0.003
 10
-0.464937
 20
-0.029941
 40
0.003
 41
0.003
 10
-0.470933
 20
-0.003992
 40
0.003
 41
0.003
  0
LWPOLYLINE
  5
315
100
AcDbEntity
  8
0
 62
     0
100
AcDbPolyline
 90
        2
 70
     0
 39
0.003
 10
-0.470933
 20
-0.003992
 40
0.003
 41
0.003
 10
-0.477646
 20
0.020626
 40
0.003
 41
0.003
  0
LWPOLYLINE
  5
316
100
AcDbEntity
  8
0
 62
     0
100
AcDbPolyline
 90
        2
 70
     0
 39
0.003
 10
-0.477646
 20
0.020626
 40
0.003
 41
0.003
 10
-0.485091
 20
0.043941
 40
0.003
 41
0.003
  0
LWPOLYLINE
  5
317
100
AcDbEntity
  8
0
 62
     0
100
AcDbPolyline
 90
        2
 70
     0
 39
0.003
 10
-0.485091
 20
0.043941
 40
0.003
 41
0.003
 10
-0.493295
 20
0.065949
 40
0.003
 41
0.003
  0
LWPOLYLINE
  5
318
100
AcDbEntity
  8
0
 62
     0
100
AcDbPolyline
 90
        2
 70
     0
 39
0.003
 10
-0.493295
 20
0.065949
 40
0.003
 41
0.003
 10
-0.502283
 20
0.086673
 40
0.003
 41
0.003
  0
LWPOLYLINE
  5
319
100
AcDbEntity
  8
0
 62
     0
100
AcDbPolyline
 90
        2
 70
     0
 39
0.003
 10
-0.502283
 20
0.086673
 40
0.003
 41
0.003
 10
-0.512083
 20
0.10613
 40
0.003
 41
0.003
  0
LWPOLYLINE
  5
31A
100
AcDbEntity
  8
0
 62
     0
100
AcDbPolyline
 90
        2
 70
     0
 39
0.003
 10
-0.512083
 20
0.10613
 40
0.003
 41
0.003
 10
-0.522705
 20
0.124311
 40
0.003
 41
0.003
  0
LWPOLYLINE
  5
31B
100
AcDbEntity
  8
0
 62
     0
100
AcDbPolyline
 90
        2
 70
     0
 39
0.003
 10
-0.522705
 20
0.124311
 40
0.003
 41
0.003
 10
-0.534189
 20
0.141248
 40
0.003
 41
0.003
  0
LWPOLYLINE
  5
31C
100
AcDbEntity
  8
0
 62
     0
100
AcDbPolyline
 90
        2
 70
     0
 39
0.003
 10
-0.534189
 20
0.141248
 40
0.003
 41
0.003
 10
-0.546555
 20
0.156937
 40
0.003
 41
0.003
  0
LWPOLYLINE
  5
31D
100
AcDbEntity
  8
0
 62
     0
100
AcDbPolyline
 90
        2
 70
     0
 39
0.003
 10
-0.546555
 20
0.156937
 40
0.003
 41
0.003
 10
-0.559827
 20
0.171398
 40
0.003
 41
0.003
  0
LWPOLYLINE
  5
31E
100
AcDbEntity
  8
0
 62
     0
100
AcDbPolyline
 90
        2
 70
     0
 39
0.003
 10
-0.559827
 20
0.171398
 40
0.003
 41
0.003
 10
-0.574024
 20
0.184634
 40
0.003
 41
0.003
  0
LWPOLYLINE
  5
31F
100
AcDbEntity
  8
0
 62
     0
100
AcDbPolyline
 90
        2
 70
     0
 39
0.003
 10
-0.574024
 20
0.184634
 40
0.003
 41
0.003
 10
-0.589181
 20
0.196665
 40
0.003
 41
0.003
  0
LWPOLYLINE
  5
320
100
AcDbEntity
  8
0
 62
     0
100
AcDbPolyline
 90
        2
 70
     0
 39
0.003
 10
-0.589181
 20
0.196665
 40
0.003
 41
0.003
 10
-0.605311
 20
0.207496
 40
0.003
 41
0.003
  0
LWPOLYLINE
  5
321
100
AcDbEntity
  8
0
 62
     0
100
AcDbPolyline
 90
        2
 70
     0
 39
0.003
 10
-0.605311
 20
0.207496
 40
0.003
 41
0.003
 10
-0.622449
 20
0.217146
 40
0.003
 41
0.003
  0
LWPOLYLINE
  5
322
100
AcDbEntity
  8
0
 62
     0
100
AcDbPolyline
 90
        2
 70
     0
 39
0.003
 10
-0.622449
 20
0.217146
 40
0.003
 41
0.003
 10
-0.640602
 20
0.22561
 40
0.003
 41
0.003
  0
LWPOLYLINE
  5
323
100
AcDbEntity
  8
0
 62
     0
100
AcDbPolyline
 90
        2
 70
     0
 39
0.003
 10
-0.640602
 20
0.22561
 40
0.003
 41
0.003
 10
-0.659815
 20
0.232913
 40
0.003
 41
0.003
  0
LWPOLYLINE
  5
324
100
AcDbEntity
  8
0
 62
     0
100
AcDbPolyline
 90
        2
 70
     0
 39
0.003
 10
-0.659815
 20
0.232913
 40
0.003
 41
0.003
 10
-0.680098
 20
0.239059
 40
0.003
 41
0.003
  0
LWPOLYLINE
  5
325
100
AcDbEntity
  8
0
 62
     0
100
AcDbPolyline
 90
        2
 70
     0
 39
0.003
 10
-0.680098
 20
0.239059
 40
0.003
 41
0.003
 10
-0.701488
 20
0.244071
 40
0.003
 41
0.003
  0
LWPOLYLINE
  5
326
100
AcDbEntity
  8
0
 62
     0
100
AcDbPolyline
 90
        2
 70
     0
 39
0.003
 10
-0.701488
 20
0.244071
 40
0.003
 41
0.003
 10
-0.723992
 20
0.247945
 40
0.003
 41
0.003
  0
LWPOLYLINE
  5
327
100
AcDbEntity
  8
0
 62
     0
100
AcDbPolyline
 90
        2
 70
     0
 39
0.003
 10
-0.723992
 20
0.247945
 40
0.003
 41
0.003
 10
-0.74765
 20
0.250701
 40
0.003
 41
0.003
  0
LWPOLYLINE
  5
328
100
AcDbEntity
  8
0
 62
     0
100
AcDbPolyline
 90
        2
 70
     0
 39
0.003
 10
-0.74765
 20
0.250701
 40
0.003
 41
0.003
 10
-0.772476
 20
0.252343
 40
0.003
 41
0.003
  0
LWPOLYLINE
  5
329
100
AcDbEntity
  8
0
 62
     0
100
AcDbPolyline
 90
        2
 70
     0
 39
0.003
 10
-0.772476
 20
0.252343
 40
0.003
 41
0.003
 10
-0.798508
 20
0.252894
 40
0.003
 41
0.003
  0
LWPOLYLINE
  5
32A
100
AcDbEntity
  8
0
 62
   253
100
AcDbPolyline
 90
        2
 70
     0
 39
0.003
 10
-0.798508
 20
0.252894
 40
0.003
 41
0.003
 10
-0.157382
 20
0.63548
 40
0.003
 41
0.003
  0
LWPOLYLINE
  5
32B
100
AcDbEntity
  8
0
 62
   253
100
AcDbPolyline
 90
        2
 70
     0
 39
0.003
 10
-0.157382
 20
0.63548
 40
0.003
 41
0.003
 10
-0.13135
 20
0.634929
 40
0.003
 41
0.003
  0
LWPOLYLINE
  5
32C
100
AcDbEntity
  8
0
 62
   253
100
AcDbPolyline
 90
        2
 70
     0
 39
0.003
 10
-0.13135
 20
0.634929
 40
0.003
 41
0.003
 10
-0.772476
 20
0.252343
 40
0.003
 41
0.003
  0
LWPOLYLINE
  5
32D
100
AcDbEntity
  8
0
 62
   253
100
AcDbPolyline
 90
        2
 70
     0
 39
0.003
 10
-0.772476
 20
0.252343
 40
0.003
 41
0.003
 10
-0.798508
 20
0.252894
 40
0.003
 41
0.003
  0
LWPOLYLINE
  5
32E
100
AcDbEntity
  8
0
 62
   253
100
AcDbPolyline
 90
        2
 70
     0
 39
0.003
 10
-0.772476
 20
0.252343
 40
0.003
 41
0.003
 10
-0.13135
 20
0.634929
 40
0.003
 41
0.003
  0
LWPOLYLINE
  5
32F
100
AcDbEntity
  8
0
 62
   253
100
AcDbPolyline
 90
        2
 70
     0
 39
0.003
 10
-0.13135
 20
0.634929
 40
0.003
 41
0.003
 10
-0.106524
 20
0.633287
 40
0.003
 41
0.003
  0
LWPOLYLINE
  5
330
100
AcDbEntity
  8
0
 62
   253
100
AcDbPolyline
 90
        2
 70
     0
 39
0.003
 10
-0.106524
 20
0.633287
 40
0.003
 41
0.003
 10
-0.74765
 20
0.250701
 40
0.003
 41
0.003
  0
LWPOLYLINE
  5
331
100
AcDbEntity
  8
0
 62
   253
100
AcDbPolyline
 90
        2
 70
     0
 39
0.003
 10
-0.74765
 20
0.250701
 40
0.003
 41
0.003
 10
-0.772476
 20
0.252343
 40
0.003
 41
0.003
  0
LWPOLYLINE
  5
332
100
AcDbEntity
  8
0
 62
   253
100
AcDbPolyline
 90
        2
 70
     0
 39
0.003
 10
-0.74765
 20
0.250701
 40
0.003
 41
0.003
 10
-0.106524
 20
0.633287
 40
0.003
 41
0.003
  0
LWPOLYLINE
  5
333
100
AcDbEntity
  8
0
 62
   253
100
AcDbPolyline
 90
        2
 70
     0
 39
0.003
 10
-0.106524
 20
0.633287
 40
0.003
 41
0.003
 10
-0.082866
 20
0.630531
 40
0.003
 41
0.003
  0
LWPOLYLINE
  5
334
100
AcDbEntity
  8
0
 62
   253
100
AcDbPolyline
 90
        2
 70
     0
 39
0.003
 10
-0.082866
 20
0.630531
 40
0.003
 41
0.003
 10
-0.723992
 20
0.247945
 40
0.003
 41
0.003
  0
LWPOLYLINE
  5
335
100
AcDbEntity
  8
0
 62
   253
100
AcDbPolyline
 90
        2
 70
     0
 39
0.003
 10
-0.723992
 20
0.247945
 40
0.003
 41
0.003
 10
-0.74765
 20
0.250701
 40
0.003
 41
0.003
  0
LWPOLYLINE
  5
336
100
AcDbEntity
  8
0
 62
     9
100
AcDbPolyline
 90
        2
 70
     0
 39
0.003
 10
-0.723992
 20
0.247945
 40
0.003
 41
0.003
 10
-0.082866
 20
0.630531
 40
0.003
 41
0.003
  0
LWPOLYLINE
  5
337
100
AcDbEntity
  8
0
 62
     9
100
AcDbPolyline
 90
        2
 70
     0
 39
0.003
 10
-0.082866
 20
0.630531
 40
0.003
 41
0.003
 10
-0.060362
 20
0.626657
 40
0.003
 41
0.003
  0
LWPOLYLINE
  5
338
100
AcDbEntity
  8
0
 62
     9
100
AcDbPolyline
 90
        2
 70
     0
 39
0.003
 10
-0.060362
 20
0.626657
 40
0.003
 41
0.003
 10
-0.701488
 20
0.244071
 40
0.003
 41
0.003
  0
LWPOLYLINE
  5
339
100
AcDbEntity
  8
0
 62
     9
100
AcDbPolyline
 90
        2
 70
     0
 39
0.003
 10
-0.701488
 20
0.244071
 40
0.003
 41
0.003
 10
-0.723992
 20
0.247945
 40
0.003
 41
0.003
  0
LWPOLYLINE
  5
33A
100
AcDbEntity
  8
0
 62
     9
100
AcDbPolyline
 90
        2
 70
     0
 39
0.003
 10
-0.701488
 20
0.244071
 40
0.003
 41
0.003
 10
-0.060362
 20
0.626657
 40
0.003
 41
0.003
  0
LWPOLYLINE
  5
33B
100
AcDbEntity
  8
0
 62
     9
100
AcDbPolyline
 90
        2
 70
     0
 39
0.003
 10
-0.060362
 20
0.626657
 40
0.003
 41
0.003
 10
-0.038972
 20
0.621646
 40
0.003
 41
0.003
  0
LWPOLYLINE
  5
33C
100
AcDbEntity
  8
0
 62
     9
100
AcDbPolyline
 90
        2
 70
     0
 39
0.003
 10
-0.038972
 20
0.621646
 40
0.003
 41
0.003
 10
-0.680098
 20
0.239059
 40
0.003
 41
0.003
  0
LWPOLYLINE
  5
33D
100
AcDbEntity
  8
0
 62
     9
100
AcDbPolyline
 90
        2
 70
     0
 39
0.003
 10
-0.680098
 20
0.239059
 40
0.003
 41
0.003
 10
-0.701488
 20
0.244071
 40
0.003
 41
0.003
  0
LWPOLYLINE
  5
33E
100
AcDbEntity
  8
0
 62
     9
100
AcDbPolyline
 90
        2
 70
     0
 39
0.003
 10
-0.680098
 20
0.239059
 40
0.003
 41
0.003
 10
-0.038972
 20
0.621646
 40
0.003
 41
0.003
  0
LWPOLYLINE
  5
33F
100
AcDbEntity
  8
0
 62
     9
100
AcDbPolyline
 90
        2
 70
     0
 39
0.003
 10
-0.038972
 20
0.621646
 40
0.003
 41
0.003
 10
-0.018689
 20
0.6155
 40
0.003
 41
0.003
  0
LWPOLYLINE
  5
340
100
AcDbEntity
  8
0
 62
     9
100
AcDbPolyline
 90
        2
 70
     0
 39
0.003
 10
-0.018689
 20
0.6155
 40
0.003
 41
0.003
 10
-0.659815
 20
0.232913
 40
0.003
 41
0.003
  0
LWPOLYLINE
  5
341
100
AcDbEntity
  8
0
 62
     9
100
AcDbPolyline
 90
        2
 70
     0
 39
0.003
 10
-0.659815
 20
0.232913
 40
0.003
 41
0.003
 10
-0.680098
 20
0.239059
 40
0.003
 41
0.003
  0
LWPOLYLINE
  5
342
100
AcDbEntity
  8
0
 62
     9
100
AcDbPolyline
 90
        2
 70
     0
 39
0.003
 10
-0.659815
 20
0.232913
 40
0.003
 41
0.003
 10
-0.018689
 20
0.6155
 40
0.003
 41
0.003
  0
LWPOLYLINE
  5
343
100
AcDbEntity
  8
0
 62
     9
100
AcDbPolyline
 90
        2
 70
     0
 39
0.003
 10
-0.018689
 20
0.6155
 40
0.003
 41
0.003
 10
0.000524
 20
0.608197
 40
0.003
 41
0.003
  0
LWPOLYLINE
  5
344
100
AcDbEntity
  8
0
 62
     9
100
AcDbPolyline
 90
        2
 70
     0
 39
0.003
 10
0.000524
 20
0.608197
 40
0.003
 41
0.003
 10
-0.640602
 20
0.22561
 40
0.003
 41
0.003
  0
LWPOLYLINE
  5
345
100
AcDbEntity
  8
0
 62
     9
100
AcDbPolyline
 90
        2
 70
     0
 39
0.003
 10
-0.640602
 20
0.22561
 40
0.003
 41
0.003
 10
-0.659815
 20
0.232913
 40
0.003
 41
0.003
  0
LWPOLYLINE
  5
346
100
AcDbEntity
  8
0
 62
     9
100
AcDbPolyline
 90
        2
 70
     0
 39
0.003
 10
-0.640602
 20
0.22561
 40
0.003
 41
0.003
 10
0.000524
 20
0.608197
 40
0.003
 41
0.003
  0
LWPOLYLINE
  5
347
100
AcDbEntity
  8
0
 62
     9
100
AcDbPolyline
 90
        2
 70
     0
 39
0.003
 10
0.000524
 20
0.608197
 40
0.003
 41
0.003
 10
0.018677
 20
0.599732
 40
0.003
 41
0.003
  0
LWPOLYLINE
  5
348
100
AcDbEntity
  8
0
 62
     9
100
AcDbPolyline
 90
        2
 70
     0
 39
0.003
 10
0.018677
 20
0.599732
 40
0.003
 41
0.003
 10
-0.622449
 20
0.217146
 40
0.003
 41
0.003
  0
LWPOLYLINE
  5
349
100
AcDbEntity
  8
0
 62
     9
100
AcDbPolyline
 90
        2
 70
     0
 39
0.003
 10
-0.622449
 20
0.217146
 40
0.003
 41
0.003
 10
-0.640602
 20
0.22561
 40
0.003
 41
0.003
  0
LWPOLYLINE
  5
34A
100
AcDbEntity
  8
0
 62
     9
100
AcDbPolyline
 90
        2
 70
     0
 39
0.003
 10
-0.622449
 20
0.217146
 40
0.003
 41
0.003
 10
0.018677
 20
0.599732
 40
0.003
 41
0.003
  0
LWPOLYLINE
  5
34B
100
AcDbEntity
  8
0
 62
     9
100
AcDbPolyline
 90
        2
 70
     0
 39
0.003
 10
0.018677
 20
0.599732
 40
0.003
 41
0.003
 10
0.035815
 20
0.590083
 40
0.003
 41
0.003
  0
LWPOLYLINE
  5
34C
100
AcDbEntity
  8
0
 62
     9
100
AcDbPolyline
 90
        2
 70
     0
 39
0.003
 10
0.035815
 20
0.590083
 40
0.003
 41
0.003
 10
-0.605311
 20
0.207496
 40
0.003
 41
0.003
  0
LWPOLYLINE
  5
34D
100
AcDbEntity
  8
0
 62
     9
100
AcDbPolyline
 90
        2
 70
     0
 39
0.003
 10
-0.605311
 20
0.207496
 40
0.003
 41
0.003
 10
-0.622449
 20
0.217146
 40
0.003
 41
0.003
  0
LWPOLYLINE
  5
34E
100
AcDbEntity
  8
0
 62
     9
100
AcDbPolyline
 90
        2
 70
     0
 39
0.003
 10
-0.605311
 20
0.207496
 40
0.003
 41
0.003
 10
0.035815
 20
0.590083
 40
0.003
 41
0.003
  0
LWPOLYLINE
  5
34F
100
AcDbEntity
  8
0
 62
     9
100
AcDbPolyline
 90
        2
 70
     0
 39
0.003
 10
0.035815
 20
0.590083
 40
0.003
 41
0.003
 10
0.051945
 20
0.579252
 40
0.003
 41
0.003
  0
LWPOLYLINE
  5
350
100
AcDbEntity
  8
0
 62
     9
100
AcDbPolyline
 90
        2
 70
     0
 39
0.003
 10
0.051945
 20
0.579252
 40
0.003
 41
0.003
 10
-0.589181
 20
0.196665
 40
0.003
 41
0.003
  0
LWPOLYLINE
  5
351
100
AcDbEntity
  8
0
 62
     9
100
AcDbPolyline
 90
        2
 70
     0
 39
0.003
 10
-0.589181
 20
0.196665
 40
0.003
 41
0.003
 10
-0.605311
 20
0.207496
 40
0.003
 41
0.003
  0
LWPOLYLINE
  5
352
100
AcDbEntity
  8
0
 62
     9
100
AcDbPolyline
 90
        2
 70
     0
 39
0.003
 10
-0.589181
 20
0.196665
 40
0.003
 41
0.003
 10
0.051945
 20
0.579252
 40
0.003
 41
0.003
  0
LWPOLYLINE
  5
353
100
AcDbEntity
  8
0
 62
     9
100
AcDbPolyline
 90
        2
 70
     0
 39
0.003
 10
0.051945
 20
0.579252
 40
0.003
 41
0.003
 10
0.067102
 20
0.56722
 40
0.003
 41
0.003
  0
LWPOLYLINE
  5
354
100
AcDbEntity
  8
0
 62
     9
100
AcDbPolyline
 90
        2
 70
     0
 39
0.003
 10
0.067102
 20
0.56722
 40
0.003
 41
0.003
 10
-0.574024
 20
0.184634
 40
0.003
 41
0.003
  0
LWPOLYLINE
  5
355
100
AcDbEntity
  8
0
 62
     9
100
AcDbPolyline
 90
        2
 70
     0
 39
0.003
 10
-0.574024
 20
0.184634
 40
0.003
 41
0.003
 10
-0.589181
 20
0.196665
 40
0.003
 41
0.003
  0
LWPOLYLINE
  5
356
100
AcDbEntity
  8
0
 62
     9
100
AcDbPolyline
 90
        2
 70
     0
 39
0.003
 10
-0.574024
 20
0.184634
 40
0.003
 41
0.003
 10
0.067102
 20
0.56722
 40
0.003
 41
0.003
  0
LWPOLYLINE
  5
357
100
AcDbEntity
  8
0
 62
     9
100
AcDbPolyline
 90
        2
 70
     0
 39
0.003
 10
0.067102
 20
0.56722
 40
0.003
 41
0.003
 10
0.081299
 20
0.553984
 40
0.003
 41
0.003
  0
LWPOLYLINE
  5
358
100
AcDbEntity
  8
0
 62
     9
100
AcDbPolyline
 90
        2
 70
     0
 39
0.003
 10
0.081299
 20
0.553984
 40
0.003
 41
0.003
 10
-0.559827
 20
0.171398
 40
0.003
 41
0.003
  0
LWPOLYLINE
  5
359
100
AcDbEntity
  8
0
 62
     9
100
AcDbPolyline
 90
        2
 70
     0
 39
0.003
 10
-0.559827
 20
0.171398
 40
0.003
 41
0.003
 10
-0.574024
 20
0.184634
 40
0.003
 41
0.003
  0
LWPOLYLINE
  5
35A
100
AcDbEntity
  8
0
 62
     9
100
AcDbPolyline
 90
        2
 70
     0
 39
0.003
 10
-0.559827
 20
0.171398
 40
0.003
 41
0.003
 10
0.081299
 20
0.553984
 40
0.003
 41
0.003
  0
LWPOLYLINE
  5
35B
100
AcDbEntity
  8
0
 62
     9
100
AcDbPolyline
 90
        2
 70
     0
 39
0.003
 10
0.081299
 20
0.553984
 40
0.003
 41
0.003
 10
0.094571
 20
0.539524
 40
0.003
 41
0.003
  0
LWPOLYLINE
  5
35C
100
AcDbEntity
  8
0
 62
     9
100
AcDbPolyline
 90
        2
 70
     0
 39
0.003
 10
0.094571
 20
0.539524
 40
0.003
 41
0.003
 10
-0.546555
 20
0.156937
 40
0.003
 41
0.003
  0
LWPOLYLINE
  5
35D
100
AcDbEntity
  8
0
 62
     9
100
AcDbPolyline
 90
        2
 70
     0
 39
0.003
 10
-0.546555
 20
0.156937
 40
0.003
 41
0.003
 10
-0.559827
 20
0.171398
 40
0.003
 41
0.003
  0
LWPOLYLINE
  5
35E
100
AcDbEntity
  8
0
 62
     9
100
AcDbPolyline
 90
        2
 70
     0
 39
0.003
 10
-0.546555
 20
0.156937
 40
0.003
 41
0.003
 10
0.094571
 20
0.539524
 40
0.003
 41
0.003
  0
LWPOLYLINE
  5
35F
100
AcDbEntity
  8
0
 62
     9
100
AcDbPolyline
 90
        2
 70
     0
 39
0.003
 10
0.094571
 20
0.539524
 40
0.003
 41
0.003
 10
0.106937
 20
0.523835
 40
0.003
 41
0.003
  0
LWPOLYLINE
  5
360
100
AcDbEntity
  8
0
 62
     9
100
AcDbPolyline
 90
        2
 70
     0
 39
0.003
 10
0.106937
 20
0.523835
 40
0.003
 41
0.003
 10
-0.534189
 20
0.141248
 40
0.003
 41
0.003
  0
LWPOLYLINE
  5
361
100
AcDbEntity
  8
0
 62
     9
100
AcDbPolyline
 90
        2
 70
     0
 39
0.003
 10
-0.534189
 20
0.141248
 40
0.003
 41
0.003
 10
-0.546555
 20
0.156937
 40
0.003
 41
0.003
  0
LWPOLYLINE
  5
362
100
AcDbEntity
  8
0
 62
     9
100
AcDbPolyline
 90
        2
 70
     0
 39
0.003
 10
-0.534189
 20
0.141248
 40
0.003
 41
0.003
 10
0.106937
 20
0.523835
 40
0.003
 41
0.003
  0
LWPOLYLINE
  5
363
100
AcDbEntity
  8
0
 62
     9
100
AcDbPolyline
 90
        2
 70
     0
 39
0.003
 10
0.106937
 20
0.523835
 40
0.003
 41
0.003
 10
0.118421
 20
0.506898
 40
0.003
 41
0.003
  0
LWPOLYLINE
  5
364
100
AcDbEntity
  8
0
 62
     9
100
AcDbPolyline
 90
        2
 70
     0
 39
0.003
 10
0.118421
 20
0.506898
 40
0.003
 41
0.003
 10
-0.522705
 20
0.124311
 40
0.003
 41
0.003
  0
LWPOLYLINE
  5
365
100
AcDbEntity
  8
0
 62
     9
100
AcDbPolyline
 90
        2
 70
     0
 39
0.003
 10
-0.522705
 20
0.124311
 40
0.003
 41
0.003
 10
-0.534189
 20
0.141248
 40
0.003
 41
0.003
  0
LWPOLYLINE
  5
366
100
AcDbEntity
  8
0
 62
     9
100
AcDbPolyline
 90
        2
 70
     0
 39
0.003
 10
-0.522705
 20
0.124311
 40
0.003
 41
0.003
 10
0.118421
 20
0.506898
 40
0.003
 41
0.003
  0
LWPOLYLINE
  5
367
100
AcDbEntity
  8
0
 62
     9
100
AcDbPolyline
 90
        2
 70
     0
 39
0.003
 10
0.118421
 20
0.506898
 40
0.003
 41
0.003
 10
0.129043
 20
0.488717
 40
0.003
 41
0.003
  0
LWPOLYLINE
  5
368
100
AcDbEntity
  8
0
 62
     9
100
AcDbPolyline
 90
        2
 70
     0
 39
0.003
 10
0.129043
 20
0.488717
 40
0.003
 41
0.003
 10
-0.512083
 20
0.10613
 40
0.003
 41
0.003
  0
LWPOLYLINE
  5
369
100
AcDbEntity
  8
0
 62
     9
100
AcDbPolyline
 90
        2
 70
     0
 39
0.003
 10
-0.512083
 20
0.10613
 40
0.003
 41
0.003
 10
-0.522705
 20
0.124311
 40
0.003
 41
0.003
  0
LWPOLYLINE
  5
36A
100
AcDbEntity
  8
0
 62
     9
100
AcDbPolyline
 90
        2
 70
     0
 39
0.003
 10
-0.512083
 20
0.10613
 40
0.003
 41
0.003
 10
0.129043
 20
0.488717
 40
0.003
 41
0.003
  0
LWPOLYLINE
  5
36B
100
AcDbEntity
  8
0
 62
     9
100
AcDbPolyline
 90
        2
 70
     0
 39
0.003
 10
0.129043
 20
0.488717
 40
0.003
 41
0.003
 10
0.138843
 20
0.46926
 40
0.003
 41
0.003
  0
LWPOLYLINE
  5
36C
100
AcDbEntity
  8
0
 62
     9
100
AcDbPolyline
 90
        2
 70
     0
 39
0.003
 10
0.138843
 20
0.46926
 40
0.003
 41
0.003
 10
-0.502283
 20
0.086673
 40
0.003
 41
0.003
  0
LWPOLYLINE
  5
36D
100
AcDbEntity
  8
0
 62
     9
100
AcDbPolyline
 90
        2
 70
     0
 39
0.003
 10
-0.502283
 20
0.086673
 40
0.003
 41
0.003
 10
-0.512083
 20
0.10613
 40
0.003
 41
0.003
  0
LWPOLYLINE
  5
36E
100
AcDbEntity
  8
0
 62
     9
100
AcDbPolyline
 90
        2
 70
     0
 39
0.003
 10
-0.502283
 20
0.086673
 40
0.003
 41
0.003
 10
0.138843
 20
0.46926
 40
0.003
 41
0.003
  0
LWPOLYLINE
  5
36F
100
AcDbEntity
  8
0
 62
     9
100
AcDbPolyline
 90
        2
 70
     0
 39
0.003
 10
0.138843
 20
0.46926
 40
0.003
 41
0.003
 10
0.147831
 20
0.448535
 40
0.003
 41
0.003
  0
LWPOLYLINE
  5
370
100
AcDbEntity
  8
0
 62
     9
100
AcDbPolyline
 90
        2
 70
     0
 39
0.003
 10
0.147831
 20
0.448535
 40
0.003
 41
0.003
 10
-0.493295
 20
0.065949
 40
0.003
 41
0.003
  0
LWPOLYLINE
  5
371
100
AcDbEntity
  8
0
 62
     9
100
AcDbPolyline
 90
        2
 70
     0
 39
0.003
 10
-0.493295
 20
0.065949
 40
0.003
 41
0.003
 10
-0.502283
 20
0.086673
 40
0.003
 41
0.003
  0
LWPOLYLINE
  5
372
100
AcDbEntity
  8
0
 62
     9
100
AcDbPolyline
 90
        2
 70
     0
 39
0.003
 10
-0.493295
 20
0.065949
 40
0.003
 41
0.003
 10
0.147831
 20
0.448535
 40
0.003
 41
0.003
  0
LWPOLYLINE
  5
373
100
AcDbEntity
  8
0
 62
     9
100
AcDbPolyline
 90
        2
 70
     0
 39
0.003
 10
0.147831
 20
0.448535
 40
0.003
 41
0.003
 10
0.156035
 20
0.426528
 40
0.003
 41
0.003
  0
LWPOLYLINE
  5
374
100
AcDbEntity
  8
0
 62
     9
100
AcDbPolyline
 90
        2
 70
     0
 39
0.003
 10
0.156035
 20
0.426528
 40
0.003
 41
0.003
 10
-0.485091
 20
0.043941
 40
0.003
 41
0.003
  0
LWPOLYLINE
  5
375
100
AcDbEntity
  8
0
 62
     9
100
AcDbPolyline
 90
        2
 70
     0
 39
0.003
 10
-0.485091
 20
0.043941
 40
0.003
 41
0.003
 10
-0.493295
 20
0.065949
 40
0.003
 41
0.003
  0
LWPOLYLINE
  5
376
100
AcDbEntity
  8
0
 62
     9
100
AcDbPolyline
 90
        2
 70
     0
 39
0.003
 10
-0.485091
 20
0.043941
 40
0.003
 41
0.003
 10
0.156035
 20
0.426528
 40
0.003
 41
0.003
  0
LWPOLYLINE
  5
377
100
AcDbEntity
  8
0
 62
     9
100
AcDbPolyline
 90
        2
 70
     0
 39
0.003
 10
0.156035
 20
0.426528
 40
0.003
 41
0.003
 10
0.16348
 20
0.403213
 40
0.003
 41
0.003
  0
LWPOLYLINE
  5
378
100
AcDbEntity
  8
0
 62
     9
100
AcDbPolyline
 90
        2
 70
     0
 39
0.003
 10
0.16348
 20
0.403213
 40
0.003
 41
0.003
 10
-0.477646
 20
0.020626
 40
0.003
 41
0.003
  0
LWPOLYLINE
  5
379
100
AcDbEntity
  8
0
 62
     9
100
AcDbPolyline
 90
        2
 70
     0
 39
0.003
 10
-0.477646
 20
0.020626
 40
0.003
 41
0.003
 10
-0.485091
 20
0.043941
 40
0.003
 41
0.003
  0
LWPOLYLINE
  5
37A
100
AcDbEntity
  8
0
 62
     9
100
AcDbPolyline
 90
        2
 70
     0
 39
0.003
 10
-0.477646
 20
0.020626
 40
0.003
 41
0.003
 10
0.16348
 20
0.403213
 40
0.003
 41
0.003
  0
LWPOLYLINE
  5
37B
100
AcDbEntity
  8
0
 62
     9
100
AcDbPolyline
 90
        2
 70
     0
 39
0.003
 10
0.16348
 20
0.403213
 40
0.003
 41
0.003
 10
0.170193
 20
0.378594
 40
0.003
 41
0.003
  0
LWPOLYLINE
  5
37C
100
AcDbEntity
  8
0
 62
     9
100
AcDbPolyline
 90
        2
 70
     0
 39
0.003
 10
0.170193
 20
0.378594
 40
0.003
 41
0.003
 10
-0.470933
 20
-0.003992
 40
0.003
 41
0.003
  0
LWPOLYLINE
  5
37D
100
AcDbEntity
  8
0
 62
     9
100
AcDbPolyline
 90
        2
 70
     0
 39
0.003
 10
-0.470933
 20
-0.003992
 40
0.003
 41
0.003
 10
-0.477646
 20
0.020626
 40
0.003
 41
0.003
  0
LWPOLYLINE
  5
37E
100
AcDbEntity
  8
0
 62
     9
100
AcDbPolyline
 90
        2
 70
     0
 39
0.003
 10
-0.470933
 20
-0.003992
 40
0.003
 41
0.003
 10
0.170193
 20
0.378594
 40
0.003
 41
0.003
  0
LWPOLYLINE
  5
37F
100
AcDbEntity
  8
0
 62
     9
100
AcDbPolyline
 90
        2
 70
     0
 39
0.003
 10
0.170193
 20
0.378594
 40
0.003
 41
0.003
 10
0.176189
 20
0.352646
 40
0.003
 41
0.003
  0
LWPOLYLINE
  5
380
100
AcDbEntity
  8
0
 62
     9
100
AcDbPolyline
 90
        2
 70
     0
 39
0.003
 10
0.176189
 20
0.352646
 40
0.003
 41
0.003
 10
-0.464937
 20
-0.029941
 40
0.003
 41
0.003
  0
LWPOLYLINE
  5
381
100
AcDbEntity
  8
0
 62
     9
100
AcDbPolyline
 90
        2
 70
     0
 39
0.003
 10
-0.464937
 20
-0.029941
 40
0.003
 41
0.003
 10
-0.470933
 20
-0.003992
 40
0.003
 41
0.003
  0
LWPOLYLINE
  5
382
100
AcDbEntity
  8
0
 62
     9
100
AcDbPolyline
 90
        2
 70
     0
 39
0.003
 10
-0.464937
 20
-0.029941
 40
0.003
 41
0.003
 10
0.176189
 20
0.352646
 40
0.003
 41
0.003
  0
LWPOLYLINE
  5
383
100
AcDbEntity
  8
0
 62
     9
100
AcDbPolyline
 90
        2
 70
     0
 39
0.003
 10
0.176189
 20
0.352646
 40
0.003
 41
0.003
 10
0.181504
 20
0.32537
 40
0.003
 41
0.003
  0
LWPOLYLINE
  5
384
100
AcDbEntity
  8
0
 62
     9
100
AcDbPolyline
 90
        2
 70
     0
 39
0.003
 10
0.181504
 20
0.32537
 40
0.003
 41
0.003
 10
-0.459622
 20
-0.057217
 40
0.003
 41
0.003
  0
LWPOLYLINE
  5
385
100
AcDbEntity
  8
0
 62
     9
100
AcDbPolyline
 90
        2
 70
     0
 39
0.003
 10
-0.459622
 20
-0.057217
 40
0.003
 41
0.003
 10
-0.464937
 20
-0.029941
 40
0.003
 41
0.003
  0
LWPOLYLINE
  5
386
100
AcDbEntity
  8
0
 62
     9
100
AcDbPolyline
 90
        2
 70
     0
 39
0.003
 10
-0.459622
 20
-0.057217
 40
0.003
 41
0.003
 10
0.181504
 20
0.32537
 40
0.003
 41
0.003
  0
LWPOLYLINE
  5
387
100
AcDbEntity
  8
0
 62
     9
100
AcDbPolyline
 90
        2
 70
     0
 39
0.003
 10
0.181504
 20
0.32537
 40
0.003
 41
0.003
 10
0.18615
 20
0.296748
 40
0.003
 41
0.003
  0
LWPOLYLINE
  5
388
100
AcDbEntity
  8
0
 62
     9
100
AcDbPolyline
 90
        2
 70
     0
 39
0.003
 10
0.18615
 20
0.296748
 40
0.003
 41
0.003
 10
-0.454976
 20
-0.085839
 40
0.003
 41
0.003
  0
LWPOLYLINE
  5
389
100
AcDbEntity
  8
0
 62
     9
100
AcDbPolyline
 90
        2
 70
     0
 39
0.003
 10
-0.454976
 20
-0.085839
 40
0.003
 41
0.003
 10
-0.459622
 20
-0.057217
 40
0.003
 41
0.003
  0
LWPOLYLINE
  5
38A
100
AcDbEntity
  8
0
 62
     9
100
AcDbPolyline
 90
        2
 70
     0
 39
0.003
 10
-0.454976
 20
-0.085839
 40
0.003
 41
0.003
 10
0.18615
 20
0.296748
 40
0.003
 41
0.003
  0
LWPOLYLINE
  5
38B
100
AcDbEntity
  8
0
 62
     9
100
AcDbPolyline
 90
        2
 70
     0
 39
0.003
 10
0.18615
 20
0.296748
 40
0.003
 41
0.003
 10
0.190169
 20
0.26678
 40
0.003
 41
0.003
  0
LWPOLYLINE
  5
38C
100
AcDbEntity
  8
0
 62
     9
100
AcDbPolyline
 90
        2
 70
     0
 39
0.003
 10
0.190169
 20
0.26678
 40
0.003
 41
0.003
 10
-0.450957
 20
-0.115807
 40
0.003
 41
0.003
  0
LWPOLYLINE
  5
38D
100
AcDbEntity
  8
0
 62
     9
100
AcDbPolyline
 90
        2
 70
     0
 39
0.003
 10
-0.450957
 20
-0.115807
 40
0.003
 41
0.003
 10
-0.454976
 20
-0.085839
 40
0.003
 41
0.003
  0
LWPOLYLINE
  5
38E
100
AcDbEntity
  8
0
 62
     9
100
AcDbPolyline
 90
        2
 70
     0
 39
0.003
 10
-0.450957
 20
-0.115807
 40
0.003
 41
0.003
 10
0.190169
 20
0.26678
 40
0.003
 41
0.003
  0
LWPOLYLINE
  5
38F
100
AcDbEntity
  8
0
 62
     9
100
AcDbPolyline
 90
        2
 70
     0
 39
0.003
 10
0.190169
 20
0.26678
 40
0.003
 41
0.003
 10
0.193563
 20
0.235445
 40
0.003
 41
0.003
  0
LWPOLYLINE
  5
390
100
AcDbEntity
  8
0
 62
     9
100
AcDbPolyline
 90
        2
 70
     0
 39
0.003
 10
0.193563
 20
0.235445
 40
0.003
 41
0.003
 10
-0.447563
 20
-0.147142
 40
0.003
 41
0.003
  0
LWPOLYLINE
  5
391
100
AcDbEntity
  8
0
 62
     9
100
AcDbPolyline
 90
        2
 70
     0
 39
0.003
 10
-0.447563
 20
-0.147142
 40
0.003
 41
0.003
 10
-0.450957
 20
-0.115807
 40
0.003
 41
0.003
  0
LWPOLYLINE
  5
392
100
AcDbEntity
  8
0
 62
     9
100
AcDbPolyline
 90
        2
 70
     0
 39
0.003
 10
-0.447563
 20
-0.147142
 40
0.003
 41
0.003
 10
0.193563
 20
0.235445
 40
0.003
 41
0.003
  0
LWPOLYLINE
  5
393
100
AcDbEntity
  8
0
 62
     9
100
AcDbPolyline
 90
        2
 70
     0
 39
0.003
 10
0.193563
 20
0.235445
 40
0.003
 41
0.003
 10
0.196378
 20
0.202732
 40
0.003
 41
0.003
  0
LWPOLYLINE
  5
394
100
AcDbEntity
  8
0
 62
     9
100
AcDbPolyline
 90
        2
 70
     0
 39
0.003
 10
0.196378
 20
0.202732
 40
0.003
 41
0.003
 10
-0.444748
 20
-0.179854
 40
0.003
 41
0.003
  0
LWPOLYLINE
  5
395
100
AcDbEntity
  8
0
 62
     9
100
AcDbPolyline
 90
        2
 70
     0
 39
0.003
 10
-0.444748
 20
-0.179854
 40
0.003
 41
0.003
 10
-0.447563
 20
-0.147142
 40
0.003
 41
0.003
  0
LWPOLYLINE
  5
396
100
AcDbEntity
  8
0
 62
     9
100
AcDbPolyline
 90
        2
 70
     0
 39
0.003
 10
-0.444748
 20
-0.179854
 40
0.003
 41
0.003
 10
0.196378
 20
0.202732
 40
0.003
 41
0.003
  0
LWPOLYLINE
  5
397
100
AcDbEntity
  8
0
 62
     9
100
AcDbPolyline
 90
        2
 70
     0
 39
0.003
 10
0.196378
 20
0.202732
 40
0.003
 41
0.003
 10
0.198614
 20
0.16863
 40
0.003
 41
0.003
  0
LWPOLYLINE
  5
398
100
AcDbEntity
  8
0
 62
     9
100
AcDbPolyline
 90
        2
 70
     0
 39
0.003
 10
0.198614
 20
0.16863
 40
0.003
 41
0.003
 10
-0.442512
 20
-0.213957
 40
0.003
 41
0.003
  0
LWPOLYLINE
  5
399
100
AcDbEntity
  8
0
 62
     9
100
AcDbPolyline
 90
        2
 70
     0
 39
0.003
 10
-0.442512
 20
-0.213957
 40
0.003
 41
0.003
 10
-0.444748
 20
-0.179854
 40
0.003
 41
0.003
  0
LWPOLYLINE
  5
39A
100
AcDbEntity
  8
0
 62
     9
100
AcDbPolyline
 90
        2
 70
     0
 39
0.003
 10
-0.442512
 20
-0.213957
 40
0.003
 41
0.003
 10
0.198614
 20
0.16863
 40
0.003
 41
0.003
  0
LWPOLYLINE
  5
39B
100
AcDbEntity
  8
0
 62
     9
100
AcDbPolyline
 90
        2
 70
     0
 39
0.003
 10
0.198614
 20
0.16863
 40
0.003
 41
0.003
 10
0.200319
 20
0.133134
 40
0.003
 41
0.003
  0
LWPOLYLINE
  5
39C
100
AcDbEntity
  8
0
 62
     9
100
AcDbPolyline
 90
        2
 70
     0
 39
0.003
 10
0.200319
 20
0.133134
 40
0.003
 41
0.003
 10
-0.440807
 20
-0.249453
 40
0.003
 41
0.003
  0
LWPOLYLINE
  5
39D
100
AcDbEntity
  8
0
 62
     9
100
AcDbPolyline
 90
        2
 70
     0
 39
0.003
 10
-0.440807
 20
-0.249453
 40
0.003
 41
0.003
 10
-0.442512
 20
-0.213957
 40
0.003
 41
0.003
  0
LWPOLYLINE
  5
39E
100
AcDbEntity
  8
0
 62
     9
100
AcDbPolyline
 90
        2
 70
     0
 39
0.003
 10
-0.440807
 20
-0.249453
 40
0.003
 41
0.003
 10
0.200319
 20
0.133134
 40
0.003
 41
0.003
  0
LWPOLYLINE
  5
39F
100
AcDbEntity
  8
0
 62
     9
100
AcDbPolyline
 90
        2
 70
     0
 39
0.003
 10
0.200319
 20
0.133134
 40
0.003
 41
0.003
 10
0.201504
 20
0.096224
 40
0.003
 41
0.003
  0
LWPOLYLINE
  5
3A0
100
AcDbEntity
  8
0
 62
     9
100
AcDbPolyline
 90
        2
 70
     0
 39
0.003
 10
0.201504
 20
0.096224
 40
0.003
 41
0.003
 10
-0.439622
 20
-0.286362
 40
0.003
 41
0.003
  0
LWPOLYLINE
  5
3A1
100
AcDbEntity
  8
0
 62
     9
100
AcDbPolyline
 90
        2
 70
     0
 39
0.003
 10
-0.439622
 20
-0.286362
 40
0.003
 41
0.003
 10
-0.440807
 20
-0.249453
 40
0.003
 41
0.003
  0
LWPOLYLINE
  5
3A2
100
AcDbEntity
  8
0
 62
     9
100
AcDbPolyline
 90
        2
 70
     0
 39
0.003
 10
-0.439622
 20
-0.286362
 40
0.003
 41
0.003
 10
0.201504
 20
0.096224
 40
0.003
 41
0.003
  0
LWPOLYLINE
  5
3A3
100
AcDbEntity
  8
0
 62
     9
100
AcDbPolyline
 90
        2
 70
     0
 39
0.003
 10
0.201504
 20
0.096224
 40
0.003
 41
0.003
 10
0.202201
 20
0.057898
 40
0.003
 41
0.003
  0
LWPOLYLINE
  5
3A4
100
AcDbEntity
  8
0
 62
     9
100
AcDbPolyline
 90
        2
 70
     0
 39
0.003
 10
0.202201
 20
0.057898
 40
0.003
 41
0.003
 10
-0.438925
 20
-0.324689
 40
0.003
 41
0.003
  0
LWPOLYLINE
  5
3A5
100
AcDbEntity
  8
0
 62
     9
100
AcDbPolyline
 90
        2
 70
     0
 39
0.003
 10
-0.438925
 20
-0.324689
 40
0.003
 41
0.003
 10
-0.439622
 20
-0.286362
 40
0.003
 41
0.003
  0
LWPOLYLINE
  5
3A6
100
AcDbEntity
  8
0
 62
     9
100
AcDbPolyline
 90
        2
 70
     0
 39
0.003
 10
-0.438925
 20
-0.324689
 40
0.003
 41
0.003
 10
0.202201
 20
0.057898
 40
0.003
 41
0.003
  0
LWPOLYLINE
  5
3A7
100
AcDbEntity
  8
0
 62
     9
100
AcDbPolyline
 90
        2
 70
     0
 39
0.003
 10
0.202201
 20
0.057898
 40
0.003
 41
0.003
 10
0.202421
 20
0.018134
 40
0.003
 41
0.003
  0
LWPOLYLINE
  5
3A8
100
AcDbEntity
  8
0
 62
     9
100
AcDbPolyline
 90
        2
 70
     0
 39
0.003
 10
0.202421
 20
0.018134
 40
0.003
 41
0.003
 10
-0.438705
 20
-0.364453
 40
0.003
 41
0.003
  0
LWPOLYLINE
  5
3A9
100
AcDbEntity
  8
0
 62
     9
100
AcDbPolyline
 90
        2
 70
     0
 39
0.003
 10
-0.438705
 20
-0.364453
 40
0.003
 41
0.003
 10
-0.438925
 20
-0.324689
 40
0.003
 41
0.003
  0
LWPOLYLINE
  5
3AA
100
AcDbEntity
  8
0
 62
     9
100
AcDbPolyline
 90
        2
 70
     0
 39
0.003
 10
-0.438705
 20
-0.364453
 40
0.003
 41
0.003
 10
0.202421
 20
0.018134
 40
0.003
 41
0.003
  0
LWPOLYLINE
  5
3AB
100
AcDbEntity
  8
0
 62
     9
100
AcDbPolyline
 90
        2
 70
     0
 39
0.003
 10
0.202421
 20
0.018134
 40
0.003
 41
0.003
 10
0.202701
 20
-0.021406
 40
0.003
 41
0.003
  0
LWPOLYLINE
  5
3AC
100
AcDbEntity
  8
0
 62
     9
100
AcDbPolyline
 90
        2
 70
     0
 39
0.003
 10
0.202701
 20
-0.021406
 40
0.003
 41
0.003
 10
-0.438425
 20
-0.403992
 40
0.003
 41
0.003
  0
LWPOLYLINE
  5
3AD
100
AcDbEntity
  8
0
 62
     9
100
AcDbPolyline
 90
        2
 70
     0
 39
0.003
 10
-0.438425
 20
-0.403992
 40
0.003
 41
0.003
 10
-0.438705
 20
-0.364453
 40
0.003
 41
0.003
  0
LWPOLYLINE
  5
3AE
100
AcDbEntity
  8
0
 62
     9
100
AcDbPolyline
 90
        2
 70
     0
 39
0.003
 10
-0.438425
 20
-0.403992
 40
0.003
 41
0.003
 10
0.202701
 20
-0.021406
 40
0.003
 41
0.003
  0
LWPOLYLINE
  5
3AF
100
AcDbEntity
  8
0
 62
     9
100
AcDbPolyline
 90
        2
 70
     0
 39
0.003
 10
0.202701
 20
-0.021406
 40
0.003
 41
0.003
 10
0.20352
 20
-0.059114
 40
0.003
 41
0.003
  0
LWPOLYLINE
  5
3B0
100
AcDbEntity
  8
0
 62
     9
100
AcDbPolyline
 90
        2
 70
     0
 39
0.003
 10
0.20352
 20
-0.059114
 40
0.003
 41
0.003
 10
-0.437606
 20
-0.441701
 40
0.003
 41
0.003
  0
LWPOLYLINE
  5
3B1
100
AcDbEntity
  8
0
 62
     9
100
AcDbPolyline
 90
        2
 70
     0
 39
0.003
 10
-0.437606
 20
-0.441701
 40
0.003
 41
0.003
 10
-0.438425
 20
-0.403992
 40
0.003
 41
0.003
  0
LWPOLYLINE
  5
3B2
100
AcDbEntity
  8
0
 62
     9
100
AcDbPolyline
 90
        2
 70
     0
 39
0.003
 10
-0.437606
 20
-0.441701
 40
0.003
 41
0.003
 10
0.20352
 20
-0.059114
 40
0.003
 41
0.003
  0
LWPOLYLINE
  5
3B3
100
AcDbEntity
  8
0
 62
     9
100
AcDbPolyline
 90
        2
 70
     0
 39
0.003
 10
0.20352
 20
-0.059114
 40
0.003
 41
0.003
 10
0.204874
 20
-0.095043
 40
0.003
 41
0.003
  0
LWPOLYLINE
  5
3B4
100
AcDbEntity
  8
0
 62
     9
100
AcDbPolyline
 90
        2
 70
     0
 39
0.003
 10
0.204874
 20
-0.095043
 40
0.003
 41
0.003
 10
-0.436252
 20
-0.47763
 40
0.003
 41
0.003
  0
LWPOLYLINE
  5
3B5
100
AcDbEntity
  8
0
 62
     9
100
AcDbPolyline
 90
        2
 70
     0
 39
0.003
 10
-0.436252
 20
-0.47763
 40
0.003
 41
0.003
 10
-0.437606
 20
-0.441701
 40
0.003
 41
0.003
  0
LWPOLYLINE
  5
3B6
100
AcDbEntity
  8
0
 62
     9
100
AcDbPolyline
 90
        2
 70
     0
 39
0.003
 10
-0.436252
 20
-0.47763
 40
0.003
 41
0.003
 10
0.204874
 20
-0.095043
 40
0.003
 41
0.003
  0
LWPOLYLINE
  5
3B7
100
AcDbEntity
  8
0
 62
     9
100
AcDbPolyline
 90
        2
 70
     0
 39
0.003
 10
0.204874
 20
-0.095043
 40
0.003
 41
0.003
 10
0.206752
 20
-0.129248
 40
0.003
 41
0.003
  0
LWPOLYLINE
  5
3B8
100
AcDbEntity
  8
0
 62
     9
100
AcDbPolyline
 90
        2
 70
     0
 39
0.003
 10
0.206752
 20
-0.129248
 40
0.003
 41
0.003
 10
-0.434374
 20
-0.511835
 40
0.003
 41
0.003
  0
LWPOLYLINE
  5
3B9
100
AcDbEntity
  8
0
 62
     9
100
AcDbPolyline
 90
        2
 70
     0
 39
0.003
 10
-0.434374
 20
-0.511835
 40
0.003
 41
0.003
 10
-0.436252
 20
-0.47763
 40
0.003
 41
0.003
  0
LWPOLYLINE
  5
3BA
100
AcDbEntity
  8
0
 62
     9
100
AcDbPolyline
 90
        2
 70
     0
 39
0.003
 10
-0.434374
 20
-0.511835
 40
0.003
 41
0.003
 10
0.206752
 20
-0.129248
 40
0.003
 41
0.003
  0
LWPOLYLINE
  5
3BB
100
AcDbEntity
  8
0
 62
     9
100
AcDbPolyline
 90
        2
 70
     0
 39
0.003
 10
0.206752
 20
-0.129248
 40
0.003
 41
0.003
 10
0.209146
 20
-0.161772
 40
0.003
 41
0.003
  0
LWPOLYLINE
  5
3BC
100
AcDbEntity
  8
0
 62
     9
100
AcDbPolyline
 90
        2
 70
     0
 39
0.003
 10
0.209146
 20
-0.161772
 40
0.003
 41
0.003
 10
-0.43198
 20
-0.544358
 40
0.003
 41
0.003
  0
LWPOLYLINE
  5
3BD
100
AcDbEntity
  8
0
 62
     9
100
AcDbPolyline
 90
        2
 70
     0
 39
0.003
 10
-0.43198
 20
-0.544358
 40
0.003
 41
0.003
 10
-0.434374
 20
-0.511835
 40
0.003
 41
0.003
  0
LWPOLYLINE
  5
3BE
100
AcDbEntity
  8
0
 62
     9
100
AcDbPolyline
 90
        2
 70
     0
 39
0.003
 10
-0.43198
 20
-0.544358
 40
0.003
 41
0.003
 10
0.209146
 20
-0.161772
 40
0.003
 41
0.003
  0
LWPOLYLINE
  5
3BF
100
AcDbEntity
  8
0
 62
     9
100
AcDbPolyline
 90
        2
 70
     0
 39
0.003
 10
0.209146
 20
-0.161772
 40
0.003
 41
0.003
 10
0.212039
 20
-0.192673
 40
0.003
 41
0.003
  0
LWPOLYLINE
  5
3C0
100
AcDbEntity
  8
0
 62
     9
100
AcDbPolyline
 90
        2
 70
     0
 39
0.003
 10
0.212039
 20
-0.192673
 40
0.003
 41
0.003
 10
-0.429087
 20
-0.57526
 40
0.003
 41
0.003
  0
LWPOLYLINE
  5
3C1
100
AcDbEntity
  8
0
 62
     9
100
AcDbPolyline
 90
        2
 70
     0
 39
0.003
 10
-0.429087
 20
-0.57526
 40
0.003
 41
0.003
 10
-0.43198
 20
-0.544358
 40
0.003
 41
0.003
  0
LWPOLYLINE
  5
3C2
100
AcDbEntity
  8
0
 62
     9
100
AcDbPolyline
 90
        2
 70
     0
 39
0.003
 10
-0.429087
 20
-0.57526
 40
0.003
 41
0.003
 10
0.212039
 20
-0.192673
 40
0.003
 41
0.003
  0
LWPOLYLINE
  5
3C3
100
AcDbEntity
  8
0
 62
     9
100
AcDbPolyline
 90
        2
 70
     0
 39
0.003
 10
0.212039
 20
-0.192673
 40
0.003
 41
0.003
 10
0.215429
 20
-0.222
 40
0.003
 41
0.003
  0
LWPOLYLINE
  5
3C4
100
AcDbEntity
  8
0
 62
     9
100
AcDbPolyline
 90
        2
 70
     0
 39
0.003
 10
0.215429
 20
-0.222
 40
0.003
 41
0.003
 10
-0.425697
 20
-0.604587
 40
0.003
 41
0.003
  0
LWPOLYLINE
  5
3C5
100
AcDbEntity
  8
0
 62
     9
100
AcDbPolyline
 90
        2
 70
     0
 39
0.003
 10
-0.425697
 20
-0.604587
 40
0.003
 41
0.003
 10
-0.429087
 20
-0.57526
 40
0.003
 41
0.003
  0
LWPOLYLINE
  5
3C6
100
AcDbEntity
  8
0
 62
     9
100
AcDbPolyline
 90
        2
 70
     0
 39
0.003
 10
-0.425697
 20
-0.604587
 40
0.003
 41
0.003
 10
0.215429
 20
-0.222
 40
0.003
 41
0.003
  0
LWPOLYLINE
  5
3C7
100
AcDbEntity
  8
0
 62
     9
100
AcDbPolyline
 90
        2
 70
     0
 39
0.003
 10
0.215429
 20
-0.222
 40
0.003
 41
0.003
 10
0.219291
 20
-0.249823
 40
0.003
 41
0.003
  0
LWPOLYLINE
  5
3C8
100
AcDbEntity
  8
0
 62
     9
100
AcDbPolyline
 90
        2
 70
     0
 39
0.003
 10
0.219291
 20
-0.249823
 40
0.003
 41
0.003
 10
-0.421835
 20
-0.632409
 40
0.003
 41
0.003
  0
LWPOLYLINE
  5
3C9
100
AcDbEntity
  8
0
 62
     9
100
AcDbPolyline
 90
        2
 70
     0
 39
0.003
 10
-0.421835
 20
-0.632409
 40
0.003
 41
0.003
 10
-0.425697
 20
-0.604587
 40
0.003
 41
0.003
  0
LWPOLYLINE
  5
3CA
100
AcDbEntity
  8
0
 62
     9
100
AcDbPolyline
 90
        2
 70
     0
 39
0.003
 10
-0.421835
 20
-0.632409
 40
0.003
 41
0.003
 10
0.219291
 20
-0.249823
 40
0.003
 41
0.003
  0
LWPOLYLINE
  5
3CB
100
AcDbEntity
  8
0
 62
     9
100
AcDbPolyline
 90
        2
 70
     0
 39
0.003
 10
0.219291
 20
-0.249823
 40
0.003
 41
0.003
 10
0.223638
 20
-0.276169
 40
0.003
 41
0.003
  0
LWPOLYLINE
  5
3CC
100
AcDbEntity
  8
0
 62
     9
100
AcDbPolyline
 90
        2
 70
     0
 39
0.003
 10
0.223638
 20
-0.276169
 40
0.003
 41
0.003
 10
-0.417488
 20
-0.658756
 40
0.003
 41
0.003
  0
LWPOLYLINE
  5
3CD
100
AcDbEntity
  8
0
 62
     9
100
AcDbPolyline
 90
        2
 70
     0
 39
0.003
 10
-0.417488
 20
-0.658756
 40
0.003
 41
0.003
 10
-0.421835
 20
-0.632409
 40
0.003
 41
0.003
  0
LWPOLYLINE
  5
3CE
100
AcDbEntity
  8
0
 62
     9
100
AcDbPolyline
 90
        2
 70
     0
 39
0.003
 10
-0.417488
 20
-0.658756
 40
0.003
 41
0.003
 10
0.223638
 20
-0.276169
 40
0.003
 41
0.003
  0
LWPOLYLINE
  5
3CF
100
AcDbEntity
  8
0
 62
     9
100
AcDbPolyline
 90
        2
 70
     0
 39
0.003
 10
0.223638
 20
-0.276169
 40
0.003
 41
0.003
 10
0.228437
 20
-0.301106
 40
0.003
 41
0.003
  0
LWPOLYLINE
  5
3D0
100
AcDbEntity
  8
0
 62
     9
100
AcDbPolyline
 90
        2
 70
     0
 39
0.003
 10
0.228437
 20
-0.301106
 40
0.003
 41
0.003
 10
-0.412689
 20
-0.683693
 40
0.003
 41
0.003
  0
LWPOLYLINE
  5
3D1
100
AcDbEntity
  8
0
 62
     9
100
AcDbPolyline
 90
        2
 70
     0
 39
0.003
 10
-0.412689
 20
-0.683693
 40
0.003
 41
0.003
 10
-0.417488
 20
-0.658756
 40
0.003
 41
0.003
  0
LWPOLYLINE
  5
3D2
100
AcDbEntity
  8
0
 62
     9
100
AcDbPolyline
 90
        2
 70
     0
 39
0.003
 10
-0.412689
 20
-0.683693
 40
0.003
 41
0.003
 10
0.228437
 20
-0.301106
 40
0.003
 41
0.003
  0
LWPOLYLINE
  5
3D3
100
AcDbEntity
  8
0
 62
     9
100
AcDbPolyline
 90
        2
 70
     0
 39
0.003
 10
0.228437
 20
-0.301106
 40
0.003
 41
0.003
 10
0.233689
 20
-0.324685
 40
0.003
 41
0.003
  0
LWPOLYLINE
  5
3D4
100
AcDbEntity
  8
0
 62
     9
100
AcDbPolyline
 90
        2
 70
     0
 39
0.003
 10
0.233689
 20
-0.324685
 40
0.003
 41
0.003
 10
-0.407437
 20
-0.707272
 40
0.003
 41
0.003
  0
LWPOLYLINE
  5
3D5
100
AcDbEntity
  8
0
 62
     9
100
AcDbPolyline
 90
        2
 70
     0
 39
0.003
 10
-0.407437
 20
-0.707272
 40
0.003
 41
0.003
 10
-0.412689
 20
-0.683693
 40
0.003
 41
0.003
  0
LWPOLYLINE
  5
3D6
100
AcDbEntity
  8
0
 62
     9
100
AcDbPolyline
 90
        2
 70
     0
 39
0.003
 10
-0.407437
 20
-0.707272
 40
0.003
 41
0.003
 10
0.233689
 20
-0.324685
 40
0.003
 41
0.003
  0
LWPOLYLINE
  5
3D7
100
AcDbEntity
  8
0
 62
     9
100
AcDbPolyline
 90
        2
 70
     0
 39
0.003
 10
0.233689
 20
-0.324685
 40
0.003
 41
0.003
 10
0.239378
 20
-0.346961
 40
0.003
 41
0.003
  0
LWPOLYLINE
  5
3D8
100
AcDbEntity
  8
0
 62
     9
100
AcDbPolyline
 90
        2
 70
     0
 39
0.003
 10
0.239378
 20
-0.346961
 40
0.003
 41
0.003
 10
-0.401748
 20
-0.729547
 40
0.003
 41
0.003
  0
LWPOLYLINE
  5
3D9
100
AcDbEntity
  8
0
 62
     9
100
AcDbPolyline
 90
        2
 70
     0
 39
0.003
 10
-0.401748
 20
-0.729547
 40
0.003
 41
0.003
 10
-0.407437
 20
-0.707272
 40
0.003
 41
0.003
  0
LWPOLYLINE
  5
3DA
100
AcDbEntity
  8
0
 62
     9
100
AcDbPolyline
 90
        2
 70
     0
 39
0.003
 10
-0.401748
 20
-0.729547
 40
0.003
 41
0.003
 10
0.239378
 20
-0.346961
 40
0.003
 41
0.003
  0
LWPOLYLINE
  5
3DB
100
AcDbEntity
  8
0
 62
     9
100
AcDbPolyline
 90
        2
 70
     0
 39
0.003
 10
0.239378
 20
-0.346961
 40
0.003
 41
0.003
 10
0.2455
 20
-0.367976
 40
0.003
 41
0.003
  0
LWPOLYLINE
  5
3DC
100
AcDbEntity
  8
0
 62
     9
100
AcDbPolyline
 90
        2
 70
     0
 39
0.003
 10
0.2455
 20
-0.367976
 40
0.003
 41
0.003
 10
-0.395626
 20
-0.750563
 40
0.003
 41
0.003
  0
LWPOLYLINE
  5
3DD
100
AcDbEntity
  8
0
 62
     9
100
AcDbPolyline
 90
        2
 70
     0
 39
0.003
 10
-0.395626
 20
-0.750563
 40
0.003
 41
0.003
 10
-0.401748
 20
-0.729547
 40
0.003
 41
0.003
  0
LWPOLYLINE
  5
3DE
100
AcDbEntity
  8
0
 62
     9
100
AcDbPolyline
 90
        2
 70
     0
 39
0.003
 10
-0.395626
 20
-0.750563
 40
0.003
 41
0.003
 10
0.2455
 20
-0.367976
 40
0.003
 41
0.003
  0
LWPOLYLINE
  5
3DF
100
AcDbEntity
  8
0
 62
     9
100
AcDbPolyline
 90
        2
 70
     0
 39
0.003
 10
0.2455
 20
-0.367976
 40
0.003
 41
0.003
 10
0.252039
 20
-0.387795
 40
0.003
 41
0.003
  0
LWPOLYLINE
  5
3E0
100
AcDbEntity
  8
0
 62
     9
100
AcDbPolyline
 90
        2
 70
     0
 39
0.003
 10
0.252039
 20
-0.387795
 40
0.003
 41
0.003
 10
-0.389087
 20
-0.770382
 40
0.003
 41
0.003
  0
LWPOLYLINE
  5
3E1
100
AcDbEntity
  8
0
 62
     9
100
AcDbPolyline
 90
        2
 70
     0
 39
0.003
 10
-0.389087
 20
-0.770382
 40
0.003
 41
0.003
 10
-0.395626
 20
-0.750563
 40
0.003
 41
0.003
  0
LWPOLYLINE
  5
3E2
100
AcDbEntity
  8
0
 62
     9
100
AcDbPolyline
 90
        2
 70
     0
 39
0.003
 10
-0.389087
 20
-0.770382
 40
0.003
 41
0.003
 10
0.252039
 20
-0.387795
 40
0.003
 41
0.003
  0
LWPOLYLINE
  5
3E3
100
AcDbEntity
  8
0
 62
     9
100
AcDbPolyline
 90
        2
 70
     0
 39
0.003
 10
0.252039
 20
-0.387795
 40
0.003
 41
0.003
 10
0.258992
 20
-0.406465
 40
0.003
 41
0.003
  0
LWPOLYLINE
  5
3E4
100
AcDbEntity
  8
0
 62
     9
100
AcDbPolyline
 90
        2
 70
     0
 39
0.003
 10
0.258992
 20
-0.406465
 40
0.003
 41
0.003
 10
-0.382134
 20
-0.789051
 40
0.003
 41
0.003
  0
LWPOLYLINE
  5
3E5
100
AcDbEntity
  8
0
 62
     9
100
AcDbPolyline
 90
        2
 70
     0
 39
0.003
 10
-0.382134
 20
-0.789051
 40
0.003
 41
0.003
 10
-0.389087
 20
-0.770382
 40
0.003
 41
0.003
  0
LWPOLYLINE
  5
3E6
100
AcDbEntity
  8
0
 62
     9
100
AcDbPolyline
 90
        2
 70
     0
 39
0.003
 10
-0.382134
 20
-0.789051
 40
0.003
 41
0.003
 10
0.258992
 20
-0.406465
 40
0.003
 41
0.003
  0
LWPOLYLINE
  5
3E7
100
AcDbEntity
  8
0
 62
     9
100
AcDbPolyline
 90
        2
 70
     0
 39
0.003
 10
0.258992
 20
-0.406465
 40
0.003
 41
0.003
 10
0.266335
 20
-0.424043
 40
0.003
 41
0.003
  0
LWPOLYLINE
  5
3E8
100
AcDbEntity
  8
0
 62
     9
100
AcDbPolyline
 90
        2
 70
     0
 39
0.003
 10
0.266335
 20
-0.424043
 40
0.003
 41
0.003
 10
-0.374791
 20
-0.80663
 40
0.003
 41
0.003
  0
LWPOLYLINE
  5
3E9
100
AcDbEntity
  8
0
 62
     9
100
AcDbPolyline
 90
        2
 70
     0
 39
0.003
 10
-0.374791
 20
-0.80663
 40
0.003
 41
0.003
 10
-0.382134
 20
-0.789051
 40
0.003
 41
0.003
  0
LWPOLYLINE
  5
3EA
100
AcDbEntity
  8
0
 62
     9
100
AcDbPolyline
 90
        2
 70
     0
 39
0.003
 10
-0.374791
 20
-0.80663
 40
0.003
 41
0.003
 10
0.266335
 20
-0.424043
 40
0.003
 41
0.003
  0
LWPOLYLINE
  5
3EB
100
AcDbEntity
  8
0
 62
     9
100
AcDbPolyline
 90
        2
 70
     0
 39
0.003
 10
0.266335
 20
-0.424043
 40
0.003
 41
0.003
 10
0.274079
 20
-0.440571
 40
0.003
 41
0.003
  0
LWPOLYLINE
  5
3EC
100
AcDbEntity
  8
0
 62
     9
100
AcDbPolyline
 90
        2
 70
     0
 39
0.003
 10
0.274079
 20
-0.440571
 40
0.003
 41
0.003
 10
-0.367047
 20
-0.823157
 40
0.003
 41
0.003
  0
LWPOLYLINE
  5
3ED
100
AcDbEntity
  8
0
 62
     9
100
AcDbPolyline
 90
        2
 70
     0
 39
0.003
 10
-0.367047
 20
-0.823157
 40
0.003
 41
0.003
 10
-0.374791
 20
-0.80663
 40
0.003
 41
0.003
  0
LWPOLYLINE
  5
3EE
100
AcDbEntity
  8
0
 62
     9
100
AcDbPolyline
 90
        2
 70
     0
 39
0.003
 10
-0.367047
 20
-0.823157
 40
0.003
 41
0.003
 10
0.274079
 20
-0.440571
 40
0.003
 41
0.003
  0
LWPOLYLINE
  5
3EF
100
AcDbEntity
  8
0
 62
     9
100
AcDbPolyline
 90
        2
 70
     0
 39
0.003
 10
0.274079
 20
-0.440571
 40
0.003
 41
0.003
 10
0.282193
 20
-0.45611
 40
0.003
 41
0.003
  0
LWPOLYLINE
  5
3F0
100
AcDbEntity
  8
0
 62
     9
100
AcDbPolyline
 90
        2
 70
     0
 39
0.003
 10
0.282193
 20
-0.45611
 40
0.003
 41
0.003
 10
-0.358933
 20
-0.838697
 40
0.003
 41
0.003
  0
LWPOLYLINE
  5
3F1
100
AcDbEntity
  8
0
 62
     9
100
AcDbPolyline
 90
        2
 70
     0
 39
0.003
 10
-0.358933
 20
-0.838697
 40
0.003
 41
0.003
 10
-0.367047
 20
-0.823157
 40
0.003
 41
0.003
  0
LWPOLYLINE
  5
3F2
100
AcDbEntity
  8
0
 62
     9
100
AcDbPolyline
 90
        2
 70
     0
 39
0.003
 10
-0.358933
 20
-0.838697
 40
0.003
 41
0.003
 10
0.282193
 20
-0.45611
 40
0.003
 41
0.003
  0
LWPOLYLINE
  5
3F3
100
AcDbEntity
  8
0
 62
     9
100
AcDbPolyline
 90
        2
 70
     0
 39
0.003
 10
0.282193
 20
-0.45611
 40
0.003
 41
0.003
 10
0.290681
 20
-0.470713
 40
0.003
 41
0.003
  0
LWPOLYLINE
  5
3F4
100
AcDbEntity
  8
0
 62
     9
100
AcDbPolyline
 90
        2
 70
     0
 39
0.003
 10
0.290681
 20
-0.470713
 40
0.003
 41
0.003
 10
-0.350445
 20
-0.853299
 40
0.003
 41
0.003
  0
LWPOLYLINE
  5
3F5
100
AcDbEntity
  8
0
 62
     9
100
AcDbPolyline
 90
        2
 70
     0
 39
0.003
 10
-0.350445
 20
-0.853299
 40
0.003
 41
0.003
 10
-0.358933
 20
-0.838697
 40
0.003
 41
0.003
  0
LWPOLYLINE
  5
3F6
100
AcDbEntity
  8
0
 62
     9
100
AcDbPolyline
 90
        2
 70
     0
 39
0.003
 10
-0.350445
 20
-0.853299
 40
0.003
 41
0.003
 10
0.290681
 20
-0.470713
 40
0.003
 41
0.003
  0
LWPOLYLINE
  5
3F7
100
AcDbEntity
  8
0
 62
     9
100
AcDbPolyline
 90
        2
 70
     0
 39
0.003
 10
0.290681
 20
-0.470713
 40
0.003
 41
0.003
 10
0.299516
 20
-0.484433
 40
0.003
 41
0.003
  0
LWPOLYLINE
  5
3F8
100
AcDbEntity
  8
0
 62
     9
100
AcDbPolyline
 90
        2
 70
     0
 39
0.003
 10
0.299516
 20
-0.484433
 40
0.003
 41
0.003
 10
-0.34161
 20
-0.86702
 40
0.003
 41
0.003
  0
LWPOLYLINE
  5
3F9
100
AcDbEntity
  8
0
 62
     9
100
AcDbPolyline
 90
        2
 70
     0
 39
0.003
 10
-0.34161
 20
-0.86702
 40
0.003
 41
0.003
 10
-0.350445
 20
-0.853299
 40
0.003
 41
0.003
  0
LWPOLYLINE
  5
3FA
100
AcDbEntity
  8
0
 62
     9
100
AcDbPolyline
 90
        2
 70
     0
 39
0.003
 10
-0.34161
 20
-0.86702
 40
0.003
 41
0.003
 10
0.299516
 20
-0.484433
 40
0.003
 41
0.003
  0
LWPOLYLINE
  5
3FB
100
AcDbEntity
  8
0
 62
     9
100
AcDbPolyline
 90
        2
 70
     0
 39
0.003
 10
0.299516
 20
-0.484433
 40
0.003
 41
0.003
 10
0.308709
 20
-0.497315
 40
0.003
 41
0.003
  0
LWPOLYLINE
  5
3FC
100
AcDbEntity
  8
0
 62
     9
100
AcDbPolyline
 90
        2
 70
     0
 39
0.003
 10
0.308709
 20
-0.497315
 40
0.003
 41
0.003
 10
-0.332417
 20
-0.879902
 40
0.003
 41
0.003
  0
LWPOLYLINE
  5
3FD
100
AcDbEntity
  8
0
 62
     9
100
AcDbPolyline
 90
        2
 70
     0
 39
0.003
 10
-0.332417
 20
-0.879902
 40
0.003
 41
0.003
 10
-0.34161
 20
-0.86702
 40
0.003
 41
0.003
  0
LWPOLYLINE
  5
3FE
100
AcDbEntity
  8
0
 62
     9
100
AcDbPolyline
 90
        2
 70
     0
 39
0.003
 10
-0.332417
 20
-0.879902
 40
0.003
 41
0.003
 10
0.308709
 20
-0.497315
 40
0.003
 41
0.003
  0
LWPOLYLINE
  5
3FF
100
AcDbEntity
  8
0
 62
     9
100
AcDbPolyline
 90
        2
 70
     0
 39
0.003
 10
0.308709
 20
-0.497315
 40
0.003
 41
0.003
 10
0.318228
 20
-0.509421
 40
0.003
 41
0.003
  0
LWPOLYLINE
  5
400
100
AcDbEntity
  8
0
 62
     9
100
AcDbPolyline
 90
        2
 70
     0
 39
0.003
 10
0.318228
 20
-0.509421
 40
0.003
 41
0.003
 10
-0.322898
 20
-0.892008
 40
0.003
 41
0.003
  0
LWPOLYLINE
  5
401
100
AcDbEntity
  8
0
 62
     9
100
AcDbPolyline
 90
        2
 70
     0
 39
0.003
 10
-0.322898
 20
-0.892008
 40
0.003
 41
0.003
 10
-0.332417
 20
-0.879902
 40
0.003
 41
0.003
  0
LWPOLYLINE
  5
402
100
AcDbEntity
  8
0
 62
     9
100
AcDbPolyline
 90
        2
 70
     0
 39
0.003
 10
-0.322898
 20
-0.892008
 40
0.003
 41
0.003
 10
0.318228
 20
-0.509421
 40
0.003
 41
0.003
  0
LWPOLYLINE
  5
403
100
AcDbEntity
  8
0
 62
     9
100
AcDbPolyline
 90
        2
 70
     0
 39
0.003
 10
0.318228
 20
-0.509421
 40
0.003
 41
0.003
 10
0.328079
 20
-0.520799
 40
0.003
 41
0.003
  0
LWPOLYLINE
  5
404
100
AcDbEntity
  8
0
 62
     9
100
AcDbPolyline
 90
        2
 70
     0
 39
0.003
 10
0.328079
 20
-0.520799
 40
0.003
 41
0.003
 10
-0.313047
 20
-0.903386
 40
0.003
 41
0.003
  0
LWPOLYLINE
  5
405
100
AcDbEntity
  8
0
 62
     9
100
AcDbPolyline
 90
        2
 70
     0
 39
0.003
 10
-0.313047
 20
-0.903386
 40
0.003
 41
0.003
 10
-0.322898
 20
-0.892008
 40
0.003
 41
0.003
  0
LWPOLYLINE
  5
406
100
AcDbEntity
  8
0
 62
     9
100
AcDbPolyline
 90
        2
 70
     0
 39
0.003
 10
-0.313047
 20
-0.903386
 40
0.003
 41
0.003
 10
0.328079
 20
-0.520799
 40
0.003
 41
0.003
  0
LWPOLYLINE
  5
407
100
AcDbEntity
  8
0
 62
     9
100
AcDbPolyline
 90
        2
 70
     0
 39
0.003
 10
0.328079
 20
-0.520799
 40
0.003
 41
0.003
 10
0.338236
 20
-0.531508
 40
0.003
 41
0.003
  0
LWPOLYLINE
  5
408
100
AcDbEntity
  8
0
 62
     9
100
AcDbPolyline
 90
        2
 70
     0
 39
0.003
 10
0.338236
 20
-0.531508
 40
0.003
 41
0.003
 10
-0.30289
 20
-0.914094
 40
0.003
 41
0.003
  0
LWPOLYLINE
  5
409
100
AcDbEntity
  8
0
 62
     9
100
AcDbPolyline
 90
        2
 70
     0
 39
0.003
 10
-0.30289
 20
-0.914094
 40
0.003
 41
0.003
 10
-0.313047
 20
-0.903386
 40
0.003
 41
0.003
  0
LWPOLYLINE
  5
40A
100
AcDbEntity
  8
0
 62
     9
100
AcDbPolyline
 90
        2
 70
     0
 39
0.003
 10
-0.30289
 20
-0.914094
 40
0.003
 41
0.003
 10
0.338236
 20
-0.531508
 40
0.003
 41
0.003
  0
LWPOLYLINE
  5
40B
100
AcDbEntity
  8
0
 62
     9
100
AcDbPolyline
 90
        2
 70
     0
 39
0.003
 10
0.338236
 20
-0.531508
 40
0.003
 41
0.003
 10
0.348705
 20
-0.541587
 40
0.003
 41
0.003
  0
LWPOLYLINE
  5
40C
100
AcDbEntity
  8
0
 62
     9
100
AcDbPolyline
 90
        2
 70
     0
 39
0.003
 10
0.348705
 20
-0.541587
 40
0.003
 41
0.003
 10
-0.292421
 20
-0.924173
 40
0.003
 41
0.003
  0
LWPOLYLINE
  5
40D
100
AcDbEntity
  8
0
 62
     9
100
AcDbPolyline
 90
        2
 70
     0
 39
0.003
 10
-0.292421
 20
-0.924173
 40
0.003
 41
0.003
 10
-0.30289
 20
-0.914094
 40
0.003
 41
0.003
  0
LWPOLYLINE
  5
40E
100
AcDbEntity
  8
0
 62
     9
100
AcDbPolyline
 90
        2
 70
     0
 39
0.003
 10
-0.292421
 20
-0.924173
 40
0.003
 41
0.003
 10
0.348705
 20
-0.541587
 40
0.003
 41
0.003
  0
LWPOLYLINE
  5
40F
100
AcDbEntity
  8
0
 62
     9
100
AcDbPolyline
 90
        2
 70
     0
 39
0.003
 10
0.348705
 20
-0.541587
 40
0.003
 41
0.003
 10
0.359465
 20
-0.551102
 40
0.003
 41
0.003
  0
LWPOLYLINE
  5
410
100
AcDbEntity
  8
0
 62
     9
100
AcDbPolyline
 90
        2
 70
     0
 39
0.003
 10
0.359465
 20
-0.551102
 40
0.003
 41
0.003
 10
-0.281661
 20
-0.933689
 40
0.003
 41
0.003
  0
LWPOLYLINE
  5
411
100
AcDbEntity
  8
0
 62
     9
100
AcDbPolyline
 90
        2
 70
     0
 39
0.003
 10
-0.281661
 20
-0.933689
 40
0.003
 41
0.003
 10
-0.292421
 20
-0.924173
 40
0.003
 41
0.003
  0
LWPOLYLINE
  5
412
100
AcDbEntity
  8
0
 62
     9
100
AcDbPolyline
 90
        2
 70
     0
 39
0.003
 10
-0.281661
 20
-0.933689
 40
0.003
 41
0.003
 10
0.359465
 20
-0.551102
 40
0.003
 41
0.003
  0
LWPOLYLINE
  5
413
100
AcDbEntity
  8
0
 62
     9
100
AcDbPolyline
 90
        2
 70
     0
 39
0.003
 10
0.359465
 20
-0.551102
 40
0.003
 41
0.003
 10
0.370512
 20
-0.560102
 40
0.003
 41
0.003
  0
LWPOLYLINE
  5
414
100
AcDbEntity
  8
0
 62
     9
100
AcDbPolyline
 90
        2
 70
     0
 39
0.003
 10
0.370512
 20
-0.560102
 40
0.003
 41
0.003
 10
-0.270614
 20
-0.942689
 40
0.003
 41
0.003
  0
LWPOLYLINE
  5
415
100
AcDbEntity
  8
0
 62
     9
100
AcDbPolyline
 90
        2
 70
     0
 39
0.003
 10
-0.270614
 20
-0.942689
 40
0.003
 41
0.003
 10
-0.281661
 20
-0.933689
 40
0.003
 41
0.003
  0
LWPOLYLINE
  5
416
100
AcDbEntity
  8
0
 62
     9
100
AcDbPolyline
 90
        2
 70
     0
 39
0.003
 10
-0.270614
 20
-0.942689
 40
0.003
 41
0.003
 10
0.370512
 20
-0.560102
 40
0.003
 41
0.003
  0
LWPOLYLINE
  5
417
100
AcDbEntity
  8
0
 62
     9
100
AcDbPolyline
 90
        2
 70
     0
 39
0.003
 10
0.370512
 20
-0.560102
 40
0.003
 41
0.003
 10
0.381839
 20
-0.568642
 40
0.003
 41
0.003
  0
LWPOLYLINE
  5
418
100
AcDbEntity
  8
0
 62
     9
100
AcDbPolyline
 90
        2
 70
     0
 39
0.003
 10
0.381839
 20
-0.568642
 40
0.003
 41
0.003
 10
-0.259287
 20
-0.951228
 40
0.003
 41
0.003
  0
LWPOLYLINE
  5
419
100
AcDbEntity
  8
0
 62
     9
100
AcDbPolyline
 90
        2
 70
     0
 39
0.003
 10
-0.259287
 20
-0.951228
 40
0.003
 41
0.003
 10
-0.270614
 20
-0.942689
 40
0.003
 41
0.003
  0
LWPOLYLINE
  5
41A
100
AcDbEntity
  8
0
 62
     9
100
AcDbPolyline
 90
        2
 70
     0
 39
0.003
 10
-0.259287
 20
-0.951228
 40
0.003
 41
0.003
 10
0.381839
 20
-0.568642
 40
0.003
 41
0.003
  0
LWPOLYLINE
  5
41B
100
AcDbEntity
  8
0
 62
     9
100
AcDbPolyline
 90
        2
 70
     0
 39
0.003
 10
0.381839
 20
-0.568642
 40
0.003
 41
0.003
 10
0.393421
 20
-0.576764
 40
0.003
 41
0.003
  0
LWPOLYLINE
  5
41C
100
AcDbEntity
  8
0
 62
     9
100
AcDbPolyline
 90
        2
 70
     0
 39
0.003
 10
0.393421
 20
-0.576764
 40
0.003
 41
0.003
 10
-0.247705
 20
-0.95935
 40
0.003
 41
0.003
  0
LWPOLYLINE
  5
41D
100
AcDbEntity
  8
0
 62
     9
100
AcDbPolyline
 90
        2
 70
     0
 39
0.003
 10
-0.247705
 20
-0.95935
 40
0.003
 41
0.003
 10
-0.259287
 20
-0.951228
 40
0.003
 41
0.003
  0
LWPOLYLINE
  5
41E
100
AcDbEntity
  8
0
 62
     9
100
AcDbPolyline
 90
        2
 70
     0
 39
0.003
 10
-0.247705
 20
-0.95935
 40
0.003
 41
0.003
 10
0.393421
 20
-0.576764
 40
0.003
 41
0.003
  0
LWPOLYLINE
  5
41F
100
AcDbEntity
  8
0
 62
     9
100
AcDbPolyline
 90
        2
 70
     0
 39
0.003
 10
0.393421
 20
-0.576764
 40
0.003
 41
0.003
 10
0.405264
 20
-0.584535
 40
0.003
 41
0.003
  0
LWPOLYLINE
  5
420
100
AcDbEntity
  8
0
 62
     9
100
AcDbPolyline
 90
        2
 70
     0
 39
0.003
 10
0.405264
 20
-0.584535
 40
0.003
 41
0.003
 10
-0.235862
 20
-0.967122
 40
0.003
 41
0.003
  0
LWPOLYLINE
  5
421
100
AcDbEntity
  8
0
 62
     9
100
AcDbPolyline
 90
        2
 70
     0
 39
0.003
 10
-0.235862
 20
-0.967122
 40
0.003
 41
0.003
 10
-0.247705
 20
-0.95935
 40
0.003
 41
0.003
  0
LWPOLYLINE
  5
422
100
AcDbEntity
  8
0
 62
     9
100
AcDbPolyline
 90
        2
 70
     0
 39
0.003
 10
-0.235862
 20
-0.967122
 40
0.003
 41
0.003
 10
0.405264
 20
-0.584535
 40
0.003
 41
0.003
  0
LWPOLYLINE
  5
423
100
AcDbEntity
  8
0
 62
     9
100
AcDbPolyline
 90
        2
 70
     0
 39
0.003
 10
0.405264
 20
-0.584535
 40
0.003
 41
0.003
 10
0.417346
 20
-0.591996
 40
0.003
 41
0.003
  0
LWPOLYLINE
  5
424
100
AcDbEntity
  8
0
 62
     9
100
AcDbPolyline
 90
        2
 70
     0
 39
0.003
 10
0.417346
 20
-0.591996
 40
0.003
 41
0.003
 10
-0.22378
 20
-0.974583
 40
0.003
 41
0.003
  0
LWPOLYLINE
  5
425
100
AcDbEntity
  8
0
 62
     9
100
AcDbPolyline
 90
        2
 70
     0
 39
0.003
 10
-0.22378
 20
-0.974583
 40
0.003
 41
0.003
 10
-0.235862
 20
-0.967122
 40
0.003
 41
0.003
  0
LWPOLYLINE
  5
426
100
AcDbEntity
  8
0
 62
     9
100
AcDbPolyline
 90
        2
 70
     0
 39
0.003
 10
-0.22378
 20
-0.974583
 40
0.003
 41
0.003
 10
0.417346
 20
-0.591996
 40
0.003
 41
0.003
  0
LWPOLYLINE
  5
427
100
AcDbEntity
  8
0
 62
     9
100
AcDbPolyline
 90
        2
 70
     0
 39
0.003
 10
0.417346
 20
-0.591996
 40
0.003
 41
0.003
 10
0.429665
 20
-0.599213
 40
0.003
 41
0.003
  0
LWPOLYLINE
  5
428
100
AcDbEntity
  8
0
 62
     9
100
AcDbPolyline
 90
        2
 70
     0
 39
0.003
 10
0.429665
 20
-0.599213
 40
0.003
 41
0.003
 10
-0.211461
 20
-0.981799
 40
0.003
 41
0.003
  0
LWPOLYLINE
  5
429
100
AcDbEntity
  8
0
 62
     9
100
AcDbPolyline
 90
        2
 70
     0
 39
0.003
 10
-0.211461
 20
-0.981799
 40
0.003
 41
0.003
 10
-0.22378
 20
-0.974583
 40
0.003
 41
0.003
  0
LWPOLYLINE
  5
42A
100
AcDbEntity
  8
0
 62
     9
100
AcDbPolyline
 90
        2
 70
     0
 39
0.003
 10
-0.211461
 20
-0.981799
 40
0.003
 41
0.003
 10
0.429665
 20
-0.599213
 40
0.003
 41
0.003
  0
LWPOLYLINE
  5
42B
100
AcDbEntity
  8
0
 62
     9
100
AcDbPolyline
 90
        2
 70
     0
 39
0.003
 10
0.429665
 20
-0.599213
 40
0.003
 41
0.003
 10
0.441909
 20
-0.606417
 40
0.003
 41
0.003
  0
LWPOLYLINE
  5
42C
100
AcDbEntity
  8
0
 62
     9
100
AcDbPolyline
 90
        2
 70
     0
 39
0.003
 10
0.441909
 20
-0.606417
 40
0.003
 41
0.003
 10
-0.199217
 20
-0.989004
 40
0.003
 41
0.003
  0
LWPOLYLINE
  5
42D
100
AcDbEntity
  8
0
 62
     9
100
AcDbPolyline
 90
        2
 70
     0
 39
0.003
 10
-0.199217
 20
-0.989004
 40
0.003
 41
0.003
 10
-0.211461
 20
-0.981799
 40
0.003
 41
0.003
  0
LWPOLYLINE
  5
42E
100
AcDbEntity
  8
0
 62
     9
100
AcDbPolyline
 90
        2
 70
     0
 39
0.003
 10
-0.199217
 20
-0.989004
 40
0.003
 41
0.003
 10
0.441909
 20
-0.606417
 40
0.003
 41
0.003
  0
LWPOLYLINE
  5
42F
100
AcDbEntity
  8
0
 62
     9
100
AcDbPolyline
 90
        2
 70
     0
 39
0.003
 10
0.441909
 20
-0.606417
 40
0.003
 41
0.003
 10
0.453803
 20
-0.613846
 40
0.003
 41
0.003
  0
LWPOLYLINE
  5
430
100
AcDbEntity
  8
0
 62
     9
100
AcDbPolyline
 90
        2
 70
     0
 39
0.003
 10
0.453803
 20
-0.613846
 40
0.003
 41
0.003
 10
-0.187323
 20
-0.996433
 40
0.003
 41
0.003
  0
LWPOLYLINE
  5
431
100
AcDbEntity
  8
0
 62
     9
100
AcDbPolyline
 90
        2
 70
     0
 39
0.003
 10
-0.187323
 20
-0.996433
 40
0.003
 41
0.003
 10
-0.199217
 20
-0.989004
 40
0.003
 41
0.003
  0
LWPOLYLINE
  5
432
100
AcDbEntity
  8
0
 62
     9
100
AcDbPolyline
 90
        2
 70
     0
 39
0.003
 10
-0.187323
 20
-0.996433
 40
0.003
 41
0.003
 10
0.453803
 20
-0.613846
 40
0.003
 41
0.003
  0
LWPOLYLINE
  5
433
100
AcDbEntity
  8
0
 62
     9
100
AcDbPolyline
 90
        2
 70
     0
 39
0.003
 10
0.453803
 20
-0.613846
 40
0.003
 41
0.003
 10
0.465331
 20
-0.621472
 40
0.003
 41
0.003
  0
LWPOLYLINE
  5
434
100
AcDbEntity
  8
0
 62
     9
100
AcDbPolyline
 90
        2
 70
     0
 39
0.003
 10
0.465331
 20
-0.621472
 40
0.003
 41
0.003
 10
-0.175795
 20
-1.004059
 40
0.003
 41
0.003
  0
LWPOLYLINE
  5
435
100
AcDbEntity
  8
0
 62
     9
100
AcDbPolyline
 90
        2
 70
     0
 39
0.003
 10
-0.175795
 20
-1.004059
 40
0.003
 41
0.003
 10
-0.187323
 20
-0.996433
 40
0.003
 41
0.003
  0
LWPOLYLINE
  5
436
100
AcDbEntity
  8
0
 62
     9
100
AcDbPolyline
 90
        2
 70
     0
 39
0.003
 10
-0.175795
 20
-1.004059
 40
0.003
 41
0.003
 10
0.465331
 20
-0.621472
 40
0.003
 41
0.003
  0
LWPOLYLINE
  5
437
100
AcDbEntity
  8
0
 62
     9
100
AcDbPolyline
 90
        2
 70
     0
 39
0.003
 10
0.465331
 20
-0.621472
 40
0.003
 41
0.003
 10
0.476504
 20
-0.629303
 40
0.003
 41
0.003
  0
LWPOLYLINE
  5
438
100
AcDbEntity
  8
0
 62
     9
100
AcDbPolyline
 90
        2
 70
     0
 39
0.003
 10
0.476504
 20
-0.629303
 40
0.003
 41
0.003
 10
-0.164622
 20
-1.01189
 40
0.003
 41
0.003
  0
LWPOLYLINE
  5
439
100
AcDbEntity
  8
0
 62
     9
100
AcDbPolyline
 90
        2
 70
     0
 39
0.003
 10
-0.164622
 20
-1.01189
 40
0.003
 41
0.003
 10
-0.175795
 20
-1.004059
 40
0.003
 41
0.003
  0
LWPOLYLINE
  5
43A
100
AcDbEntity
  8
0
 62
     9
100
AcDbPolyline
 90
        2
 70
     0
 39
0.003
 10
-0.164622
 20
-1.01189
 40
0.003
 41
0.003
 10
0.476504
 20
-0.629303
 40
0.003
 41
0.003
  0
LWPOLYLINE
  5
43B
100
AcDbEntity
  8
0
 62
     9
100
AcDbPolyline
 90
        2
 70
     0
 39
0.003
 10
0.476504
 20
-0.629303
 40
0.003
 41
0.003
 10
0.487307
 20
-0.637303
 40
0.003
 41
0.003
  0
LWPOLYLINE
  5
43C
100
AcDbEntity
  8
0
 62
     9
100
AcDbPolyline
 90
        2
 70
     0
 39
0.003
 10
0.487307
 20
-0.637303
 40
0.003
 41
0.003
 10
-0.153819
 20
-1.01989
 40
0.003
 41
0.003
  0
LWPOLYLINE
  5
43D
100
AcDbEntity
  8
0
 62
     9
100
AcDbPolyline
 90
        2
 70
     0
 39
0.003
 10
-0.153819
 20
-1.01989
 40
0.003
 41
0.003
 10
-0.164622
 20
-1.01189
 40
0.003
 41
0.003
  0
LWPOLYLINE
  5
43E
100
AcDbEntity
  8
0
 62
     9
100
AcDbPolyline
 90
        2
 70
     0
 39
0.003
 10
-0.153819
 20
-1.01989
 40
0.003
 41
0.003
 10
0.487307
 20
-0.637303
 40
0.003
 41
0.003
  0
LWPOLYLINE
  5
43F
100
AcDbEntity
  8
0
 62
     9
100
AcDbPolyline
 90
        2
 70
     0
 39
0.003
 10
0.487307
 20
-0.637303
 40
0.003
 41
0.003
 10
0.497752
 20
-0.645484
 40
0.003
 41
0.003
  0
LWPOLYLINE
  5
440
100
AcDbEntity
  8
0
 62
     9
100
AcDbPolyline
 90
        2
 70
     0
 39
0.003
 10
0.497752
 20
-0.645484
 40
0.003
 41
0.003
 10
-0.143374
 20
-1.028071
 40
0.003
 41
0.003
  0
LWPOLYLINE
  5
441
100
AcDbEntity
  8
0
 62
     9
100
AcDbPolyline
 90
        2
 70
     0
 39
0.003
 10
-0.143374
 20
-1.028071
 40
0.003
 41
0.003
 10
-0.153819
 20
-1.01989
 40
0.003
 41
0.003
  0
LWPOLYLINE
  5
442
100
AcDbEntity
  8
0
 62
     9
100
AcDbPolyline
 90
        2
 70
     0
 39
0.003
 10
-0.143374
 20
-1.028071
 40
0.003
 41
0.003
 10
0.497752
 20
-0.645484
 40
0.003
 41
0.003
  0
LWPOLYLINE
  5
443
100
AcDbEntity
  8
0
 62
     9
100
AcDbPolyline
 90
        2
 70
     0
 39
0.003
 10
0.497752
 20
-0.645484
 40
0.003
 41
0.003
 10
0.507823
 20
-0.653823
 40
0.003
 41
0.003
  0
LWPOLYLINE
  5
444
100
AcDbEntity
  8
0
 62
     9
100
AcDbPolyline
 90
        2
 70
     0
 39
0.003
 10
0.507823
 20
-0.653823
 40
0.003
 41
0.003
 10
-0.133303
 20
-1.036409
 40
0.003
 41
0.003
  0
LWPOLYLINE
  5
445
100
AcDbEntity
  8
0
 62
     9
100
AcDbPolyline
 90
        2
 70
     0
 39
0.003
 10
-0.133303
 20
-1.036409
 40
0.003
 41
0.003
 10
-0.143374
 20
-1.028071
 40
0.003
 41
0.003
  0
LWPOLYLINE
  5
446
100
AcDbEntity
  8
0
 62
     9
100
AcDbPolyline
 90
        2
 70
     0
 39
0.003
 10
-0.133303
 20
-1.036409
 40
0.003
 41
0.003
 10
0.507823
 20
-0.653823
 40
0.003
 41
0.003
  0
LWPOLYLINE
  5
447
100
AcDbEntity
  8
0
 62
     9
100
AcDbPolyline
 90
        2
 70
     0
 39
0.003
 10
0.507823
 20
-0.653823
 40
0.003
 41
0.003
 10
0.517531
 20
-0.662319
 40
0.003
 41
0.003
  0
LWPOLYLINE
  5
448
100
AcDbEntity
  8
0
 62
     9
100
AcDbPolyline
 90
        2
 70
     0
 39
0.003
 10
0.517531
 20
-0.662319
 40
0.003
 41
0.003
 10
-0.123594
 20
-1.044906
 40
0.003
 41
0.003
  0
LWPOLYLINE
  5
449
100
AcDbEntity
  8
0
 62
     9
100
AcDbPolyline
 90
        2
 70
     0
 39
0.003
 10
-0.123594
 20
-1.044906
 40
0.003
 41
0.003
 10
-0.133303
 20
-1.036409
 40
0.003
 41
0.003
  0
LWPOLYLINE
  5
44A
100
AcDbEntity
  8
0
 62
     9
100
AcDbPolyline
 90
        2
 70
     0
 39
0.003
 10
-0.123594
 20
-1.044906
 40
0.003
 41
0.003
 10
0.517531
 20
-0.662319
 40
0.003
 41
0.003
  0
LWPOLYLINE
  5
44B
100
AcDbEntity
  8
0
 62
     9
100
AcDbPolyline
 90
        2
 70
     0
 39
0.003
 10
0.517531
 20
-0.662319
 40
0.003
 41
0.003
 10
0.526862
 20
-0.670941
 40
0.003
 41
0.003
  0
LWPOLYLINE
  5
44C
100
AcDbEntity
  8
0
 62
     9
100
AcDbPolyline
 90
        2
 70
     0
 39
0.003
 10
0.526862
 20
-0.670941
 40
0.003
 41
0.003
 10
-0.114264
 20
-1.053528
 40
0.003
 41
0.003
  0
LWPOLYLINE
  5
44D
100
AcDbEntity
  8
0
 62
     9
100
AcDbPolyline
 90
        2
 70
     0
 39
0.003
 10
-0.114264
 20
-1.053528
 40
0.003
 41
0.003
 10
-0.123594
 20
-1.044906
 40
0.003
 41
0.003
  0
LWPOLYLINE
  5
44E
100
AcDbEntity
  8
0
 62
     9
100
AcDbPolyline
 90
        2
 70
     0
 39
0.003
 10
-0.114264
 20
-1.053528
 40
0.003
 41
0.003
 10
0.526862
 20
-0.670941
 40
0.003
 41
0.003
  0
LWPOLYLINE
  5
44F
100
AcDbEntity
  8
0
 62
     9
100
AcDbPolyline
 90
        2
 70
     0
 39
0.003
 10
0.526862
 20
-0.670941
 40
0.003
 41
0.003
 10
0.535823
 20
-0.679701
 40
0.003
 41
0.003
  0
LWPOLYLINE
  5
450
100
AcDbEntity
  8
0
 62
     9
100
AcDbPolyline
 90
        2
 70
     0
 39
0.003
 10
0.535823
 20
-0.679701
 40
0.003
 41
0.003
 10
-0.105303
 20
-1.062287
 40
0.003
 41
0.003
  0
LWPOLYLINE
  5
451
100
AcDbEntity
  8
0
 62
     9
100
AcDbPolyline
 90
        2
 70
     0
 39
0.003
 10
-0.105303
 20
-1.062287
 40
0.003
 41
0.003
 10
-0.114264
 20
-1.053528
 40
0.003
 41
0.003
  0
LWPOLYLINE
  5
452
100
AcDbEntity
  8
0
 62
     9
100
AcDbPolyline
 90
        2
 70
     0
 39
0.003
 10
-0.105303
 20
-1.062287
 40
0.003
 41
0.003
 10
0.535823
 20
-0.679701
 40
0.003
 41
0.003
  0
LWPOLYLINE
  5
453
100
AcDbEntity
  8
0
 62
     9
100
AcDbPolyline
 90
        2
 70
     0
 39
0.003
 10
0.535823
 20
-0.679701
 40
0.003
 41
0.003
 10
0.544402
 20
-0.688575
 40
0.003
 41
0.003
  0
LWPOLYLINE
  5
454
100
AcDbEntity
  8
0
 62
     9
100
AcDbPolyline
 90
        2
 70
     0
 39
0.003
 10
0.544402
 20
-0.688575
 40
0.003
 41
0.003
 10
-0.096724
 20
-1.071161
 40
0.003
 41
0.003
  0
LWPOLYLINE
  5
455
100
AcDbEntity
  8
0
 62
     9
100
AcDbPolyline
 90
        2
 70
     0
 39
0.003
 10
-0.096724
 20
-1.071161
 40
0.003
 41
0.003
 10
-0.105303
 20
-1.062287
 40
0.003
 41
0.003
  0
LWPOLYLINE
  5
456
100
AcDbEntity
  8
0
 62
     9
100
AcDbPolyline
 90
        2
 70
     0
 39
0.003
 10
-0.096724
 20
-1.071161
 40
0.003
 41
0.003
 10
0.544402
 20
-0.688575
 40
0.003
 41
0.003
  0
LWPOLYLINE
  5
457
100
AcDbEntity
  8
0
 62
     9
100
AcDbPolyline
 90
        2
 70
     0
 39
0.003
 10
0.544402
 20
-0.688575
 40
0.003
 41
0.003
 10
0.55261
 20
-0.697563
 40
0.003
 41
0.003
  0
LWPOLYLINE
  5
458
100
AcDbEntity
  8
0
 62
     9
100
AcDbPolyline
 90
        2
 70
     0
 39
0.003
 10
0.55261
 20
-0.697563
 40
0.003
 41
0.003
 10
-0.088516
 20
-1.08015
 40
0.003
 41
0.003
  0
LWPOLYLINE
  5
459
100
AcDbEntity
  8
0
 62
     9
100
AcDbPolyline
 90
        2
 70
     0
 39
0.003
 10
-0.088516
 20
-1.08015
 40
0.003
 41
0.003
 10
-0.096724
 20
-1.071161
 40
0.003
 41
0.003
  0
LWPOLYLINE
  5
45A
100
AcDbEntity
  8
0
 62
     9
100
AcDbPolyline
 90
        2
 70
     0
 39
0.003
 10
-0.088516
 20
-1.08015
 40
0.003
 41
0.003
 10
0.55261
 20
-0.697563
 40
0.003
 41
0.003
  0
LWPOLYLINE
  5
45B
100
AcDbEntity
  8
0
 62
     9
100
AcDbPolyline
 90
        2
 70
     0
 39
0.003
 10
0.55261
 20
-0.697563
 40
0.003
 41
0.003
 10
0.560429
 20
-0.706642
 40
0.003
 41
0.003
  0
LWPOLYLINE
  5
45C
100
AcDbEntity
  8
0
 62
     9
100
AcDbPolyline
 90
        2
 70
     0
 39
0.003
 10
0.560429
 20
-0.706642
 40
0.003
 41
0.003
 10
-0.080697
 20
-1.089228
 40
0.003
 41
0.003
  0
LWPOLYLINE
  5
45D
100
AcDbEntity
  8
0
 62
     9
100
AcDbPolyline
 90
        2
 70
     0
 39
0.003
 10
-0.080697
 20
-1.089228
 40
0.003
 41
0.003
 10
-0.088516
 20
-1.08015
 40
0.003
 41
0.003
  0
LWPOLYLINE
  5
45E
100
AcDbEntity
  8
0
 62
     9
100
AcDbPolyline
 90
        2
 70
     0
 39
0.003
 10
-0.080697
 20
-1.089228
 40
0.003
 41
0.003
 10
0.560429
 20
-0.706642
 40
0.003
 41
0.003
  0
LWPOLYLINE
  5
45F
100
AcDbEntity
  8
0
 62
     9
100
AcDbPolyline
 90
        2
 70
     0
 39
0.003
 10
0.560429
 20
-0.706642
 40
0.003
 41
0.003
 10
0.567878
 20
-0.715811
 40
0.003
 41
0.003
  0
LWPOLYLINE
  5
460
100
AcDbEntity
  8
0
 62
     9
100
AcDbPolyline
 90
        2
 70
     0
 39
0.003
 10
0.567878
 20
-0.715811
 40
0.003
 41
0.003
 10
-0.073248
 20
-1.098398
 40
0.003
 41
0.003
  0
LWPOLYLINE
  5
461
100
AcDbEntity
  8
0
 62
     9
100
AcDbPolyline
 90
        2
 70
     0
 39
0.003
 10
-0.073248
 20
-1.098398
 40
0.003
 41
0.003
 10
-0.080697
 20
-1.089228
 40
0.003
 41
0.003
  0
LWPOLYLINE
  5
462
100
AcDbEntity
  8
0
 62
     9
100
AcDbPolyline
 90
        2
 70
     0
 39
0.003
 10
-0.073248
 20
-1.098398
 40
0.003
 41
0.003
 10
0.567878
 20
-0.715811
 40
0.003
 41
0.003
  0
LWPOLYLINE
  5
463
100
AcDbEntity
  8
0
 62
     9
100
AcDbPolyline
 90
        2
 70
     0
 39
0.003
 10
0.567878
 20
-0.715811
 40
0.003
 41
0.003
 10
0.574933
 20
-0.725051
 40
0.003
 41
0.003
  0
LWPOLYLINE
  5
464
100
AcDbEntity
  8
0
 62
     9
100
AcDbPolyline
 90
        2
 70
     0
 39
0.003
 10
0.574933
 20
-0.725051
 40
0.003
 41
0.003
 10
-0.066193
 20
-1.107638
 40
0.003
 41
0.003
  0
LWPOLYLINE
  5
465
100
AcDbEntity
  8
0
 62
     9
100
AcDbPolyline
 90
        2
 70
     0
 39
0.003
 10
-0.066193
 20
-1.107638
 40
0.003
 41
0.003
 10
-0.073248
 20
-1.098398
 40
0.003
 41
0.003
  0
LWPOLYLINE
  5
466
100
AcDbEntity
  8
0
 62
     9
100
AcDbPolyline
 90
        2
 70
     0
 39
0.003
 10
-0.066193
 20
-1.107638
 40
0.003
 41
0.003
 10
0.574933
 20
-0.725051
 40
0.003
 41
0.003
  0
LWPOLYLINE
  5
467
100
AcDbEntity
  8
0
 62
     9
100
AcDbPolyline
 90
        2
 70
     0
 39
0.003
 10
0.574933
 20
-0.725051
 40
0.003
 41
0.003
 10
0.58161
 20
-0.734362
 40
0.003
 41
0.003
  0
LWPOLYLINE
  5
468
100
AcDbEntity
  8
0
 62
     9
100
AcDbPolyline
 90
        2
 70
     0
 39
0.003
 10
0.58161
 20
-0.734362
 40
0.003
 41
0.003
 10
-0.059516
 20
-1.116949
 40
0.003
 41
0.003
  0
LWPOLYLINE
  5
469
100
AcDbEntity
  8
0
 62
     9
100
AcDbPolyline
 90
        2
 70
     0
 39
0.003
 10
-0.059516
 20
-1.116949
 40
0.003
 41
0.003
 10
-0.066193
 20
-1.107638
 40
0.003
 41
0.003
  0
LWPOLYLINE
  5
46A
100
AcDbEntity
  8
0
 62
     9
100
AcDbPolyline
 90
        2
 70
     0
 39
0.003
 10
-0.059516
 20
-1.116949
 40
0.003
 41
0.003
 10
0.58161
 20
-0.734362
 40
0.003
 41
0.003
  0
LWPOLYLINE
  5
46B
100
AcDbEntity
  8
0
 62
     9
100
AcDbPolyline
 90
        2
 70
     0
 39
0.003
 10
0.58161
 20
-0.734362
 40
0.003
 41
0.003
 10
0.58789
 20
-0.743717
 40
0.003
 41
0.003
  0
LWPOLYLINE
  5
46C
100
AcDbEntity
  8
0
 62
     9
100
AcDbPolyline
 90
        2
 70
     0
 39
0.003
 10
0.58789
 20
-0.743717
 40
0.003
 41
0.003
 10
-0.053236
 20
-1.126303
 40
0.003
 41
0.003
  0
LWPOLYLINE
  5
46D
100
AcDbEntity
  8
0
 62
     9
100
AcDbPolyline
 90
        2
 70
     0
 39
0.003
 10
-0.053236
 20
-1.126303
 40
0.003
 41
0.003
 10
-0.059516
 20
-1.116949
 40
0.003
 41
0.003
  0
LWPOLYLINE
  5
46E
100
AcDbEntity
  8
0
 62
     9
100
AcDbPolyline
 90
        2
 70
     0
 39
0.003
 10
-0.053236
 20
-1.126303
 40
0.003
 41
0.003
 10
0.58789
 20
-0.743717
 40
0.003
 41
0.003
  0
LWPOLYLINE
  5
46F
100
AcDbEntity
  8
0
 62
     9
100
AcDbPolyline
 90
        2
 70
     0
 39
0.003
 10
0.58789
 20
-0.743717
 40
0.003
 41
0.003
 10
0.593783
 20
-0.753122
 40
0.003
 41
0.003
  0
LWPOLYLINE
  5
470
100
AcDbEntity
  8
0
 62
     9
100
AcDbPolyline
 90
        2
 70
     0
 39
0.003
 10
0.593783
 20
-0.753122
 40
0.003
 41
0.003
 10
-0.047343
 20
-1.135709
 40
0.003
 41
0.003
  0
LWPOLYLINE
  5
471
100
AcDbEntity
  8
0
 62
     9
100
AcDbPolyline
 90
        2
 70
     0
 39
0.003
 10
-0.047343
 20
-1.135709
 40
0.003
 41
0.003
 10
-0.053236
 20
-1.126303
 40
0.003
 41
0.003
  0
LWPOLYLINE
  5
472
100
AcDbEntity
  8
0
 62
     9
100
AcDbPolyline
 90
        2
 70
     0
 39
0.003
 10
-0.047343
 20
-1.135709
 40
0.003
 41
0.003
 10
0.593783
 20
-0.753122
 40
0.003
 41
0.003
  0
LWPOLYLINE
  5
473
100
AcDbEntity
  8
0
 62
     9
100
AcDbPolyline
 90
        2
 70
     0
 39
0.003
 10
0.593783
 20
-0.753122
 40
0.003
 41
0.003
 10
0.599283
 20
-0.762555
 40
0.003
 41
0.003
  0
LWPOLYLINE
  5
474
100
AcDbEntity
  8
0
 62
     9
100
AcDbPolyline
 90
        2
 70
     0
 39
0.003
 10
0.599283
 20
-0.762555
 40
0.003
 41
0.003
 10
-0.041843
 20
-1.145142
 40
0.003
 41
0.003
  0
LWPOLYLINE
  5
475
100
AcDbEntity
  8
0
 62
     9
100
AcDbPolyline
 90
        2
 70
     0
 39
0.003
 10
-0.041843
 20
-1.145142
 40
0.003
 41
0.003
 10
-0.047343
 20
-1.135709
 40
0.003
 41
0.003
  0
LWPOLYLINE
  5
476
100
AcDbEntity
  8
0
 62
     9
100
AcDbPolyline
 90
        2
 70
     0
 39
0.003
 10
-0.041843
 20
-1.145142
 40
0.003
 41
0.003
 10
0.599283
 20
-0.762555
 40
0.003
 41
0.003
  0
LWPOLYLINE
  5
477
100
AcDbEntity
  8
0
 62
     9
100
AcDbPolyline
 90
        2
 70
     0
 39
0.003
 10
0.599283
 20
-0.762555
 40
0.003
 41
0.003
 10
0.604394
 20
-0.772016
 40
0.003
 41
0.003
  0
LWPOLYLINE
  5
478
100
AcDbEntity
  8
0
 62
     9
100
AcDbPolyline
 90
        2
 70
     0
 39
0.003
 10
0.604394
 20
-0.772016
 40
0.003
 41
0.003
 10
-0.036732
 20
-1.154602
 40
0.003
 41
0.003
  0
LWPOLYLINE
  5
479
100
AcDbEntity
  8
0
 62
     9
100
AcDbPolyline
 90
        2
 70
     0
 39
0.003
 10
-0.036732
 20
-1.154602
 40
0.003
 41
0.003
 10
-0.041843
 20
-1.145142
 40
0.003
 41
0.003
  0
LWPOLYLINE
  5
47A
100
AcDbEntity
  8
0
 62
     9
100
AcDbPolyline
 90
        2
 70
     0
 39
0.003
 10
-0.036732
 20
-1.154602
 40
0.003
 41
0.003
 10
0.604394
 20
-0.772016
 40
0.003
 41
0.003
  0
LWPOLYLINE
  5
47B
100
AcDbEntity
  8
0
 62
     9
100
AcDbPolyline
 90
        2
 70
     0
 39
0.003
 10
0.604394
 20
-0.772016
 40
0.003
 41
0.003
 10
0.609102
 20
-0.781476
 40
0.003
 41
0.003
  0
LWPOLYLINE
  5
47C
100
AcDbEntity
  8
0
 62
     9
100
AcDbPolyline
 90
        2
 70
     0
 39
0.003
 10
0.609102
 20
-0.781476
 40
0.003
 41
0.003
 10
-0.032024
 20
-1.164063
 40
0.003
 41
0.003
  0
LWPOLYLINE
  5
47D
100
AcDbEntity
  8
0
 62
     9
100
AcDbPolyline
 90
        2
 70
     0
 39
0.003
 10
-0.032024
 20
-1.164063
 40
0.003
 41
0.003
 10
-0.036732
 20
-1.154602
 40
0.003
 41
0.003
  0
LWPOLYLINE
  5
47E
100
AcDbEntity
  8
0
 62
     9
100
AcDbPolyline
 90
        2
 70
     0
 39
0.003
 10
-0.032024
 20
-1.164063
 40
0.003
 41
0.003
 10
0.609102
 20
-0.781476
 40
0.003
 41
0.003
  0
LWPOLYLINE
  5
47F
100
AcDbEntity
  8
0
 62
     9
100
AcDbPolyline
 90
        2
 70
     0
 39
0.003
 10
0.609102
 20
-0.781476
 40
0.003
 41
0.003
 10
0.613417
 20
-0.790945
 40
0.003
 41
0.003
  0
LWPOLYLINE
  5
480
100
AcDbEntity
  8
0
 62
     9
100
AcDbPolyline
 90
        2
 70
     0
 39
0.003
 10
0.613417
 20
-0.790945
 40
0.003
 41
0.003
 10
-0.027709
 20
-1.173531
 40
0.003
 41
0.003
  0
LWPOLYLINE
  5
481
100
AcDbEntity
  8
0
 62
     9
100
AcDbPolyline
 90
        2
 70
     0
 39
0.003
 10
-0.027709
 20
-1.173531
 40
0.003
 41
0.003
 10
-0.032024
 20
-1.164063
 40
0.003
 41
0.003
  0
LWPOLYLINE
  5
482
100
AcDbEntity
  8
0
 62
     9
100
AcDbPolyline
 90
        2
 70
     0
 39
0.003
 10
-0.027709
 20
-1.173531
 40
0.003
 41
0.003
 10
0.613417
 20
-0.790945
 40
0.003
 41
0.003
  0
LWPOLYLINE
  5
483
100
AcDbEntity
  8
0
 62
     9
100
AcDbPolyline
 90
        2
 70
     0
 39
0.003
 10
0.613417
 20
-0.790945
 40
0.003
 41
0.003
 10
0.617327
 20
-0.800402
 40
0.003
 41
0.003
  0
LWPOLYLINE
  5
484
100
AcDbEntity
  8
0
 62
     9
100
AcDbPolyline
 90
        2
 70
     0
 39
0.003
 10
0.617327
 20
-0.800402
 40
0.003
 41
0.003
 10
-0.023799
 20
-1.182988
 40
0.003
 41
0.003
  0
LWPOLYLINE
  5
485
100
AcDbEntity
  8
0
 62
     9
100
AcDbPolyline
 90
        2
 70
     0
 39
0.003
 10
-0.023799
 20
-1.182988
 40
0.003
 41
0.003
 10
-0.027709
 20
-1.173531
 40
0.003
 41
0.003
  0
LWPOLYLINE
  5
486
100
AcDbEntity
  8
0
 62
     9
100
AcDbPolyline
 90
        2
 70
     0
 39
0.003
 10
-0.023799
 20
-1.182988
 40
0.003
 41
0.003
 10
0.617327
 20
-0.800402
 40
0.003
 41
0.003
  0
LWPOLYLINE
  5
487
100
AcDbEntity
  8
0
 62
     9
100
AcDbPolyline
 90
        2
 70
     0
 39
0.003
 10
0.617327
 20
-0.800402
 40
0.003
 41
0.003
 10
0.620843
 20
-0.809843
 40
0.003
 41
0.003
  0
LWPOLYLINE
  5
488
100
AcDbEntity
  8
0
 62
     9
100
AcDbPolyline
 90
        2
 70
     0
 39
0.003
 10
0.620843
 20
-0.809843
 40
0.003
 41
0.003
 10
-0.020283
 20
-1.192429
 40
0.003
 41
0.003
  0
LWPOLYLINE
  5
489
100
AcDbEntity
  8
0
 62
     9
100
AcDbPolyline
 90
        2
 70
     0
 39
0.003
 10
-0.020283
 20
-1.192429
 40
0.003
 41
0.003
 10
-0.023799
 20
-1.182988
 40
0.003
 41
0.003
  0
LWPOLYLINE
  5
48A
100
AcDbEntity
  8
0
 62
     9
100
AcDbPolyline
 90
        2
 70
     0
 39
0.003
 10
-0.020283
 20
-1.192429
 40
0.003
 41
0.003
 10
0.620843
 20
-0.809843
 40
0.003
 41
0.003
  0
LWPOLYLINE
  5
48B
100
AcDbEntity
  8
0
 62
     9
100
AcDbPolyline
 90
        2
 70
     0
 39
0.003
 10
0.620843
 20
-0.809843
 40
0.003
 41
0.003
 10
0.623941
 20
-0.81924
 40
0.003
 41
0.003
  0
LWPOLYLINE
  5
48C
100
AcDbEntity
  8
0
 62
     9
100
AcDbPolyline
 90
        2
 70
     0
 39
0.003
 10
0.623941
 20
-0.81924
 40
0.003
 41
0.003
 10
-0.017185
 20
-1.201827
 40
0.003
 41
0.003
  0
LWPOLYLINE
  5
48D
100
AcDbEntity
  8
0
 62
     9
100
AcDbPolyline
 90
        2
 70
     0
 39
0.003
 10
-0.017185
 20
-1.201827
 40
0.003
 41
0.003
 10
-0.020283
 20
-1.192429
 40
0.003
 41
0.003
  0
LWPOLYLINE
  5
48E
100
AcDbEntity
  8
0
 62
     9
100
AcDbPolyline
 90
        2
 70
     0
 39
0.003
 10
-0.017185
 20
-1.201827
 40
0.003
 41
0.003
 10
0.623941
 20
-0.81924
 40
0.003
 41
0.003
  0
LWPOLYLINE
  5
48F
100
AcDbEntity
  8
0
 62
     9
100
AcDbPolyline
 90
        2
 70
     0
 39
0.003
 10
0.623941
 20
-0.81924
 40
0.003
 41
0.003
 10
0.626642
 20
-0.828606
 40
0.003
 41
0.003
  0
LWPOLYLINE
  5
490
100
AcDbEntity
  8
0
 62
     9
100
AcDbPolyline
 90
        2
 70
     0
 39
0.003
 10
0.626642
 20
-0.828606
 40
0.003
 41
0.003
 10
-0.014484
 20
-1.211193
 40
0.003
 41
0.003
  0
LWPOLYLINE
  5
491
100
AcDbEntity
  8
0
 62
     9
100
AcDbPolyline
 90
        2
 70
     0
 39
0.003
 10
-0.014484
 20
-1.211193
 40
0.003
 41
0.003
 10
-0.017185
 20
-1.201827
 40
0.003
 41
0.003
  0
LWPOLYLINE
  5
492
100
AcDbEntity
  8
0
 62
     9
100
AcDbPolyline
 90
        2
 70
     0
 39
0.003
 10
-0.014484
 20
-1.211193
 40
0.003
 41
0.003
 10
0.626642
 20
-0.828606
 40
0.003
 41
0.003
  0
LWPOLYLINE
  5
493
100
AcDbEntity
  8
0
 62
     9
100
AcDbPolyline
 90
        2
 70
     0
 39
0.003
 10
0.626642
 20
-0.828606
 40
0.003
 41
0.003
 10
0.628929
 20
-0.837909
 40
0.003
 41
0.003
  0
LWPOLYLINE
  5
494
100
AcDbEntity
  8
0
 62
     9
100
AcDbPolyline
 90
        2
 70
     0
 39
0.003
 10
0.628929
 20
-0.837909
 40
0.003
 41
0.003
 10
-0.012197
 20
-1.220496
 40
0.003
 41
0.003
  0
LWPOLYLINE
  5
495
100
AcDbEntity
  8
0
 62
     9
100
AcDbPolyline
 90
        2
 70
     0
 39
0.003
 10
-0.012197
 20
-1.220496
 40
0.003
 41
0.003
 10
-0.014484
 20
-1.211193
 40
0.003
 41
0.003
  0
LWPOLYLINE
  5
496
100
AcDbEntity
  8
0
 62
     9
100
AcDbPolyline
 90
        2
 70
     0
 39
0.003
 10
-0.012197
 20
-1.220496
 40
0.003
 41
0.003
 10
0.628929
 20
-0.837909
 40
0.003
 41
0.003
  0
LWPOLYLINE
  5
497
100
AcDbEntity
  8
0
 62
     9
100
AcDbPolyline
 90
        2
 70
     0
 39
0.003
 10
0.628929
 20
-0.837909
 40
0.003
 41
0.003
 10
0.630815
 20
-0.847157
 40
0.003
 41
0.003
  0
LWPOLYLINE
  5
498
100
AcDbEntity
  8
0
 62
     9
100
AcDbPolyline
 90
        2
 70
     0
 39
0.003
 10
0.630815
 20
-0.847157
 40
0.003
 41
0.003
 10
-0.010311
 20
-1.229744
 40
0.003
 41
0.003
  0
LWPOLYLINE
  5
499
100
AcDbEntity
  8
0
 62
     9
100
AcDbPolyline
 90
        2
 70
     0
 39
0.003
 10
-0.010311
 20
-1.229744
 40
0.003
 41
0.003
 10
-0.012197
 20
-1.220496
 40
0.003
 41
0.003
  0
LWPOLYLINE
  5
49A
100
AcDbEntity
  8
0
 62
     9
100
AcDbPolyline
 90
        2
 70
     0
 39
0.003
 10
-0.010311
 20
-1.229744
 40
0.003
 41
0.003
 10
0.630815
 20
-0.847157
 40
0.003
 41
0.003
  0
LWPOLYLINE
  5
49B
100
AcDbEntity
  8
0
 62
     9
100
AcDbPolyline
 90
        2
 70
     0
 39
0.003
 10
0.630815
 20
-0.847157
 40
0.003
 41
0.003
 10
0.632276
 20
-0.856319
 40
0.003
 41
0.003
  0
LWPOLYLINE
  5
49C
100
AcDbEntity
  8
0
 62
     9
100
AcDbPolyline
 90
        2
 70
     0
 39
0.003
 10
0.632276
 20
-0.856319
 40
0.003
 41
0.003
 10
-0.00885
 20
-1.238906
 40
0.003
 41
0.003
  0
LWPOLYLINE
  5
49D
100
AcDbEntity
  8
0
 62
     9
100
AcDbPolyline
 90
        2
 70
     0
 39
0.003
 10
-0.00885
 20
-1.238906
 40
0.003
 41
0.003
 10
-0.010311
 20
-1.229744
 40
0.003
 41
0.003
  0
LWPOLYLINE
  5
49E
100
AcDbEntity
  8
0
 62
     9
100
AcDbPolyline
 90
        2
 70
     0
 39
0.003
 10
-0.00885
 20
-1.238906
 40
0.003
 41
0.003
 10
0.632276
 20
-0.856319
 40
0.003
 41
0.003
  0
LWPOLYLINE
  5
49F
100
AcDbEntity
  8
0
 62
     9
100
AcDbPolyline
 90
        2
 70
     0
 39
0.003
 10
0.632276
 20
-0.856319
 40
0.003
 41
0.003
 10
0.633331
 20
-0.865402
 40
0.003
 41
0.003
  0
LWPOLYLINE
  5
4A0
100
AcDbEntity
  8
0
 62
     9
100
AcDbPolyline
 90
        2
 70
     0
 39
0.003
 10
0.633331
 20
-0.865402
 40
0.003
 41
0.003
 10
-0.007795
 20
-1.247988
 40
0.003
 41
0.003
  0
LWPOLYLINE
  5
4A1
100
AcDbEntity
  8
0
 62
     9
100
AcDbPolyline
 90
        2
 70
     0
 39
0.003
 10
-0.007795
 20
-1.247988
 40
0.003
 41
0.003
 10
-0.00885
 20
-1.238906
 40
0.003
 41
0.003
  0
LWPOLYLINE
  5
4A2
100
AcDbEntity
  8
0
 62
     9
100
AcDbPolyline
 90
        2
 70
     0
 39
0.003
 10
-0.007795
 20
-1.247988
 40
0.003
 41
0.003
 10
0.633331
 20
-0.865402
 40
0.003
 41
0.003
  0
LWPOLYLINE
  5
4A3
100
AcDbEntity
  8
0
 62
     9
100
AcDbPolyline
 90
        2
 70
     0
 39
0.003
 10
0.633331
 20
-0.865402
 40
0.003
 41
0.003
 10
0.633965
 20
-0.874386
 40
0.003
 41
0.003
  0
LWPOLYLINE
  5
4A4
100
AcDbEntity
  8
0
 62
     9
100
AcDbPolyline
 90
        2
 70
     0
 39
0.003
 10
0.633965
 20
-0.874386
 40
0.003
 41
0.003
 10
-0.007161
 20
-1.256972
 40
0.003
 41
0.003
  0
LWPOLYLINE
  5
4A5
100
AcDbEntity
  8
0
 62
     9
100
AcDbPolyline
 90
        2
 70
     0
 39
0.003
 10
-0.007161
 20
-1.256972
 40
0.003
 41
0.003
 10
-0.007795
 20
-1.247988
 40
0.003
 41
0.003
  0
LWPOLYLINE
  5
4A6
100
AcDbEntity
  8
0
 62
     9
100
AcDbPolyline
 90
        2
 70
     0
 39
0.003
 10
-0.007161
 20
-1.256972
 40
0.003
 41
0.003
 10
0.633965
 20
-0.874386
 40
0.003
 41
0.003
  0
LWPOLYLINE
  5
4A7
100
AcDbEntity
  8
0
 62
     9
100
AcDbPolyline
 90
        2
 70
     0
 39
0.003
 10
0.633965
 20
-0.874386
 40
0.003
 41
0.003
 10
0.634185
 20
-0.883268
 40
0.003
 41
0.003
  0
LWPOLYLINE
  5
4A8
100
AcDbEntity
  8
0
 62
     9
100
AcDbPolyline
 90
        2
 70
     0
 39
0.003
 10
0.634185
 20
-0.883268
 40
0.003
 41
0.003
 10
-0.006941
 20
-1.265854
 40
0.003
 41
0.003
  0
LWPOLYLINE
  5
4A9
100
AcDbEntity
  8
0
 62
     9
100
AcDbPolyline
 90
        2
 70
     0
 39
0.003
 10
-0.006941
 20
-1.265854
 40
0.003
 41
0.003
 10
-0.007161
 20
-1.256972
 40
0.003
 41
0.003
  0
LWPOLYLINE
  5
4AA
100
AcDbEntity
  8
0
 62
     9
100
AcDbPolyline
 90
        2
 70
     0
 39
0.003
 10
-0.006941
 20
-1.265854
 40
0.003
 41
0.003
 10
0.634185
 20
-0.883268
 40
0.003
 41
0.003
  0
LWPOLYLINE
  5
4AB
100
AcDbEntity
  8
0
 62
     9
100
AcDbPolyline
 90
        2
 70
     0
 39
0.003
 10
0.634185
 20
-0.883268
 40
0.003
 41
0.003
 10
0.634079
 20
-0.891913
 40
0.003
 41
0.003
  0
LWPOLYLINE
  5
4AC
100
AcDbEntity
  8
0
 62
     9
100
AcDbPolyline
 90
        2
 70
     0
 39
0.003
 10
0.634079
 20
-0.891913
 40
0.003
 41
0.003
 10
-0.007047
 20
-1.2745
 40
0.003
 41
0.003
  0
LWPOLYLINE
  5
4AD
100
AcDbEntity
  8
0
 62
     9
100
AcDbPolyline
 90
        2
 70
     0
 39
0.003
 10
-0.007047
 20
-1.2745
 40
0.003
 41
0.003
 10
-0.006941
 20
-1.265854
 40
0.003
 41
0.003
  0
LWPOLYLINE
  5
4AE
100
AcDbEntity
  8
0
 62
     9
100
AcDbPolyline
 90
        2
 70
     0
 39
0.003
 10
-0.007047
 20
-1.2745
 40
0.003
 41
0.003
 10
0.634079
 20
-0.891913
 40
0.003
 41
0.003
  0
LWPOLYLINE
  5
4AF
100
AcDbEntity
  8
0
 62
     9
100
AcDbPolyline
 90
        2
 70
     0
 39
0.003
 10
0.634079
 20
-0.891913
 40
0.003
 41
0.003
 10
0.633776
 20
-0.900228
 40
0.003
 41
0.003
  0
LWPOLYLINE
  5
4B0
100
AcDbEntity
  8
0
 62
     9
100
AcDbPolyline
 90
        2
 70
     0
 39
0.003
 10
0.633776
 20
-0.900228
 40
0.003
 41
0.003
 10
-0.00735
 20
-1.282815
 40
0.003
 41
0.003
  0
LWPOLYLINE
  5
4B1
100
AcDbEntity
  8
0
 62
     9
100
AcDbPolyline
 90
        2
 70
     0
 39
0.003
 10
-0.00735
 20
-1.282815
 40
0.003
 41
0.003
 10
-0.007047
 20
-1.2745
 40
0.003
 41
0.003
  0
LWPOLYLINE
  5
4B2
100
AcDbEntity
  8
0
 62
     9
100
AcDbPolyline
 90
        2
 70
     0
 39
0.003
 10
-0.00735
 20
-1.282815
 40
0.003
 41
0.003
 10
0.633776
 20
-0.900228
 40
0.003
 41
0.003
  0
LWPOLYLINE
  5
4B3
100
AcDbEntity
  8
0
 62
     9
100
AcDbPolyline
 90
        2
 70
     0
 39
0.003
 10
0.633776
 20
-0.900228
 40
0.003
 41
0.003
 10
0.633268
 20
-0.908213
 40
0.003
 41
0.003
  0
LWPOLYLINE
  5
4B4
100
AcDbEntity
  8
0
 62
     9
100
AcDbPolyline
 90
        2
 70
     0
 39
0.003
 10
0.633268
 20
-0.908213
 40
0.003
 41
0.003
 10
-0.007858
 20
-1.290799
 40
0.003
 41
0.003
  0
LWPOLYLINE
  5
4B5
100
AcDbEntity
  8
0
 62
     9
100
AcDbPolyline
 90
        2
 70
     0
 39
0.003
 10
-0.007858
 20
-1.290799
 40
0.003
 41
0.003
 10
-0.00735
 20
-1.282815
 40
0.003
 41
0.003
  0
LWPOLYLINE
  5
4B6
100
AcDbEntity
  8
0
 62
     9
100
AcDbPolyline
 90
        2
 70
     0
 39
0.003
 10
-0.007858
 20
-1.290799
 40
0.003
 41
0.003
 10
0.633268
 20
-0.908213
 40
0.003
 41
0.003
  0
LWPOLYLINE
  5
4B7
100
AcDbEntity
  8
0
 62
     9
100
AcDbPolyline
 90
        2
 70
     0
 39
0.003
 10
0.633268
 20
-0.908213
 40
0.003
 41
0.003
 10
0.632579
 20
-0.91589
 40
0.003
 41
0.003
  0
LWPOLYLINE
  5
4B8
100
AcDbEntity
  8
0
 62
     9
100
AcDbPolyline
 90
        2
 70
     0
 39
0.003
 10
0.632579
 20
-0.91589
 40
0.003
 41
0.003
 10
-0.008547
 20
-1.298476
 40
0.003
 41
0.003
  0
LWPOLYLINE
  5
4B9
100
AcDbEntity
  8
0
 62
     9
100
AcDbPolyline
 90
        2
 70
     0
 39
0.003
 10
-0.008547
 20
-1.298476
 40
0.003
 41
0.003
 10
-0.007858
 20
-1.290799
 40
0.003
 41
0.003
  0
LWPOLYLINE
  5
4BA
100
AcDbEntity
  8
0
 62
   253
100
AcDbPolyline
 90
        2
 70
     0
 39
0.003
 10
-0.008547
 20
-1.298476
 40
0.003
 41
0.003
 10
0.632579
 20
-0.91589
 40
0.003
 41
0.003
  0
LWPOLYLINE
  5
4BB
100
AcDbEntity
  8
0
 62
   253
100
AcDbPolyline
 90
        2
 70
     0
 39
0.003
 10
0.632579
 20
-0.91589
 40
0.003
 41
0.003
 10
0.631697
 20
-0.923252
 40
0.003
 41
0.003
  0
LWPOLYLINE
  5
4BC
100
AcDbEntity
  8
0
 62
   253
100
AcDbPolyline
 90
        2
 70
     0
 39
0.003
 10
0.631697
 20
-0.923252
 40
0.003
 41
0.003
 10
-0.009429
 20
-1.305839
 40
0.003
 41
0.003
  0
LWPOLYLINE
  5
4BD
100
AcDbEntity
  8
0
 62
   253
100
AcDbPolyline
 90
        2
 70
     0
 39
0.003
 10
-0.009429
 20
-1.305839
 40
0.003
 41
0.003
 10
-0.008547
 20
-1.298476
 40
0.003
 41
0.003
  0
LWPOLYLINE
  5
4BE
100
AcDbEntity
  8
0
 62
   253
100
AcDbPolyline
 90
        2
 70
     0
 39
0.003
 10
-0.009429
 20
-1.305839
 40
0.003
 41
0.003
 10
0.631697
 20
-0.923252
 40
0.003
 41
0.003
  0
LWPOLYLINE
  5
4BF
100
AcDbEntity
  8
0
 62
   253
100
AcDbPolyline
 90
        2
 70
     0
 39
0.003
 10
0.631697
 20
-0.923252
 40
0.003
 41
0.003
 10
0.630642
 20
-0.930323
 40
0.003
 41
0.003
  0
LWPOLYLINE
  5
4C0
100
AcDbEntity
  8
0
 62
   253
100
AcDbPolyline
 90
        2
 70
     0
 39
0.003
 10
0.630642
 20
-0.930323
 40
0.003
 41
0.003
 10
-0.010484
 20
-1.312909
 40
0.003
 41
0.003
  0
LWPOLYLINE
  5
4C1
100
AcDbEntity
  8
0
 62
   253
100
AcDbPolyline
 90
        2
 70
     0
 39
0.003
 10
-0.010484
 20
-1.312909
 40
0.003
 41
0.003
 10
-0.009429
 20
-1.305839
 40
0.003
 41
0.003
  0
LWPOLYLINE
  5
4C2
100
AcDbEntity
  8
0
 62
   253
100
AcDbPolyline
 90
        2
 70
     0
 39
0.003
 10
-0.010484
 20
-1.312909
 40
0.003
 41
0.003
 10
0.630642
 20
-0.930323
 40
0.003
 41
0.003
  0
LWPOLYLINE
  5
4C3
100
AcDbEntity
  8
0
 62
   253
100
AcDbPolyline
 90
        2
 70
     0
 39
0.003
 10
0.630642
 20
-0.930323
 40
0.003
 41
0.003
 10
0.629413
 20
-0.937106
 40
0.003
 41
0.003
  0
LWPOLYLINE
  5
4C4
100
AcDbEntity
  8
0
 62
   253
100
AcDbPolyline
 90
        2
 70
     0
 39
0.003
 10
0.629413
 20
-0.937106
 40
0.003
 41
0.003
 10
-0.011713
 20
-1.319693
 40
0.003
 41
0.003
  0
LWPOLYLINE
  5
4C5
100
AcDbEntity
  8
0
 62
   253
100
AcDbPolyline
 90
        2
 70
     0
 39
0.003
 10
-0.011713
 20
-1.319693
 40
0.003
 41
0.003
 10
-0.010484
 20
-1.312909
 40
0.003
 41
0.003
  0
LWPOLYLINE
  5
4C6
100
AcDbEntity
  8
0
 62
   253
100
AcDbPolyline
 90
        2
 70
     0
 39
0.003
 10
-0.011713
 20
-1.319693
 40
0.003
 41
0.003
 10
0.629413
 20
-0.937106
 40
0.003
 41
0.003
  0
LWPOLYLINE
  5
4C7
100
AcDbEntity
  8
0
 62
   253
100
AcDbPolyline
 90
        2
 70
     0
 39
0.003
 10
0.629413
 20
-0.937106
 40
0.003
 41
0.003
 10
0.628028
 20
-0.943618
 40
0.003
 41
0.003
  0
LWPOLYLINE
  5
4C8
100
AcDbEntity
  8
0
 62
   253
100
AcDbPolyline
 90
        2
 70
     0
 39
0.003
 10
0.628028
 20
-0.943618
 40
0.003
 41
0.003
 10
-0.013098
 20
-1.326205
 40
0.003
 41
0.003
  0
LWPOLYLINE
  5
4C9
100
AcDbEntity
  8
0
 62
   253
100
AcDbPolyline
 90
        2
 70
     0
 39
0.003
 10
-0.013098
 20
-1.326205
 40
0.003
 41
0.003
 10
-0.011713
 20
-1.319693
 40
0.003
 41
0.003
  0
LWPOLYLINE
  5
4CA
100
AcDbEntity
  8
0
 62
   253
100
AcDbPolyline
 90
        2
 70
     0
 39
0.003
 10
-0.013098
 20
-1.326205
 40
0.003
 41
0.003
 10
0.628028
 20
-0.943618
 40
0.003
 41
0.003
  0
LWPOLYLINE
  5
4CB
100
AcDbEntity
  8
0
 62
   253
100
AcDbPolyline
 90
        2
 70
     0
 39
0.003
 10
0.628028
 20
-0.943618
 40
0.003
 41
0.003
 10
0.626469
 20
-0.949854
 40
0.003
 41
0.003
  0
LWPOLYLINE
  5
4CC
100
AcDbEntity
  8
0
 62
   253
100
AcDbPolyline
 90
        2
 70
     0
 39
0.003
 10
0.626469
 20
-0.949854
 40
0.003
 41
0.003
 10
-0.014657
 20
-1.332441
 40
0.003
 41
0.003
  0
LWPOLYLINE
  5
4CD
100
AcDbEntity
  8
0
 62
   253
100
AcDbPolyline
 90
        2
 70
     0
 39
0.003
 10
-0.014657
 20
-1.332441
 40
0.003
 41
0.003
 10
-0.013098
 20
-1.326205
 40
0.003
 41
0.003
  0
LWPOLYLINE
  5
4CE
100
AcDbEntity
  8
0
 62
   253
100
AcDbPolyline
 90
        2
 70
     0
 39
0.003
 10
-0.014657
 20
-1.332441
 40
0.003
 41
0.003
 10
0.626469
 20
-0.949854
 40
0.003
 41
0.003
  0
LWPOLYLINE
  5
4CF
100
AcDbEntity
  8
0
 62
   253
100
AcDbPolyline
 90
        2
 70
     0
 39
0.003
 10
0.626469
 20
-0.949854
 40
0.003
 41
0.003
 10
0.624768
 20
-0.955839
 40
0.003
 41
0.003
  0
LWPOLYLINE
  5
4D0
100
AcDbEntity
  8
0
 62
   253
100
AcDbPolyline
 90
        2
 70
     0
 39
0.003
 10
0.624768
 20
-0.955839
 40
0.003
 41
0.003
 10
-0.016358
 20
-1.338425
 40
0.003
 41
0.003
  0
LWPOLYLINE
  5
4D1
100
AcDbEntity
  8
0
 62
   253
100
AcDbPolyline
 90
        2
 70
     0
 39
0.003
 10
-0.016358
 20
-1.338425
 40
0.003
 41
0.003
 10
-0.014657
 20
-1.332441
 40
0.003
 41
0.003
  0
LWPOLYLINE
  5
4D2
100
AcDbEntity
  8
0
 62
   253
100
AcDbPolyline
 90
        2
 70
     0
 39
0.003
 10
-0.016358
 20
-1.338425
 40
0.003
 41
0.003
 10
0.624768
 20
-0.955839
 40
0.003
 41
0.003
  0
LWPOLYLINE
  5
4D3
100
AcDbEntity
  8
0
 62
   253
100
AcDbPolyline
 90
        2
 70
     0
 39
0.003
 10
0.624768
 20
-0.955839
 40
0.003
 41
0.003
 10
0.622917
 20
-0.961571
 40
0.003
 41
0.003
  0
LWPOLYLINE
  5
4D4
100
AcDbEntity
  8
0
 62
   253
100
AcDbPolyline
 90
        2
 70
     0
 39
0.003
 10
0.622917
 20
-0.961571
 40
0.003
 41
0.003
 10
-0.018209
 20
-1.344157
 40
0.003
 41
0.003
  0
LWPOLYLINE
  5
4D5
100
AcDbEntity
  8
0
 62
   253
100
AcDbPolyline
 90
        2
 70
     0
 39
0.003
 10
-0.018209
 20
-1.344157
 40
0.003
 41
0.003
 10
-0.016358
 20
-1.338425
 40
0.003
 41
0.003
  0
LWPOLYLINE
  5
4D6
100
AcDbEntity
  8
0
 62
   253
100
AcDbPolyline
 90
        2
 70
     0
 39
0.003
 10
-0.018209
 20
-1.344157
 40
0.003
 41
0.003
 10
0.622917
 20
-0.961571
 40
0.003
 41
0.003
  0
LWPOLYLINE
  5
4D7
100
AcDbEntity
  8
0
 62
   253
100
AcDbPolyline
 90
        2
 70
     0
 39
0.003
 10
0.622917
 20
-0.961571
 40
0.003
 41
0.003
 10
0.620933
 20
-0.967075
 40
0.003
 41
0.003
  0
LWPOLYLINE
  5
4D8
100
AcDbEntity
  8
0
 62
   253
100
AcDbPolyline
 90
        2
 70
     0
 39
0.003
 10
0.620933
 20
-0.967075
 40
0.003
 41
0.003
 10
-0.020193
 20
-1.349661
 40
0.003
 41
0.003
  0
LWPOLYLINE
  5
4D9
100
AcDbEntity
  8
0
 62
   253
100
AcDbPolyline
 90
        2
 70
     0
 39
0.003
 10
-0.020193
 20
-1.349661
 40
0.003
 41
0.003
 10
-0.018209
 20
-1.344157
 40
0.003
 41
0.003
  0
LWPOLYLINE
  5
4DA
100
AcDbEntity
  8
0
 62
   253
100
AcDbPolyline
 90
        2
 70
     0
 39
0.003
 10
-0.020193
 20
-1.349661
 40
0.003
 41
0.003
 10
0.620933
 20
-0.967075
 40
0.003
 41
0.003
  0
LWPOLYLINE
  5
4DB
100
AcDbEntity
  8
0
 62
   253
100
AcDbPolyline
 90
        2
 70
     0
 39
0.003
 10
0.620933
 20
-0.967075
 40
0.003
 41
0.003
 10
0.618811
 20
-0.972346
 40
0.003
 41
0.003
  0
LWPOLYLINE
  5
4DC
100
AcDbEntity
  8
0
 62
   253
100
AcDbPolyline
 90
        2
 70
     0
 39
0.003
 10
0.618811
 20
-0.972346
 40
0.003
 41
0.003
 10
-0.022315
 20
-1.354933
 40
0.003
 41
0.003
  0
LWPOLYLINE
  5
4DD
100
AcDbEntity
  8
0
 62
   253
100
AcDbPolyline
 90
        2
 70
     0
 39
0.003
 10
-0.022315
 20
-1.354933
 40
0.003
 41
0.003
 10
-0.020193
 20
-1.349661
 40
0.003
 41
0.003
  0
LWPOLYLINE
  5
4DE
100
AcDbEntity
  8
0
 62
   252
100
AcDbPolyline
 90
        2
 70
     0
 39
0.003
 10
-0.022315
 20
-1.354933
 40
0.003
 41
0.003
 10
0.618811
 20
-0.972346
 40
0.003
 41
0.003
  0
LWPOLYLINE
  5
4DF
100
AcDbEntity
  8
0
 62
   252
100
AcDbPolyline
 90
        2
 70
     0
 39
0.003
 10
0.618811
 20
-0.972346
 40
0.003
 41
0.003
 10
0.616571
 20
-0.977402
 40
0.003
 41
0.003
  0
LWPOLYLINE
  5
4E0
100
AcDbEntity
  8
0
 62
   252
100
AcDbPolyline
 90
        2
 70
     0
 39
0.003
 10
0.616571
 20
-0.977402
 40
0.003
 41
0.003
 10
-0.024555
 20
-1.359988
 40
0.003
 41
0.003
  0
LWPOLYLINE
  5
4E1
100
AcDbEntity
  8
0
 62
   252
100
AcDbPolyline
 90
        2
 70
     0
 39
0.003
 10
-0.024555
 20
-1.359988
 40
0.003
 41
0.003
 10
-0.022315
 20
-1.354933
 40
0.003
 41
0.003
  0
LWPOLYLINE
  5
4E2
100
AcDbEntity
  8
0
 62
   252
100
AcDbPolyline
 90
        2
 70
     0
 39
0.003
 10
-0.024555
 20
-1.359988
 40
0.003
 41
0.003
 10
0.616571
 20
-0.977402
 40
0.003
 41
0.003
  0
LWPOLYLINE
  5
4E3
100
AcDbEntity
  8
0
 62
   252
100
AcDbPolyline
 90
        2
 70
     0
 39
0.003
 10
0.616571
 20
-0.977402
 40
0.003
 41
0.003
 10
0.614209
 20
-0.982248
 40
0.003
 41
0.003
  0
LWPOLYLINE
  5
4E4
100
AcDbEntity
  8
0
 62
   252
100
AcDbPolyline
 90
        2
 70
     0
 39
0.003
 10
0.614209
 20
-0.982248
 40
0.003
 41
0.003
 10
-0.026917
 20
-1.364835
 40
0.003
 41
0.003
  0
LWPOLYLINE
  5
4E5
100
AcDbEntity
  8
0
 62
   252
100
AcDbPolyline
 90
        2
 70
     0
 39
0.003
 10
-0.026917
 20
-1.364835
 40
0.003
 41
0.003
 10
-0.024555
 20
-1.359988
 40
0.003
 41
0.003
  0
LWPOLYLINE
  5
4E6
100
AcDbEntity
  8
0
 62
   252
100
AcDbPolyline
 90
        2
 70
     0
 39
0.003
 10
-0.026917
 20
-1.364835
 40
0.003
 41
0.003
 10
0.614209
 20
-0.982248
 40
0.003
 41
0.003
  0
LWPOLYLINE
  5
4E7
100
AcDbEntity
  8
0
 62
   252
100
AcDbPolyline
 90
        2
 70
     0
 39
0.003
 10
0.614209
 20
-0.982248
 40
0.003
 41
0.003
 10
0.611736
 20
-0.986902
 40
0.003
 41
0.003
  0
LWPOLYLINE
  5
4E8
100
AcDbEntity
  8
0
 62
   252
100
AcDbPolyline
 90
        2
 70
     0
 39
0.003
 10
0.611736
 20
-0.986902
 40
0.003
 41
0.003
 10
-0.02939
 20
-1.369488
 40
0.003
 41
0.003
  0
LWPOLYLINE
  5
4E9
100
AcDbEntity
  8
0
 62
   252
100
AcDbPolyline
 90
        2
 70
     0
 39
0.003
 10
-0.02939
 20
-1.369488
 40
0.003
 41
0.003
 10
-0.026917
 20
-1.364835
 40
0.003
 41
0.003
  0
LWPOLYLINE
  5
4EA
100
AcDbEntity
  8
0
 62
     8
100
AcDbPolyline
 90
        2
 70
     0
 39
0.003
 10
-0.02939
 20
-1.369488
 40
0.003
 41
0.003
 10
0.611736
 20
-0.986902
 40
0.003
 41
0.003
  0
LWPOLYLINE
  5
4EB
100
AcDbEntity
  8
0
 62
     8
100
AcDbPolyline
 90
        2
 70
     0
 39
0.003
 10
0.611736
 20
-0.986902
 40
0.003
 41
0.003
 10
0.60915
 20
-0.991358
 40
0.003
 41
0.003
  0
LWPOLYLINE
  5
4EC
100
AcDbEntity
  8
0
 62
     8
100
AcDbPolyline
 90
        2
 70
     0
 39
0.003
 10
0.60915
 20
-0.991358
 40
0.003
 41
0.003
 10
-0.031976
 20
-1.373945
 40
0.003
 41
0.003
  0
LWPOLYLINE
  5
4ED
100
AcDbEntity
  8
0
 62
     8
100
AcDbPolyline
 90
        2
 70
     0
 39
0.003
 10
-0.031976
 20
-1.373945
 40
0.003
 41
0.003
 10
-0.02939
 20
-1.369488
 40
0.003
 41
0.003
  0
LWPOLYLINE
  5
4EE
100
AcDbEntity
  8
0
 62
     8
100
AcDbPolyline
 90
        2
 70
     0
 39
0.003
 10
-0.031976
 20
-1.373945
 40
0.003
 41
0.003
 10
0.60915
 20
-0.991358
 40
0.003
 41
0.003
  0
LWPOLYLINE
  5
4EF
100
AcDbEntity
  8
0
 62
     8
100
AcDbPolyline
 90
        2
 70
     0
 39
0.003
 10
0.60915
 20
-0.991358
 40
0.003
 41
0.003
 10
0.606472
 20
-0.995642
 40
0.003
 41
0.003
  0
LWPOLYLINE
  5
4F0
100
AcDbEntity
  8
0
 62
     8
100
AcDbPolyline
 90
        2
 70
     0
 39
0.003
 10
0.606472
 20
-0.995642
 40
0.003
 41
0.003
 10
-0.034654
 20
-1.378228
 40
0.003
 41
0.003
  0
LWPOLYLINE
  5
4F1
100
AcDbEntity
  8
0
 62
     8
100
AcDbPolyline
 90
        2
 70
     0
 39
0.003
 10
-0.034654
 20
-1.378228
 40
0.003
 41
0.003
 10
-0.031976
 20
-1.373945
 40
0.003
 41
0.003
  0
LWPOLYLINE
  5
4F2
100
AcDbEntity
  8
0
 62
     8
100
AcDbPolyline
 90
        2
 70
     0
 39
0.003
 10
-0.034654
 20
-1.378228
 40
0.003
 41
0.003
 10
0.606472
 20
-0.995642
 40
0.003
 41
0.003
  0
LWPOLYLINE
  5
4F3
100
AcDbEntity
  8
0
 62
     8
100
AcDbPolyline
 90
        2
 70
     0
 39
0.003
 10
0.606472
 20
-0.995642
 40
0.003
 41
0.003
 10
0.603697
 20
-0.999752
 40
0.003
 41
0.003
  0
LWPOLYLINE
  5
4F4
100
AcDbEntity
  8
0
 62
     8
100
AcDbPolyline
 90
        2
 70
     0
 39
0.003
 10
0.603697
 20
-0.999752
 40
0.003
 41
0.003
 10
-0.037429
 20
-1.382339
 40
0.003
 41
0.003
  0
LWPOLYLINE
  5
4F5
100
AcDbEntity
  8
0
 62
     8
100
AcDbPolyline
 90
        2
 70
     0
 39
0.003
 10
-0.037429
 20
-1.382339
 40
0.003
 41
0.003
 10
-0.034654
 20
-1.378228
 40
0.003
 41
0.003
  0
LWPOLYLINE
  5
4F6
100
AcDbEntity
  8
0
 62
   127
100
AcDbPolyline
 90
        2
 70
     0
 39
0.003
 10
-0.037429
 20
-1.382339
 40
0.003
 41
0.003
 10
0.603697
 20
-0.999752
 40
0.003
 41
0.003
  0
LWPOLYLINE
  5
4F7
100
AcDbEntity
  8
0
 62
   127
100
AcDbPolyline
 90
        2
 70
     0
 39
0.003
 10
0.603697
 20
-0.999752
 40
0.003
 41
0.003
 10
0.600843
 20
-1.003709
 40
0.003
 41
0.003
  0
LWPOLYLINE
  5
4F8
100
AcDbEntity
  8
0
 62
   127
100
AcDbPolyline
 90
        2
 70
     0
 39
0.003
 10
0.600843
 20
-1.003709
 40
0.003
 41
0.003
 10
-0.040283
 20
-1.386295
 40
0.003
 41
0.003
  0
LWPOLYLINE
  5
4F9
100
AcDbEntity
  8
0
 62
   127
100
AcDbPolyline
 90
        2
 70
     0
 39
0.003
 10
-0.040283
 20
-1.386295
 40
0.003
 41
0.003
 10
-0.037429
 20
-1.382339
 40
0.003
 41
0.003
  0
LWPOLYLINE
  5
4FA
100
AcDbEntity
  8
0
 62
   127
100
AcDbPolyline
 90
        2
 70
     0
 39
0.003
 10
-0.040283
 20
-1.386295
 40
0.003
 41
0.003
 10
0.600843
 20
-1.003709
 40
0.003
 41
0.003
  0
LWPOLYLINE
  5
4FB
100
AcDbEntity
  8
0
 62
   127
100
AcDbPolyline
 90
        2
 70
     0
 39
0.003
 10
0.600843
 20
-1.003709
 40
0.003
 41
0.003
 10
0.597902
 20
-1.007508
 40
0.003
 41
0.003
  0
LWPOLYLINE
  5
4FC
100
AcDbEntity
  8
0
 62
   127
100
AcDbPolyline
 90
        2
 70
     0
 39
0.003
 10
0.597902
 20
-1.007508
 40
0.003
 41
0.003
 10
-0.043224
 20
-1.390094
 40
0.003
 41
0.003
  0
LWPOLYLINE
  5
4FD
100
AcDbEntity
  8
0
 62
   127
100
AcDbPolyline
 90
        2
 70
     0
 39
0.003
 10
-0.043224
 20
-1.390094
 40
0.003
 41
0.003
 10
-0.040283
 20
-1.386295
 40
0.003
 41
0.003
  0
LWPOLYLINE
  5
4FE
100
AcDbEntity
  8
0
 62
   251
100
AcDbPolyline
 90
        2
 70
     0
 39
0.003
 10
-0.043224
 20
-1.390094
 40
0.003
 41
0.003
 10
0.597902
 20
-1.007508
 40
0.003
 41
0.003
  0
LWPOLYLINE
  5
4FF
100
AcDbEntity
  8
0
 62
   251
100
AcDbPolyline
 90
        2
 70
     0
 39
0.003
 10
0.597902
 20
-1.007508
 40
0.003
 41
0.003
 10
0.59489
 20
-1.011177
 40
0.003
 41
0.003
  0
LWPOLYLINE
  5
500
100
AcDbEntity
  8
0
 62
   251
100
AcDbPolyline
 90
        2
 70
     0
 39
0.003
 10
0.59489
 20
-1.011177
 40
0.003
 41
0.003
 10
-0.046236
 20
-1.393764
 40
0.003
 41
0.003
  0
LWPOLYLINE
  5
501
100
AcDbEntity
  8
0
 62
   251
100
AcDbPolyline
 90
        2
 70
     0
 39
0.003
 10
-0.046236
 20
-1.393764
 40
0.003
 41
0.003
 10
-0.043224
 20
-1.390094
 40
0.003
 41
0.003
  0
LWPOLYLINE
  5
502
100
AcDbEntity
  8
0
 62
   251
100
AcDbPolyline
 90
        2
 70
     0
 39
0.003
 10
-0.046236
 20
-1.393764
 40
0.003
 41
0.003
 10
0.59489
 20
-1.011177
 40
0.003
 41
0.003
  0
LWPOLYLINE
  5
503
100
AcDbEntity
  8
0
 62
   251
100
AcDbPolyline
 90
        2
 70
     0
 39
0.003
 10
0.59489
 20
-1.011177
 40
0.003
 41
0.003
 10
0.591811
 20
-1.014713
 40
0.003
 41
0.003
  0
LWPOLYLINE
  5
504
100
AcDbEntity
  8
0
 62
   251
100
AcDbPolyline
 90
        2
 70
     0
 39
0.003
 10
0.591811
 20
-1.014713
 40
0.003
 41
0.003
 10
-0.049315
 20
-1.397299
 40
0.003
 41
0.003
  0
LWPOLYLINE
  5
505
100
AcDbEntity
  8
0
 62
   251
100
AcDbPolyline
 90
        2
 70
     0
 39
0.003
 10
-0.049315
 20
-1.397299
 40
0.003
 41
0.003
 10
-0.046236
 20
-1.393764
 40
0.003
 41
0.003
  0
LWPOLYLINE
  5
506
100
AcDbEntity
  8
0
 62
   251
100
AcDbPolyline
 90
        2
 70
     0
 39
0.003
 10
-0.049315
 20
-1.397299
 40
0.003
 41
0.003
 10
0.591811
 20
-1.014713
 40
0.003
 41
0.003
  0
LWPOLYLINE
  5
507
100
AcDbEntity
  8
0
 62
   251
100
AcDbPolyline
 90
        2
 70
     0
 39
0.003
 10
0.591811
 20
-1.014713
 40
0.003
 41
0.003
 10
0.588677
 20
-1.018134
 40
0.003
 41
0.003
  0
LWPOLYLINE
  5
508
100
AcDbEntity
  8
0
 62
   251
100
AcDbPolyline
 90
        2
 70
     0
 39
0.003
 10
0.588677
 20
-1.018134
 40
0.003
 41
0.003
 10
-0.052449
 20
-1.40072
 40
0.003
 41
0.003
  0
LWPOLYLINE
  5
509
100
AcDbEntity
  8
0
 62
   251
100
AcDbPolyline
 90
        2
 70
     0
 39
0.003
 10
-0.052449
 20
-1.40072
 40
0.003
 41
0.003
 10
-0.049315
 20
-1.397299
 40
0.003
 41
0.003
  0
LWPOLYLINE
  5
50A
100
AcDbEntity
  8
0
 62
   251
100
AcDbPolyline
 90
        2
 70
     0
 39
0.003
 10
-0.052449
 20
-1.40072
 40
0.003
 41
0.003
 10
0.588677
 20
-1.018134
 40
0.003
 41
0.003
  0
LWPOLYLINE
  5
50B
100
AcDbEntity
  8
0
 62
   251
100
AcDbPolyline
 90
        2
 70
     0
 39
0.003
 10
0.588677
 20
-1.018134
 40
0.003
 41
0.003
 10
0.585484
 20
-1.021437
 40
0.003
 41
0.003
  0
LWPOLYLINE
  5
50C
100
AcDbEntity
  8
0
 62
   251
100
AcDbPolyline
 90
        2
 70
     0
 39
0.003
 10
0.585484
 20
-1.021437
 40
0.003
 41
0.003
 10
-0.055642
 20
-1.404024
 40
0.003
 41
0.003
  0
LWPOLYLINE
  5
50D
100
AcDbEntity
  8
0
 62
   251
100
AcDbPolyline
 90
        2
 70
     0
 39
0.003
 10
-0.055642
 20
-1.404024
 40
0.003
 41
0.003
 10
-0.052449
 20
-1.40072
 40
0.003
 41
0.003
  0
LWPOLYLINE
  5
50E
100
AcDbEntity
  8
0
 62
   139
100
AcDbPolyline
 90
        2
 70
     0
 39
0.003
 10
-0.055642
 20
-1.404024
 40
0.003
 41
0.003
 10
0.585484
 20
-1.021437
 40
0.003
 41
0.003
  0
LWPOLYLINE
  5
50F
100
AcDbEntity
  8
0
 62
   139
100
AcDbPolyline
 90
        2
 70
     0
 39
0.003
 10
0.585484
 20
-1.021437
 40
0.003
 41
0.003
 10
0.582248
 20
-1.024646
 40
0.003
 41
0.003
  0
LWPOLYLINE
  5
510
100
AcDbEntity
  8
0
 62
   139
100
AcDbPolyline
 90
        2
 70
     0
 39
0.003
 10
0.582248
 20
-1.024646
 40
0.003
 41
0.003
 10
-0.058878
 20
-1.407232
 40
0.003
 41
0.003
  0
LWPOLYLINE
  5
511
100
AcDbEntity
  8
0
 62
   139
100
AcDbPolyline
 90
        2
 70
     0
 39
0.003
 10
-0.058878
 20
-1.407232
 40
0.003
 41
0.003
 10
-0.055642
 20
-1.404024
 40
0.003
 41
0.003
  0
LWPOLYLINE
  5
512
100
AcDbEntity
  8
0
 62
   139
100
AcDbPolyline
 90
        2
 70
     0
 39
0.003
 10
-0.058878
 20
-1.407232
 40
0.003
 41
0.003
 10
0.582248
 20
-1.024646
 40
0.003
 41
0.003
  0
LWPOLYLINE
  5
513
100
AcDbEntity
  8
0
 62
   139
100
AcDbPolyline
 90
        2
 70
     0
 39
0.003
 10
0.582248
 20
-1.024646
 40
0.003
 41
0.003
 10
0.578969
 20
-1.02776
 40
0.003
 41
0.003
  0
LWPOLYLINE
  5
514
100
AcDbEntity
  8
0
 62
   139
100
AcDbPolyline
 90
        2
 70
     0
 39
0.003
 10
0.578969
 20
-1.02776
 40
0.003
 41
0.003
 10
-0.062157
 20
-1.410346
 40
0.003
 41
0.003
  0
LWPOLYLINE
  5
515
100
AcDbEntity
  8
0
 62
   139
100
AcDbPolyline
 90
        2
 70
     0
 39
0.003
 10
-0.062157
 20
-1.410346
 40
0.003
 41
0.003
 10
-0.058878
 20
-1.407232
 40
0.003
 41
0.003
  0
LWPOLYLINE
  5
516
100
AcDbEntity
  8
0
 62
   251
100
AcDbPolyline
 90
        2
 70
     0
 39
0.003
 10
-0.062157
 20
-1.410346
 40
0.003
 41
0.003
 10
0.578969
 20
-1.02776
 40
0.003
 41
0.003
  0
LWPOLYLINE
  5
517
100
AcDbEntity
  8
0
 62
   251
100
AcDbPolyline
 90
        2
 70
     0
 39
0.003
 10
0.578969
 20
-1.02776
 40
0.003
 41
0.003
 10
0.575661
 20
-1.030799
 40
0.003
 41
0.003
  0
LWPOLYLINE
  5
518
100
AcDbEntity
  8
0
 62
   251
100
AcDbPolyline
 90
        2
 70
     0
 39
0.003
 10
0.575661
 20
-1.030799
 40
0.003
 41
0.003
 10
-0.065465
 20
-1.413386
 40
0.003
 41
0.003
  0
LWPOLYLINE
  5
519
100
AcDbEntity
  8
0
 62
   251
100
AcDbPolyline
 90
        2
 70
     0
 39
0.003
 10
-0.065465
 20
-1.413386
 40
0.003
 41
0.003
 10
-0.062157
 20
-1.410346
 40
0.003
 41
0.003
  0
LWPOLYLINE
  5
51A
100
AcDbEntity
  8
0
 62
   251
100
AcDbPolyline
 90
        2
 70
     0
 39
0.003
 10
-0.065465
 20
-1.413386
 40
0.003
 41
0.003
 10
0.575661
 20
-1.030799
 40
0.003
 41
0.003
  0
LWPOLYLINE
  5
51B
100
AcDbEntity
  8
0
 62
   251
100
AcDbPolyline
 90
        2
 70
     0
 39
0.003
 10
0.575661
 20
-1.030799
 40
0.003
 41
0.003
 10
0.572319
 20
-1.033764
 40
0.003
 41
0.003
  0
LWPOLYLINE
  5
51C
100
AcDbEntity
  8
0
 62
   251
100
AcDbPolyline
 90
        2
 70
     0
 39
0.003
 10
0.572319
 20
-1.033764
 40
0.003
 41
0.003
 10
-0.068807
 20
-1.41635
 40
0.003
 41
0.003
  0
LWPOLYLINE
  5
51D
100
AcDbEntity
  8
0
 62
   251
100
AcDbPolyline
 90
        2
 70
     0
 39
0.003
 10
-0.068807
 20
-1.41635
 40
0.003
 41
0.003
 10
-0.065465
 20
-1.413386
 40
0.003
 41
0.003
  0
LWPOLYLINE
  5
51E
100
AcDbEntity
  8
0
 62
   251
100
AcDbPolyline
 90
        2
 70
     0
 39
0.003
 10
-0.068807
 20
-1.41635
 40
0.003
 41
0.003
 10
0.572319
 20
-1.033764
 40
0.003
 41
0.003
  0
LWPOLYLINE
  5
51F
100
AcDbEntity
  8
0
 62
   251
100
AcDbPolyline
 90
        2
 70
     0
 39
0.003
 10
0.572319
 20
-1.033764
 40
0.003
 41
0.003
 10
0.568965
 20
-1.036669
 40
0.003
 41
0.003
  0
LWPOLYLINE
  5
520
100
AcDbEntity
  8
0
 62
   251
100
AcDbPolyline
 90
        2
 70
     0
 39
0.003
 10
0.568965
 20
-1.036669
 40
0.003
 41
0.003
 10
-0.072161
 20
-1.419256
 40
0.003
 41
0.003
  0
LWPOLYLINE
  5
521
100
AcDbEntity
  8
0
 62
   251
100
AcDbPolyline
 90
        2
 70
     0
 39
0.003
 10
-0.072161
 20
-1.419256
 40
0.003
 41
0.003
 10
-0.068807
 20
-1.41635
 40
0.003
 41
0.003
  0
LWPOLYLINE
  5
522
100
AcDbEntity
  8
0
 62
   251
100
AcDbPolyline
 90
        2
 70
     0
 39
0.003
 10
-0.072161
 20
-1.419256
 40
0.003
 41
0.003
 10
0.568965
 20
-1.036669
 40
0.003
 41
0.003
  0
LWPOLYLINE
  5
523
100
AcDbEntity
  8
0
 62
   251
100
AcDbPolyline
 90
        2
 70
     0
 39
0.003
 10
0.568965
 20
-1.036669
 40
0.003
 41
0.003
 10
0.565594
 20
-1.03952
 40
0.003
 41
0.003
  0
LWPOLYLINE
  5
524
100
AcDbEntity
  8
0
 62
   251
100
AcDbPolyline
 90
        2
 70
     0
 39
0.003
 10
0.565594
 20
-1.03952
 40
0.003
 41
0.003
 10
-0.075531
 20
-1.422106
 40
0.003
 41
0.003
  0
LWPOLYLINE
  5
525
100
AcDbEntity
  8
0
 62
   251
100
AcDbPolyline
 90
        2
 70
     0
 39
0.003
 10
-0.075531
 20
-1.422106
 40
0.003
 41
0.003
 10
-0.072161
 20
-1.419256
 40
0.003
 41
0.003
  0
LWPOLYLINE
  5
526
100
AcDbEntity
  8
0
 62
   251
100
AcDbPolyline
 90
        2
 70
     0
 39
0.003
 10
-0.075531
 20
-1.422106
 40
0.003
 41
0.003
 10
0.565594
 20
-1.03952
 40
0.003
 41
0.003
  0
LWPOLYLINE
  5
527
100
AcDbEntity
  8
0
 62
   251
100
AcDbPolyline
 90
        2
 70
     0
 39
0.003
 10
0.565594
 20
-1.03952
 40
0.003
 41
0.003
 10
0.562224
 20
-1.042339
 40
0.003
 41
0.003
  0
LWPOLYLINE
  5
528
100
AcDbEntity
  8
0
 62
   251
100
AcDbPolyline
 90
        2
 70
     0
 39
0.003
 10
0.562224
 20
-1.042339
 40
0.003
 41
0.003
 10
-0.078902
 20
-1.424925
 40
0.003
 41
0.003
  0
LWPOLYLINE
  5
529
100
AcDbEntity
  8
0
 62
   251
100
AcDbPolyline
 90
        2
 70
     0
 39
0.003
 10
-0.078902
 20
-1.424925
 40
0.003
 41
0.003
 10
-0.075531
 20
-1.422106
 40
0.003
 41
0.003
  0
LWPOLYLINE
  5
52A
100
AcDbEntity
  8
0
 62
     0
100
AcDbPolyline
 90
        2
 70
     0
 39
0.003
 10
-0.798508
 20
0.252894
 40
0.003
 41
0.003
 10
-0.157382
 20
0.63548
 40
0.003
 41
0.003
  0
LWPOLYLINE
  5
52B
100
AcDbEntity
  8
0
 62
     0
100
AcDbPolyline
 90
        2
 70
     0
 39
0.003
 10
-0.157382
 20
0.63548
 40
0.003
 41
0.003
 10
-0.13135
 20
0.634929
 40
0.003
 41
0.003
  0
LWPOLYLINE
  5
52C
100
AcDbEntity
  8
0
 62
     0
100
AcDbPolyline
 90
        2
 70
     0
 39
0.003
 10
-0.13135
 20
0.634929
 40
0.003
 41
0.003
 10
-0.106524
 20
0.633287
 40
0.003
 41
0.003
  0
LWPOLYLINE
  5
52D
100
AcDbEntity
  8
0
 62
     0
100
AcDbPolyline
 90
        2
 70
     0
 39
0.003
 10
-0.106524
 20
0.633287
 40
0.003
 41
0.003
 10
-0.082866
 20
0.630531
 40
0.003
 41
0.003
  0
LWPOLYLINE
  5
52E
100
AcDbEntity
  8
0
 62
     0
100
AcDbPolyline
 90
        2
 70
     0
 39
0.003
 10
-0.082866
 20
0.630531
 40
0.003
 41
0.003
 10
-0.060362
 20
0.626657
 40
0.003
 41
0.003
  0
LWPOLYLINE
  5
52F
100
AcDbEntity
  8
0
 62
     0
100
AcDbPolyline
 90
        2
 70
     0
 39
0.003
 10
-0.060362
 20
0.626657
 40
0.003
 41
0.003
 10
-0.038972
 20
0.621646
 40
0.003
 41
0.003
  0
LWPOLYLINE
  5
530
100
AcDbEntity
  8
0
 62
     0
100
AcDbPolyline
 90
        2
 70
     0
 39
0.003
 10
-0.038972
 20
0.621646
 40
0.003
 41
0.003
 10
-0.018689
 20
0.6155
 40
0.003
 41
0.003
  0
LWPOLYLINE
  5
531
100
AcDbEntity
  8
0
 62
     0
100
AcDbPolyline
 90
        2
 70
     0
 39
0.003
 10
-0.018689
 20
0.6155
 40
0.003
 41
0.003
 10
0.000524
 20
0.608197
 40
0.003
 41
0.003
  0
LWPOLYLINE
  5
532
100
AcDbEntity
  8
0
 62
     0
100
AcDbPolyline
 90
        2
 70
     0
 39
0.003
 10
0.000524
 20
0.608197
 40
0.003
 41
0.003
 10
0.018677
 20
0.599732
 40
0.003
 41
0.003
  0
LWPOLYLINE
  5
533
100
AcDbEntity
  8
0
 62
     0
100
AcDbPolyline
 90
        2
 70
     0
 39
0.003
 10
0.018677
 20
0.599732
 40
0.003
 41
0.003
 10
0.035815
 20
0.590083
 40
0.003
 41
0.003
  0
LWPOLYLINE
  5
534
100
AcDbEntity
  8
0
 62
     0
100
AcDbPolyline
 90
        2
 70
     0
 39
0.003
 10
0.035815
 20
0.590083
 40
0.003
 41
0.003
 10
0.051945
 20
0.579252
 40
0.003
 41
0.003
  0
LWPOLYLINE
  5
535
100
AcDbEntity
  8
0
 62
     0
100
AcDbPolyline
 90
        2
 70
     0
 39
0.003
 10
0.051945
 20
0.579252
 40
0.003
 41
0.003
 10
0.067102
 20
0.56722
 40
0.003
 41
0.003
  0
LWPOLYLINE
  5
536
100
AcDbEntity
  8
0
 62
     0
100
AcDbPolyline
 90
        2
 70
     0
 39
0.003
 10
0.067102
 20
0.56722
 40
0.003
 41
0.003
 10
0.081299
 20
0.553984
 40
0.003
 41
0.003
  0
LWPOLYLINE
  5
537
100
AcDbEntity
  8
0
 62
     0
100
AcDbPolyline
 90
        2
 70
     0
 39
0.003
 10
0.081299
 20
0.553984
 40
0.003
 41
0.003
 10
0.094571
 20
0.539524
 40
0.003
 41
0.003
  0
LWPOLYLINE
  5
538
100
AcDbEntity
  8
0
 62
     0
100
AcDbPolyline
 90
        2
 70
     0
 39
0.003
 10
0.094571
 20
0.539524
 40
0.003
 41
0.003
 10
0.106937
 20
0.523835
 40
0.003
 41
0.003
  0
LWPOLYLINE
  5
539
100
AcDbEntity
  8
0
 62
     0
100
AcDbPolyline
 90
        2
 70
     0
 39
0.003
 10
0.106937
 20
0.523835
 40
0.003
 41
0.003
 10
0.118421
 20
0.506898
 40
0.003
 41
0.003
  0
LWPOLYLINE
  5
53A
100
AcDbEntity
  8
0
 62
     0
100
AcDbPolyline
 90
        2
 70
     0
 39
0.003
 10
0.118421
 20
0.506898
 40
0.003
 41
0.003
 10
0.129043
 20
0.488717
 40
0.003
 41
0.003
  0
LWPOLYLINE
  5
53B
100
AcDbEntity
  8
0
 62
     0
100
AcDbPolyline
 90
        2
 70
     0
 39
0.003
 10
0.129043
 20
0.488717
 40
0.003
 41
0.003
 10
0.138843
 20
0.46926
 40
0.003
 41
0.003
  0
LWPOLYLINE
  5
53C
100
AcDbEntity
  8
0
 62
     0
100
AcDbPolyline
 90
        2
 70
     0
 39
0.003
 10
0.138843
 20
0.46926
 40
0.003
 41
0.003
 10
0.147831
 20
0.448535
 40
0.003
 41
0.003
  0
LWPOLYLINE
  5
53D
100
AcDbEntity
  8
0
 62
     0
100
AcDbPolyline
 90
        2
 70
     0
 39
0.003
 10
0.147831
 20
0.448535
 40
0.003
 41
0.003
 10
0.156035
 20
0.426528
 40
0.003
 41
0.003
  0
LWPOLYLINE
  5
53E
100
AcDbEntity
  8
0
 62
     0
100
AcDbPolyline
 90
        2
 70
     0
 39
0.003
 10
0.156035
 20
0.426528
 40
0.003
 41
0.003
 10
0.16348
 20
0.403213
 40
0.003
 41
0.003
  0
LWPOLYLINE
  5
53F
100
AcDbEntity
  8
0
 62
     0
100
AcDbPolyline
 90
        2
 70
     0
 39
0.003
 10
0.16348
 20
0.403213
 40
0.003
 41
0.003
 10
0.170193
 20
0.378594
 40
0.003
 41
0.003
  0
LWPOLYLINE
  5
540
100
AcDbEntity
  8
0
 62
     0
100
AcDbPolyline
 90
        2
 70
     0
 39
0.003
 10
0.170193
 20
0.378594
 40
0.003
 41
0.003
 10
0.176189
 20
0.352646
 40
0.003
 41
0.003
  0
LWPOLYLINE
  5
541
100
AcDbEntity
  8
0
 62
     0
100
AcDbPolyline
 90
        2
 70
     0
 39
0.003
 10
0.176189
 20
0.352646
 40
0.003
 41
0.003
 10
0.181504
 20
0.32537
 40
0.003
 41
0.003
  0
LWPOLYLINE
  5
542
100
AcDbEntity
  8
0
 62
     0
100
AcDbPolyline
 90
        2
 70
     0
 39
0.003
 10
0.181504
 20
0.32537
 40
0.003
 41
0.003
 10
0.18615
 20
0.296748
 40
0.003
 41
0.003
  0
LWPOLYLINE
  5
543
100
AcDbEntity
  8
0
 62
     0
100
AcDbPolyline
 90
        2
 70
     0
 39
0.003
 10
0.18615
 20
0.296748
 40
0.003
 41
0.003
 10
0.190169
 20
0.26678
 40
0.003
 41
0.003
  0
LWPOLYLINE
  5
544
100
AcDbEntity
  8
0
 62
     0
100
AcDbPolyline
 90
        2
 70
     0
 39
0.003
 10
0.190169
 20
0.26678
 40
0.003
 41
0.003
 10
0.193563
 20
0.235445
 40
0.003
 41
0.003
  0
LWPOLYLINE
  5
545
100
AcDbEntity
  8
0
 62
     0
100
AcDbPolyline
 90
        2
 70
     0
 39
0.003
 10
0.193563
 20
0.235445
 40
0.003
 41
0.003
 10
0.196378
 20
0.202732
 40
0.003
 41
0.003
  0
LWPOLYLINE
  5
546
100
AcDbEntity
  8
0
 62
     0
100
AcDbPolyline
 90
        2
 70
     0
 39
0.003
 10
0.196378
 20
0.202732
 40
0.003
 41
0.003
 10
0.198614
 20
0.16863
 40
0.003
 41
0.003
  0
LWPOLYLINE
  5
547
100
AcDbEntity
  8
0
 62
     0
100
AcDbPolyline
 90
        2
 70
     0
 39
0.003
 10
0.198614
 20
0.16863
 40
0.003
 41
0.003
 10
0.200319
 20
0.133134
 40
0.003
 41
0.003
  0
LWPOLYLINE
  5
548
100
AcDbEntity
  8
0
 62
     0
100
AcDbPolyline
 90
        2
 70
     0
 39
0.003
 10
0.200319
 20
0.133134
 40
0.003
 41
0.003
 10
0.201504
 20
0.096224
 40
0.003
 41
0.003
  0
LWPOLYLINE
  5
549
100
AcDbEntity
  8
0
 62
     0
100
AcDbPolyline
 90
        2
 70
     0
 39
0.003
 10
0.201504
 20
0.096224
 40
0.003
 41
0.003
 10
0.202201
 20
0.057898
 40
0.003
 41
0.003
  0
LWPOLYLINE
  5
54A
100
AcDbEntity
  8
0
 62
     0
100
AcDbPolyline
 90
        2
 70
     0
 39
0.003
 10
0.202201
 20
0.057898
 40
0.003
 41
0.003
 10
0.202421
 20
0.018134
 40
0.003
 41
0.003
  0
LWPOLYLINE
  5
54B
100
AcDbEntity
  8
0
 62
     0
100
AcDbPolyline
 90
        2
 70
     0
 39
0.003
 10
0.202421
 20
0.018134
 40
0.003
 41
0.003
 10
0.202701
 20
-0.021406
 40
0.003
 41
0.003
  0
LWPOLYLINE
  5
54C
100
AcDbEntity
  8
0
 62
     0
100
AcDbPolyline
 90
        2
 70
     0
 39
0.003
 10
0.202701
 20
-0.021406
 40
0.003
 41
0.003
 10
0.20352
 20
-0.059114
 40
0.003
 41
0.003
  0
LWPOLYLINE
  5
54D
100
AcDbEntity
  8
0
 62
     0
100
AcDbPolyline
 90
        2
 70
     0
 39
0.003
 10
0.20352
 20
-0.059114
 40
0.003
 41
0.003
 10
0.204874
 20
-0.095043
 40
0.003
 41
0.003
  0
LWPOLYLINE
  5
54E
100
AcDbEntity
  8
0
 62
     0
100
AcDbPolyline
 90
        2
 70
     0
 39
0.003
 10
0.204874
 20
-0.095043
 40
0.003
 41
0.003
 10
0.206752
 20
-0.129248
 40
0.003
 41
0.003
  0
LWPOLYLINE
  5
54F
100
AcDbEntity
  8
0
 62
     0
100
AcDbPolyline
 90
        2
 70
     0
 39
0.003
 10
0.206752
 20
-0.129248
 40
0.003
 41
0.003
 10
0.209146
 20
-0.161772
 40
0.003
 41
0.003
  0
LWPOLYLINE
  5
550
100
AcDbEntity
  8
0
 62
     0
100
AcDbPolyline
 90
        2
 70
     0
 39
0.003
 10
0.209146
 20
-0.161772
 40
0.003
 41
0.003
 10
0.212039
 20
-0.192673
 40
0.003
 41
0.003
  0
LWPOLYLINE
  5
551
100
AcDbEntity
  8
0
 62
     0
100
AcDbPolyline
 90
        2
 70
     0
 39
0.003
 10
0.212039
 20
-0.192673
 40
0.003
 41
0.003
 10
0.215429
 20
-0.222
 40
0.003
 41
0.003
  0
LWPOLYLINE
  5
552
100
AcDbEntity
  8
0
 62
     0
100
AcDbPolyline
 90
        2
 70
     0
 39
0.003
 10
0.215429
 20
-0.222
 40
0.003
 41
0.003
 10
0.219291
 20
-0.249823
 40
0.003
 41
0.003
  0
LWPOLYLINE
  5
553
100
AcDbEntity
  8
0
 62
     0
100
AcDbPolyline
 90
        2
 70
     0
 39
0.003
 10
0.219291
 20
-0.249823
 40
0.003
 41
0.003
 10
0.223638
 20
-0.276169
 40
0.003
 41
0.003
  0
LWPOLYLINE
  5
554
100
AcDbEntity
  8
0
 62
     0
100
AcDbPolyline
 90
        2
 70
     0
 39
0.003
 10
0.223638
 20
-0.276169
 40
0.003
 41
0.003
 10
0.228437
 20
-0.301106
 40
0.003
 41
0.003
  0
LWPOLYLINE
  5
555
100
AcDbEntity
  8
0
 62
     0
100
AcDbPolyline
 90
        2
 70
     0
 39
0.003
 10
0.228437
 20
-0.301106
 40
0.003
 41
0.003
 10
0.233689
 20
-0.324685
 40
0.003
 41
0.003
  0
LWPOLYLINE
  5
556
100
AcDbEntity
  8
0
 62
     0
100
AcDbPolyline
 90
        2
 70
     0
 39
0.003
 10
0.233689
 20
-0.324685
 40
0.003
 41
0.003
 10
0.239378
 20
-0.346961
 40
0.003
 41
0.003
  0
LWPOLYLINE
  5
557
100
AcDbEntity
  8
0
 62
     0
100
AcDbPolyline
 90
        2
 70
     0
 39
0.003
 10
0.239378
 20
-0.346961
 40
0.003
 41
0.003
 10
0.2455
 20
-0.367976
 40
0.003
 41
0.003
  0
LWPOLYLINE
  5
558
100
AcDbEntity
  8
0
 62
     0
100
AcDbPolyline
 90
        2
 70
     0
 39
0.003
 10
0.2455
 20
-0.367976
 40
0.003
 41
0.003
 10
0.252039
 20
-0.387795
 40
0.003
 41
0.003
  0
LWPOLYLINE
  5
559
100
AcDbEntity
  8
0
 62
     0
100
AcDbPolyline
 90
        2
 70
     0
 39
0.003
 10
0.252039
 20
-0.387795
 40
0.003
 41
0.003
 10
0.258992
 20
-0.406465
 40
0.003
 41
0.003
  0
LWPOLYLINE
  5
55A
100
AcDbEntity
  8
0
 62
     0
100
AcDbPolyline
 90
        2
 70
     0
 39
0.003
 10
0.258992
 20
-0.406465
 40
0.003
 41
0.003
 10
0.266335
 20
-0.424043
 40
0.003
 41
0.003
  0
LWPOLYLINE
  5
55B
100
AcDbEntity
  8
0
 62
     0
100
AcDbPolyline
 90
        2
 70
     0
 39
0.003
 10
0.266335
 20
-0.424043
 40
0.003
 41
0.003
 10
0.274079
 20
-0.440571
 40
0.003
 41
0.003
  0
LWPOLYLINE
  5
55C
100
AcDbEntity
  8
0
 62
     0
100
AcDbPolyline
 90
        2
 70
     0
 39
0.003
 10
0.274079
 20
-0.440571
 40
0.003
 41
0.003
 10
0.282193
 20
-0.45611
 40
0.003
 41
0.003
  0
LWPOLYLINE
  5
55D
100
AcDbEntity
  8
0
 62
     0
100
AcDbPolyline
 90
        2
 70
     0
 39
0.003
 10
0.282193
 20
-0.45611
 40
0.003
 41
0.003
 10
0.290681
 20
-0.470713
 40
0.003
 41
0.003
  0
LWPOLYLINE
  5
55E
100
AcDbEntity
  8
0
 62
     0
100
AcDbPolyline
 90
        2
 70
     0
 39
0.003
 10
0.290681
 20
-0.470713
 40
0.003
 41
0.003
 10
0.299516
 20
-0.484433
 40
0.003
 41
0.003
  0
LWPOLYLINE
  5
55F
100
AcDbEntity
  8
0
 62
     0
100
AcDbPolyline
 90
        2
 70
     0
 39
0.003
 10
0.299516
 20
-0.484433
 40
0.003
 41
0.003
 10
0.308709
 20
-0.497315
 40
0.003
 41
0.003
  0
LWPOLYLINE
  5
560
100
AcDbEntity
  8
0
 62
     0
100
AcDbPolyline
 90
        2
 70
     0
 39
0.003
 10
0.308709
 20
-0.497315
 40
0.003
 41
0.003
 10
0.318228
 20
-0.509421
 40
0.003
 41
0.003
  0
LWPOLYLINE
  5
561
100
AcDbEntity
  8
0
 62
     0
100
AcDbPolyline
 90
        2
 70
     0
 39
0.003
 10
0.318228
 20
-0.509421
 40
0.003
 41
0.003
 10
0.328079
 20
-0.520799
 40
0.003
 41
0.003
  0
LWPOLYLINE
  5
562
100
AcDbEntity
  8
0
 62
     0
100
AcDbPolyline
 90
        2
 70
     0
 39
0.003
 10
0.328079
 20
-0.520799
 40
0.003
 41
0.003
 10
0.338236
 20
-0.531508
 40
0.003
 41
0.003
  0
LWPOLYLINE
  5
563
100
AcDbEntity
  8
0
 62
     0
100
AcDbPolyline
 90
        2
 70
     0
 39
0.003
 10
0.338236
 20
-0.531508
 40
0.003
 41
0.003
 10
0.348705
 20
-0.541587
 40
0.003
 41
0.003
  0
LWPOLYLINE
  5
564
100
AcDbEntity
  8
0
 62
     0
100
AcDbPolyline
 90
        2
 70
     0
 39
0.003
 10
0.348705
 20
-0.541587
 40
0.003
 41
0.003
 10
0.359465
 20
-0.551102
 40
0.003
 41
0.003
  0
LWPOLYLINE
  5
565
100
AcDbEntity
  8
0
 62
     0
100
AcDbPolyline
 90
        2
 70
     0
 39
0.003
 10
0.359465
 20
-0.551102
 40
0.003
 41
0.003
 10
0.370512
 20
-0.560102
 40
0.003
 41
0.003
  0
LWPOLYLINE
  5
566
100
AcDbEntity
  8
0
 62
     0
100
AcDbPolyline
 90
        2
 70
     0
 39
0.003
 10
0.370512
 20
-0.560102
 40
0.003
 41
0.003
 10
0.381839
 20
-0.568642
 40
0.003
 41
0.003
  0
LWPOLYLINE
  5
567
100
AcDbEntity
  8
0
 62
     0
100
AcDbPolyline
 90
        2
 70
     0
 39
0.003
 10
0.381839
 20
-0.568642
 40
0.003
 41
0.003
 10
0.393421
 20
-0.576764
 40
0.003
 41
0.003
  0
LWPOLYLINE
  5
568
100
AcDbEntity
  8
0
 62
     0
100
AcDbPolyline
 90
        2
 70
     0
 39
0.003
 10
0.393421
 20
-0.576764
 40
0.003
 41
0.003
 10
0.405264
 20
-0.584535
 40
0.003
 41
0.003
  0
LWPOLYLINE
  5
569
100
AcDbEntity
  8
0
 62
     0
100
AcDbPolyline
 90
        2
 70
     0
 39
0.003
 10
0.405264
 20
-0.584535
 40
0.003
 41
0.003
 10
0.417346
 20
-0.591996
 40
0.003
 41
0.003
  0
LWPOLYLINE
  5
56A
100
AcDbEntity
  8
0
 62
     0
100
AcDbPolyline
 90
        2
 70
     0
 39
0.003
 10
0.417346
 20
-0.591996
 40
0.003
 41
0.003
 10
0.429665
 20
-0.599213
 40
0.003
 41
0.003
  0
LWPOLYLINE
  5
56B
100
AcDbEntity
  8
0
 62
     0
100
AcDbPolyline
 90
        2
 70
     0
 39
0.003
 10
0.429665
 20
-0.599213
 40
0.003
 41
0.003
 10
0.441909
 20
-0.606417
 40
0.003
 41
0.003
  0
LWPOLYLINE
  5
56C
100
AcDbEntity
  8
0
 62
     0
100
AcDbPolyline
 90
        2
 70
     0
 39
0.003
 10
0.441909
 20
-0.606417
 40
0.003
 41
0.003
 10
0.453803
 20
-0.613846
 40
0.003
 41
0.003
  0
LWPOLYLINE
  5
56D
100
AcDbEntity
  8
0
 62
     0
100
AcDbPolyline
 90
        2
 70
     0
 39
0.003
 10
0.453803
 20
-0.613846
 40
0.003
 41
0.003
 10
0.465331
 20
-0.621472
 40
0.003
 41
0.003
  0
LWPOLYLINE
  5
56E
100
AcDbEntity
  8
0
 62
     0
100
AcDbPolyline
 90
        2
 70
     0
 39
0.003
 10
0.465331
 20
-0.621472
 40
0.003
 41
0.003
 10
0.476504
 20
-0.629303
 40
0.003
 41
0.003
  0
LWPOLYLINE
  5
56F
100
AcDbEntity
  8
0
 62
     0
100
AcDbPolyline
 90
        2
 70
     0
 39
0.003
 10
0.476504
 20
-0.629303
 40
0.003
 41
0.003
 10
0.487307
 20
-0.637303
 40
0.003
 41
0.003
  0
LWPOLYLINE
  5
570
100
AcDbEntity
  8
0
 62
     0
100
AcDbPolyline
 90
        2
 70
     0
 39
0.003
 10
0.487307
 20
-0.637303
 40
0.003
 41
0.003
 10
0.497752
 20
-0.645484
 40
0.003
 41
0.003
  0
LWPOLYLINE
  5
571
100
AcDbEntity
  8
0
 62
     0
100
AcDbPolyline
 90
        2
 70
     0
 39
0.003
 10
0.497752
 20
-0.645484
 40
0.003
 41
0.003
 10
0.507823
 20
-0.653823
 40
0.003
 41
0.003
  0
LWPOLYLINE
  5
572
100
AcDbEntity
  8
0
 62
     0
100
AcDbPolyline
 90
        2
 70
     0
 39
0.003
 10
0.507823
 20
-0.653823
 40
0.003
 41
0.003
 10
0.517531
 20
-0.662319
 40
0.003
 41
0.003
  0
LWPOLYLINE
  5
573
100
AcDbEntity
  8
0
 62
     0
100
AcDbPolyline
 90
        2
 70
     0
 39
0.003
 10
0.517531
 20
-0.662319
 40
0.003
 41
0.003
 10
0.526862
 20
-0.670941
 40
0.003
 41
0.003
  0
LWPOLYLINE
  5
574
100
AcDbEntity
  8
0
 62
     0
100
AcDbPolyline
 90
        2
 70
     0
 39
0.003
 10
0.526862
 20
-0.670941
 40
0.003
 41
0.003
 10
0.535823
 20
-0.679701
 40
0.003
 41
0.003
  0
LWPOLYLINE
  5
575
100
AcDbEntity
  8
0
 62
     0
100
AcDbPolyline
 90
        2
 70
     0
 39
0.003
 10
0.535823
 20
-0.679701
 40
0.003
 41
0.003
 10
0.544402
 20
-0.688575
 40
0.003
 41
0.003
  0
LWPOLYLINE
  5
576
100
AcDbEntity
  8
0
 62
     0
100
AcDbPolyline
 90
        2
 70
     0
 39
0.003
 10
0.544402
 20
-0.688575
 40
0.003
 41
0.003
 10
0.55261
 20
-0.697563
 40
0.003
 41
0.003
  0
LWPOLYLINE
  5
577
100
AcDbEntity
  8
0
 62
     0
100
AcDbPolyline
 90
        2
 70
     0
 39
0.003
 10
0.55261
 20
-0.697563
 40
0.003
 41
0.003
 10
0.560429
 20
-0.706642
 40
0.003
 41
0.003
  0
LWPOLYLINE
  5
578
100
AcDbEntity
  8
0
 62
     0
100
AcDbPolyline
 90
        2
 70
     0
 39
0.003
 10
0.560429
 20
-0.706642
 40
0.003
 41
0.003
 10
0.567878
 20
-0.715811
 40
0.003
 41
0.003
  0
LWPOLYLINE
  5
579
100
AcDbEntity
  8
0
 62
     0
100
AcDbPolyline
 90
        2
 70
     0
 39
0.003
 10
0.567878
 20
-0.715811
 40
0.003
 41
0.003
 10
0.574933
 20
-0.725051
 40
0.003
 41
0.003
  0
LWPOLYLINE
  5
57A
100
AcDbEntity
  8
0
 62
     0
100
AcDbPolyline
 90
        2
 70
     0
 39
0.003
 10
0.574933
 20
-0.725051
 40
0.003
 41
0.003
 10
0.58161
 20
-0.734362
 40
0.003
 41
0.003
  0
LWPOLYLINE
  5
57B
100
AcDbEntity
  8
0
 62
     0
100
AcDbPolyline
 90
        2
 70
     0
 39
0.003
 10
0.58161
 20
-0.734362
 40
0.003
 41
0.003
 10
0.58789
 20
-0.743717
 40
0.003
 41
0.003
  0
LWPOLYLINE
  5
57C
100
AcDbEntity
  8
0
 62
     0
100
AcDbPolyline
 90
        2
 70
     0
 39
0.003
 10
0.58789
 20
-0.743717
 40
0.003
 41
0.003
 10
0.593783
 20
-0.753122
 40
0.003
 41
0.003
  0
LWPOLYLINE
  5
57D
100
AcDbEntity
  8
0
 62
     0
100
AcDbPolyline
 90
        2
 70
     0
 39
0.003
 10
0.593783
 20
-0.753122
 40
0.003
 41
0.003
 10
0.599283
 20
-0.762555
 40
0.003
 41
0.003
  0
LWPOLYLINE
  5
57E
100
AcDbEntity
  8
0
 62
     0
100
AcDbPolyline
 90
        2
 70
     0
 39
0.003
 10
0.599283
 20
-0.762555
 40
0.003
 41
0.003
 10
0.604394
 20
-0.772016
 40
0.003
 41
0.003
  0
LWPOLYLINE
  5
57F
100
AcDbEntity
  8
0
 62
     0
100
AcDbPolyline
 90
        2
 70
     0
 39
0.003
 10
0.604394
 20
-0.772016
 40
0.003
 41
0.003
 10
0.609102
 20
-0.781476
 40
0.003
 41
0.003
  0
LWPOLYLINE
  5
580
100
AcDbEntity
  8
0
 62
     0
100
AcDbPolyline
 90
        2
 70
     0
 39
0.003
 10
0.609102
 20
-0.781476
 40
0.003
 41
0.003
 10
0.613417
 20
-0.790945
 40
0.003
 41
0.003
  0
LWPOLYLINE
  5
581
100
AcDbEntity
  8
0
 62
     0
100
AcDbPolyline
 90
        2
 70
     0
 39
0.003
 10
0.613417
 20
-0.790945
 40
0.003
 41
0.003
 10
0.617327
 20
-0.800402
 40
0.003
 41
0.003
  0
LWPOLYLINE
  5
582
100
AcDbEntity
  8
0
 62
     0
100
AcDbPolyline
 90
        2
 70
     0
 39
0.003
 10
0.617327
 20
-0.800402
 40
0.003
 41
0.003
 10
0.620843
 20
-0.809843
 40
0.003
 41
0.003
  0
LWPOLYLINE
  5
583
100
AcDbEntity
  8
0
 62
     0
100
AcDbPolyline
 90
        2
 70
     0
 39
0.003
 10
0.620843
 20
-0.809843
 40
0.003
 41
0.003
 10
0.623941
 20
-0.81924
 40
0.003
 41
0.003
  0
LWPOLYLINE
  5
584
100
AcDbEntity
  8
0
 62
     0
100
AcDbPolyline
 90
        2
 70
     0
 39
0.003
 10
0.623941
 20
-0.81924
 40
0.003
 41
0.003
 10
0.626642
 20
-0.828606
 40
0.003
 41
0.003
  0
LWPOLYLINE
  5
585
100
AcDbEntity
  8
0
 62
     0
100
AcDbPolyline
 90
        2
 70
     0
 39
0.003
 10
0.626642
 20
-0.828606
 40
0.003
 41
0.003
 10
0.628929
 20
-0.837909
 40
0.003
 41
0.003
  0
LWPOLYLINE
  5
586
100
AcDbEntity
  8
0
 62
     0
100
AcDbPolyline
 90
        2
 70
     0
 39
0.003
 10
0.628929
 20
-0.837909
 40
0.003
 41
0.003
 10
0.630815
 20
-0.847157
 40
0.003
 41
0.003
  0
LWPOLYLINE
  5
587
100
AcDbEntity
  8
0
 62
     0
100
AcDbPolyline
 90
        2
 70
     0
 39
0.003
 10
0.630815
 20
-0.847157
 40
0.003
 41
0.003
 10
0.632276
 20
-0.856319
 40
0.003
 41
0.003
  0
LWPOLYLINE
  5
588
100
AcDbEntity
  8
0
 62
     0
100
AcDbPolyline
 90
        2
 70
     0
 39
0.003
 10
0.632276
 20
-0.856319
 40
0.003
 41
0.003
 10
0.633331
 20
-0.865402
 40
0.003
 41
0.003
  0
LWPOLYLINE
  5
589
100
AcDbEntity
  8
0
 62
     0
100
AcDbPolyline
 90
        2
 70
     0
 39
0.003
 10
0.633331
 20
-0.865402
 40
0.003
 41
0.003
 10
0.633965
 20
-0.874386
 40
0.003
 41
0.003
  0
LWPOLYLINE
  5
58A
100
AcDbEntity
  8
0
 62
     0
100
AcDbPolyline
 90
        2
 70
     0
 39
0.003
 10
0.633965
 20
-0.874386
 40
0.003
 41
0.003
 10
0.634185
 20
-0.883268
 40
0.003
 41
0.003
  0
LWPOLYLINE
  5
58B
100
AcDbEntity
  8
0
 62
     0
100
AcDbPolyline
 90
        2
 70
     0
 39
0.003
 10
0.634185
 20
-0.883268
 40
0.003
 41
0.003
 10
0.634079
 20
-0.891913
 40
0.003
 41
0.003
  0
LWPOLYLINE
  5
58C
100
AcDbEntity
  8
0
 62
     0
100
AcDbPolyline
 90
        2
 70
     0
 39
0.003
 10
0.634079
 20
-0.891913
 40
0.003
 41
0.003
 10
0.633776
 20
-0.900228
 40
0.003
 41
0.003
  0
LWPOLYLINE
  5
58D
100
AcDbEntity
  8
0
 62
     0
100
AcDbPolyline
 90
        2
 70
     0
 39
0.003
 10
0.633776
 20
-0.900228
 40
0.003
 41
0.003
 10
0.633268
 20
-0.908213
 40
0.003
 41
0.003
  0
LWPOLYLINE
  5
58E
100
AcDbEntity
  8
0
 62
     0
100
AcDbPolyline
 90
        2
 70
     0
 39
0.003
 10
0.633268
 20
-0.908213
 40
0.003
 41
0.003
 10
0.632579
 20
-0.91589
 40
0.003
 41
0.003
  0
LWPOLYLINE
  5
58F
100
AcDbEntity
  8
0
 62
     0
100
AcDbPolyline
 90
        2
 70
     0
 39
0.003
 10
0.632579
 20
-0.91589
 40
0.003
 41
0.003
 10
0.631697
 20
-0.923252
 40
0.003
 41
0.003
  0
LWPOLYLINE
  5
590
100
AcDbEntity
  8
0
 62
     0
100
AcDbPolyline
 90
        2
 70
     0
 39
0.003
 10
0.631697
 20
-0.923252
 40
0.003
 41
0.003
 10
0.630642
 20
-0.930323
 40
0.003
 41
0.003
  0
LWPOLYLINE
  5
591
100
AcDbEntity
  8
0
 62
     0
100
AcDbPolyline
 90
        2
 70
     0
 39
0.003
 10
0.630642
 20
-0.930323
 40
0.003
 41
0.003
 10
0.629413
 20
-0.937106
 40
0.003
 41
0.003
  0
LWPOLYLINE
  5
592
100
AcDbEntity
  8
0
 62
     0
100
AcDbPolyline
 90
        2
 70
     0
 39
0.003
 10
0.629413
 20
-0.937106
 40
0.003
 41
0.003
 10
0.628028
 20
-0.943618
 40
0.003
 41
0.003
  0
LWPOLYLINE
  5
593
100
AcDbEntity
  8
0
 62
     0
100
AcDbPolyline
 90
        2
 70
     0
 39
0.003
 10
0.628028
 20
-0.943618
 40
0.003
 41
0.003
 10
0.626469
 20
-0.949854
 40
0.003
 41
0.003
  0
LWPOLYLINE
  5
594
100
AcDbEntity
  8
0
 62
     0
100
AcDbPolyline
 90
        2
 70
     0
 39
0.003
 10
0.626469
 20
-0.949854
 40
0.003
 41
0.003
 10
0.624768
 20
-0.955839
 40
0.003
 41
0.003
  0
LWPOLYLINE
  5
595
100
AcDbEntity
  8
0
 62
     0
100
AcDbPolyline
 90
        2
 70
     0
 39
0.003
 10
0.624768
 20
-0.955839
 40
0.003
 41
0.003
 10
0.622917
 20
-0.961571
 40
0.003
 41
0.003
  0
LWPOLYLINE
  5
596
100
AcDbEntity
  8
0
 62
     0
100
AcDbPolyline
 90
        2
 70
     0
 39
0.003
 10
0.622917
 20
-0.961571
 40
0.003
 41
0.003
 10
0.620933
 20
-0.967075
 40
0.003
 41
0.003
  0
LWPOLYLINE
  5
597
100
AcDbEntity
  8
0
 62
     0
100
AcDbPolyline
 90
        2
 70
     0
 39
0.003
 10
0.620933
 20
-0.967075
 40
0.003
 41
0.003
 10
0.618811
 20
-0.972346
 40
0.003
 41
0.003
  0
LWPOLYLINE
  5
598
100
AcDbEntity
  8
0
 62
     0
100
AcDbPolyline
 90
        2
 70
     0
 39
0.003
 10
0.618811
 20
-0.972346
 40
0.003
 41
0.003
 10
0.616571
 20
-0.977402
 40
0.003
 41
0.003
  0
LWPOLYLINE
  5
599
100
AcDbEntity
  8
0
 62
     0
100
AcDbPolyline
 90
        2
 70
     0
 39
0.003
 10
0.616571
 20
-0.977402
 40
0.003
 41
0.003
 10
0.614209
 20
-0.982248
 40
0.003
 41
0.003
  0
LWPOLYLINE
  5
59A
100
AcDbEntity
  8
0
 62
     0
100
AcDbPolyline
 90
        2
 70
     0
 39
0.003
 10
0.614209
 20
-0.982248
 40
0.003
 41
0.003
 10
0.611736
 20
-0.986902
 40
0.003
 41
0.003
  0
LWPOLYLINE
  5
59B
100
AcDbEntity
  8
0
 62
     0
100
AcDbPolyline
 90
        2
 70
     0
 39
0.003
 10
0.611736
 20
-0.986902
 40
0.003
 41
0.003
 10
0.60915
 20
-0.991358
 40
0.003
 41
0.003
  0
LWPOLYLINE
  5
59C
100
AcDbEntity
  8
0
 62
     0
100
AcDbPolyline
 90
        2
 70
     0
 39
0.003
 10
0.60915
 20
-0.991358
 40
0.003
 41
0.003
 10
0.606472
 20
-0.995642
 40
0.003
 41
0.003
  0
LWPOLYLINE
  5
59D
100
AcDbEntity
  8
0
 62
     0
100
AcDbPolyline
 90
        2
 70
     0
 39
0.003
 10
0.606472
 20
-0.995642
 40
0.003
 41
0.003
 10
0.603697
 20
-0.999752
 40
0.003
 41
0.003
  0
LWPOLYLINE
  5
59E
100
AcDbEntity
  8
0
 62
     0
100
AcDbPolyline
 90
        2
 70
     0
 39
0.003
 10
0.603697
 20
-0.999752
 40
0.003
 41
0.003
 10
0.600843
 20
-1.003709
 40
0.003
 41
0.003
  0
LWPOLYLINE
  5
59F
100
AcDbEntity
  8
0
 62
     0
100
AcDbPolyline
 90
        2
 70
     0
 39
0.003
 10
0.600843
 20
-1.003709
 40
0.003
 41
0.003
 10
0.597902
 20
-1.007508
 40
0.003
 41
0.003
  0
LWPOLYLINE
  5
5A0
100
AcDbEntity
  8
0
 62
     0
100
AcDbPolyline
 90
        2
 70
     0
 39
0.003
 10
0.597902
 20
-1.007508
 40
0.003
 41
0.003
 10
0.59489
 20
-1.011177
 40
0.003
 41
0.003
  0
LWPOLYLINE
  5
5A1
100
AcDbEntity
  8
0
 62
     0
100
AcDbPolyline
 90
        2
 70
     0
 39
0.003
 10
0.59489
 20
-1.011177
 40
0.003
 41
0.003
 10
0.591811
 20
-1.014713
 40
0.003
 41
0.003
  0
LWPOLYLINE
  5
5A2
100
AcDbEntity
  8
0
 62
     0
100
AcDbPolyline
 90
        2
 70
     0
 39
0.003
 10
0.591811
 20
-1.014713
 40
0.003
 41
0.003
 10
0.588677
 20
-1.018134
 40
0.003
 41
0.003
  0
LWPOLYLINE
  5
5A3
100
AcDbEntity
  8
0
 62
     0
100
AcDbPolyline
 90
        2
 70
     0
 39
0.003
 10
0.588677
 20
-1.018134
 40
0.003
 41
0.003
 10
0.585484
 20
-1.021437
 40
0.003
 41
0.003
  0
LWPOLYLINE
  5
5A4
100
AcDbEntity
  8
0
 62
     0
100
AcDbPolyline
 90
        2
 70
     0
 39
0.003
 10
0.585484
 20
-1.021437
 40
0.003
 41
0.003
 10
0.582248
 20
-1.024646
 40
0.003
 41
0.003
  0
LWPOLYLINE
  5
5A5
100
AcDbEntity
  8
0
 62
     0
100
AcDbPolyline
 90
        2
 70
     0
 39
0.003
 10
0.582248
 20
-1.024646
 40
0.003
 41
0.003
 10
0.578969
 20
-1.02776
 40
0.003
 41
0.003
  0
LWPOLYLINE
  5
5A6
100
AcDbEntity
  8
0
 62
     0
100
AcDbPolyline
 90
        2
 70
     0
 39
0.003
 10
0.578969
 20
-1.02776
 40
0.003
 41
0.003
 10
0.575661
 20
-1.030799
 40
0.003
 41
0.003
  0
LWPOLYLINE
  5
5A7
100
AcDbEntity
  8
0
 62
     0
100
AcDbPolyline
 90
        2
 70
     0
 39
0.003
 10
0.575661
 20
-1.030799
 40
0.003
 41
0.003
 10
0.572319
 20
-1.033764
 40
0.003
 41
0.003
  0
LWPOLYLINE
  5
5A8
100
AcDbEntity
  8
0
 62
     0
100
AcDbPolyline
 90
        2
 70
     0
 39
0.003
 10
0.572319
 20
-1.033764
 40
0.003
 41
0.003
 10
0.568965
 20
-1.036669
 40
0.003
 41
0.003
  0
LWPOLYLINE
  5
5A9
100
AcDbEntity
  8
0
 62
     0
100
AcDbPolyline
 90
        2
 70
     0
 39
0.003
 10
0.568965
 20
-1.036669
 40
0.003
 41
0.003
 10
0.565594
 20
-1.03952
 40
0.003
 41
0.003
  0
LWPOLYLINE
  5
5AA
100
AcDbEntity
  8
0
 62
     0
100
AcDbPolyline
 90
        2
 70
     0
 39
0.003
 10
0.565594
 20
-1.03952
 40
0.003
 41
0.003
 10
0.562224
 20
-1.042339
 40
0.003
 41
0.003
  0
LWPOLYLINE
  5
5AB
100
AcDbEntity
  8
0
 62
     0
100
AcDbPolyline
 90
        2
 70
     0
 39
0.003
 10
0.562224
 20
-1.042339
 40
0.003
 41
0.003
 10
-0.078902
 20
-1.424925
 40
0.003
 41
0.003
  0
LWPOLYLINE
  5
5AC
100
AcDbEntity
  8
0
 62
     0
100
AcDbPolyline
 90
        2
 70
     0
 39
0.003
 10
-0.078902
 20
-1.424925
 40
0.003
 41
0.003
 10
-0.075531
 20
-1.422106
 40
0.003
 41
0.003
  0
LWPOLYLINE
  5
5AD
100
AcDbEntity
  8
0
 62
     0
100
AcDbPolyline
 90
        2
 70
     0
 39
0.003
 10
-0.075531
 20
-1.422106
 40
0.003
 41
0.003
 10
-0.072161
 20
-1.419256
 40
0.003
 41
0.003
  0
LWPOLYLINE
  5
5AE
100
AcDbEntity
  8
0
 62
     0
100
AcDbPolyline
 90
        2
 70
     0
 39
0.003
 10
-0.072161
 20
-1.419256
 40
0.003
 41
0.003
 10
-0.068807
 20
-1.41635
 40
0.003
 41
0.003
  0
LWPOLYLINE
  5
5AF
100
AcDbEntity
  8
0
 62
     0
100
AcDbPolyline
 90
        2
 70
     0
 39
0.003
 10
-0.068807
 20
-1.41635
 40
0.003
 41
0.003
 10
-0.065465
 20
-1.413386
 40
0.003
 41
0.003
  0
LWPOLYLINE
  5
5B0
100
AcDbEntity
  8
0
 62
     0
100
AcDbPolyline
 90
        2
 70
     0
 39
0.003
 10
-0.065465
 20
-1.413386
 40
0.003
 41
0.003
 10
-0.062157
 20
-1.410346
 40
0.003
 41
0.003
  0
LWPOLYLINE
  5
5B1
100
AcDbEntity
  8
0
 62
     0
100
AcDbPolyline
 90
        2
 70
     0
 39
0.003
 10
-0.062157
 20
-1.410346
 40
0.003
 41
0.003
 10
-0.058878
 20
-1.407232
 40
0.003
 41
0.003
  0
LWPOLYLINE
  5
5B2
100
AcDbEntity
  8
0
 62
     0
100
AcDbPolyline
 90
        2
 70
     0
 39
0.003
 10
-0.058878
 20
-1.407232
 40
0.003
 41
0.003
 10
-0.055642
 20
-1.404024
 40
0.003
 41
0.003
  0
LWPOLYLINE
  5
5B3
100
AcDbEntity
  8
0
 62
     0
100
AcDbPolyline
 90
        2
 70
     0
 39
0.003
 10
-0.055642
 20
-1.404024
 40
0.003
 41
0.003
 10
-0.052449
 20
-1.40072
 40
0.003
 41
0.003
  0
LWPOLYLINE
  5
5B4
100
AcDbEntity
  8
0
 62
     0
100
AcDbPolyline
 90
        2
 70
     0
 39
0.003
 10
-0.052449
 20
-1.40072
 40
0.003
 41
0.003
 10
-0.049315
 20
-1.397299
 40
0.003
 41
0.003
  0
LWPOLYLINE
  5
5B5
100
AcDbEntity
  8
0
 62
     0
100
AcDbPolyline
 90
        2
 70
     0
 39
0.003
 10
-0.049315
 20
-1.397299
 40
0.003
 41
0.003
 10
-0.046236
 20
-1.393764
 40
0.003
 41
0.003
  0
LWPOLYLINE
  5
5B6
100
AcDbEntity
  8
0
 62
     0
100
AcDbPolyline
 90
        2
 70
     0
 39
0.003
 10
-0.046236
 20
-1.393764
 40
0.003
 41
0.003
 10
-0.043224
 20
-1.390094
 40
0.003
 41
0.003
  0
LWPOLYLINE
  5
5B7
100
AcDbEntity
  8
0
 62
     0
100
AcDbPolyline
 90
        2
 70
     0
 39
0.003
 10
-0.043224
 20
-1.390094
 40
0.003
 41
0.003
 10
-0.040283
 20
-1.386295
 40
0.003
 41
0.003
  0
LWPOLYLINE
  5
5B8
100
AcDbEntity
  8
0
 62
     0
100
AcDbPolyline
 90
        2
 70
     0
 39
0.003
 10
-0.040283
 20
-1.386295
 40
0.003
 41
0.003
 10
-0.037429
 20
-1.382339
 40
0.003
 41
0.003
  0
LWPOLYLINE
  5
5B9
100
AcDbEntity
  8
0
 62
     0
100
AcDbPolyline
 90
        2
 70
     0
 39
0.003
 10
-0.037429
 20
-1.382339
 40
0.003
 41
0.003
 10
-0.034654
 20
-1.378228
 40
0.003
 41
0.003
  0
LWPOLYLINE
  5
5BA
100
AcDbEntity
  8
0
 62
     0
100
AcDbPolyline
 90
        2
 70
     0
 39
0.003
 10
-0.034654
 20
-1.378228
 40
0.003
 41
0.003
 10
-0.031976
 20
-1.373945
 40
0.003
 41
0.003
  0
LWPOLYLINE
  5
5BB
100
AcDbEntity
  8
0
 62
     0
100
AcDbPolyline
 90
        2
 70
     0
 39
0.003
 10
-0.031976
 20
-1.373945
 40
0.003
 41
0.003
 10
-0.02939
 20
-1.369488
 40
0.003
 41
0.003
  0
LWPOLYLINE
  5
5BC
100
AcDbEntity
  8
0
 62
     0
100
AcDbPolyline
 90
        2
 70
     0
 39
0.003
 10
-0.02939
 20
-1.369488
 40
0.003
 41
0.003
 10
-0.026917
 20
-1.364835
 40
0.003
 41
0.003
  0
LWPOLYLINE
  5
5BD
100
AcDbEntity
  8
0
 62
     0
100
AcDbPolyline
 90
        2
 70
     0
 39
0.003
 10
-0.026917
 20
-1.364835
 40
0.003
 41
0.003
 10
-0.024555
 20
-1.359988
 40
0.003
 41
0.003
  0
LWPOLYLINE
  5
5BE
100
AcDbEntity
  8
0
 62
     0
100
AcDbPolyline
 90
        2
 70
     0
 39
0.003
 10
-0.024555
 20
-1.359988
 40
0.003
 41
0.003
 10
-0.022315
 20
-1.354933
 40
0.003
 41
0.003
  0
LWPOLYLINE
  5
5BF
100
AcDbEntity
  8
0
 62
     0
100
AcDbPolyline
 90
        2
 70
     0
 39
0.003
 10
-0.022315
 20
-1.354933
 40
0.003
 41
0.003
 10
-0.020193
 20
-1.349661
 40
0.003
 41
0.003
  0
LWPOLYLINE
  5
5C0
100
AcDbEntity
  8
0
 62
     0
100
AcDbPolyline
 90
        2
 70
     0
 39
0.003
 10
-0.020193
 20
-1.349661
 40
0.003
 41
0.003
 10
-0.018209
 20
-1.344157
 40
0.003
 41
0.003
  0
LWPOLYLINE
  5
5C1
100
AcDbEntity
  8
0
 62
     0
100
AcDbPolyline
 90
        2
 70
     0
 39
0.003
 10
-0.018209
 20
-1.344157
 40
0.003
 41
0.003
 10
-0.016358
 20
-1.338425
 40
0.003
 41
0.003
  0
LWPOLYLINE
  5
5C2
100
AcDbEntity
  8
0
 62
     0
100
AcDbPolyline
 90
        2
 70
     0
 39
0.003
 10
-0.016358
 20
-1.338425
 40
0.003
 41
0.003
 10
-0.014657
 20
-1.332441
 40
0.003
 41
0.003
  0
LWPOLYLINE
  5
5C3
100
AcDbEntity
  8
0
 62
     0
100
AcDbPolyline
 90
        2
 70
     0
 39
0.003
 10
-0.014657
 20
-1.332441
 40
0.003
 41
0.003
 10
-0.013098
 20
-1.326205
 40
0.003
 41
0.003
  0
LWPOLYLINE
  5
5C4
100
AcDbEntity
  8
0
 62
     0
100
AcDbPolyline
 90
        2
 70
     0
 39
0.003
 10
-0.013098
 20
-1.326205
 40
0.003
 41
0.003
 10
-0.011713
 20
-1.319693
 40
0.003
 41
0.003
  0
LWPOLYLINE
  5
5C5
100
AcDbEntity
  8
0
 62
     0
100
AcDbPolyline
 90
        2
 70
     0
 39
0.003
 10
-0.011713
 20
-1.319693
 40
0.003
 41
0.003
 10
-0.010484
 20
-1.312909
 40
0.003
 41
0.003
  0
LWPOLYLINE
  5
5C6
100
AcDbEntity
  8
0
 62
     0
100
AcDbPolyline
 90
        2
 70
     0
 39
0.003
 10
-0.010484
 20
-1.312909
 40
0.003
 41
0.003
 10
-0.009429
 20
-1.305839
 40
0.003
 41
0.003
  0
LWPOLYLINE
  5
5C7
100
AcDbEntity
  8
0
 62
     0
100
AcDbPolyline
 90
        2
 70
     0
 39
0.003
 10
-0.009429
 20
-1.305839
 40
0.003
 41
0.003
 10
-0.008547
 20
-1.298476
 40
0.003
 41
0.003
  0
LWPOLYLINE
  5
5C8
100
AcDbEntity
  8
0
 62
     0
100
AcDbPolyline
 90
        2
 70
     0
 39
0.003
 10
-0.008547
 20
-1.298476
 40
0.003
 41
0.003
 10
-0.007858
 20
-1.290799
 40
0.003
 41
0.003
  0
LWPOLYLINE
  5
5C9
100
AcDbEntity
  8
0
 62
     0
100
AcDbPolyline
 90
        2
 70
     0
 39
0.003
 10
-0.007858
 20
-1.290799
 40
0.003
 41
0.003
 10
-0.00735
 20
-1.282815
 40
0.003
 41
0.003
  0
LWPOLYLINE
  5
5CA
100
AcDbEntity
  8
0
 62
     0
100
AcDbPolyline
 90
        2
 70
     0
 39
0.003
 10
-0.00735
 20
-1.282815
 40
0.003
 41
0.003
 10
-0.007047
 20
-1.2745
 40
0.003
 41
0.003
  0
LWPOLYLINE
  5
5CB
100
AcDbEntity
  8
0
 62
     0
100
AcDbPolyline
 90
        2
 70
     0
 39
0.003
 10
-0.007047
 20
-1.2745
 40
0.003
 41
0.003
 10
-0.006941
 20
-1.265854
 40
0.003
 41
0.003
  0
LWPOLYLINE
  5
5CC
100
AcDbEntity
  8
0
 62
     0
100
AcDbPolyline
 90
        2
 70
     0
 39
0.003
 10
-0.006941
 20
-1.265854
 40
0.003
 41
0.003
 10
-0.007161
 20
-1.256972
 40
0.003
 41
0.003
  0
LWPOLYLINE
  5
5CD
100
AcDbEntity
  8
0
 62
     0
100
AcDbPolyline
 90
        2
 70
     0
 39
0.003
 10
-0.007161
 20
-1.256972
 40
0.003
 41
0.003
 10
-0.007795
 20
-1.247988
 40
0.003
 41
0.003
  0
LWPOLYLINE
  5
5CE
100
AcDbEntity
  8
0
 62
     0
100
AcDbPolyline
 90
        2
 70
     0
 39
0.003
 10
-0.007795
 20
-1.247988
 40
0.003
 41
0.003
 10
-0.00885
 20
-1.238906
 40
0.003
 41
0.003
  0
LWPOLYLINE
  5
5CF
100
AcDbEntity
  8
0
 62
     0
100
AcDbPolyline
 90
        2
 70
     0
 39
0.003
 10
-0.00885
 20
-1.238906
 40
0.003
 41
0.003
 10
-0.010311
 20
-1.229744
 40
0.003
 41
0.003
  0
LWPOLYLINE
  5
5D0
100
AcDbEntity
  8
0
 62
     0
100
AcDbPolyline
 90
        2
 70
     0
 39
0.003
 10
-0.010311
 20
-1.229744
 40
0.003
 41
0.003
 10
-0.012197
 20
-1.220496
 40
0.003
 41
0.003
  0
LWPOLYLINE
  5
5D1
100
AcDbEntity
  8
0
 62
     0
100
AcDbPolyline
 90
        2
 70
     0
 39
0.003
 10
-0.012197
 20
-1.220496
 40
0.003
 41
0.003
 10
-0.014484
 20
-1.211193
 40
0.003
 41
0.003
  0
LWPOLYLINE
  5
5D2
100
AcDbEntity
  8
0
 62
     0
100
AcDbPolyline
 90
        2
 70
     0
 39
0.003
 10
-0.014484
 20
-1.211193
 40
0.003
 41
0.003
 10
-0.017185
 20
-1.201827
 40
0.003
 41
0.003
  0
LWPOLYLINE
  5
5D3
100
AcDbEntity
  8
0
 62
     0
100
AcDbPolyline
 90
        2
 70
     0
 39
0.003
 10
-0.017185
 20
-1.201827
 40
0.003
 41
0.003
 10
-0.020283
 20
-1.192429
 40
0.003
 41
0.003
  0
LWPOLYLINE
  5
5D4
100
AcDbEntity
  8
0
 62
     0
100
AcDbPolyline
 90
        2
 70
     0
 39
0.003
 10
-0.020283
 20
-1.192429
 40
0.003
 41
0.003
 10
-0.023799
 20
-1.182988
 40
0.003
 41
0.003
  0
LWPOLYLINE
  5
5D5
100
AcDbEntity
  8
0
 62
     0
100
AcDbPolyline
 90
        2
 70
     0
 39
0.003
 10
-0.023799
 20
-1.182988
 40
0.003
 41
0.003
 10
-0.027709
 20
-1.173531
 40
0.003
 41
0.003
  0
LWPOLYLINE
  5
5D6
100
AcDbEntity
  8
0
 62
     0
100
AcDbPolyline
 90
        2
 70
     0
 39
0.003
 10
-0.027709
 20
-1.173531
 40
0.003
 41
0.003
 10
-0.032024
 20
-1.164063
 40
0.003
 41
0.003
  0
LWPOLYLINE
  5
5D7
100
AcDbEntity
  8
0
 62
     0
100
AcDbPolyline
 90
        2
 70
     0
 39
0.003
 10
-0.032024
 20
-1.164063
 40
0.003
 41
0.003
 10
-0.036732
 20
-1.154602
 40
0.003
 41
0.003
  0
LWPOLYLINE
  5
5D8
100
AcDbEntity
  8
0
 62
     0
100
AcDbPolyline
 90
        2
 70
     0
 39
0.003
 10
-0.036732
 20
-1.154602
 40
0.003
 41
0.003
 10
-0.041843
 20
-1.145142
 40
0.003
 41
0.003
  0
LWPOLYLINE
  5
5D9
100
AcDbEntity
  8
0
 62
     0
100
AcDbPolyline
 90
        2
 70
     0
 39
0.003
 10
-0.041843
 20
-1.145142
 40
0.003
 41
0.003
 10
-0.047343
 20
-1.135709
 40
0.003
 41
0.003
  0
LWPOLYLINE
  5
5DA
100
AcDbEntity
  8
0
 62
     0
100
AcDbPolyline
 90
        2
 70
     0
 39
0.003
 10
-0.047343
 20
-1.135709
 40
0.003
 41
0.003
 10
-0.053236
 20
-1.126303
 40
0.003
 41
0.003
  0
LWPOLYLINE
  5
5DB
100
AcDbEntity
  8
0
 62
     0
100
AcDbPolyline
 90
        2
 70
     0
 39
0.003
 10
-0.053236
 20
-1.126303
 40
0.003
 41
0.003
 10
-0.059516
 20
-1.116949
 40
0.003
 41
0.003
  0
LWPOLYLINE
  5
5DC
100
AcDbEntity
  8
0
 62
     0
100
AcDbPolyline
 90
        2
 70
     0
 39
0.003
 10
-0.059516
 20
-1.116949
 40
0.003
 41
0.003
 10
-0.066193
 20
-1.107638
 40
0.003
 41
0.003
  0
LWPOLYLINE
  5
5DD
100
AcDbEntity
  8
0
 62
     0
100
AcDbPolyline
 90
        2
 70
     0
 39
0.003
 10
-0.066193
 20
-1.107638
 40
0.003
 41
0.003
 10
-0.073248
 20
-1.098398
 40
0.003
 41
0.003
  0
LWPOLYLINE
  5
5DE
100
AcDbEntity
  8
0
 62
     0
100
AcDbPolyline
 90
        2
 70
     0
 39
0.003
 10
-0.073248
 20
-1.098398
 40
0.003
 41
0.003
 10
-0.080697
 20
-1.089228
 40
0.003
 41
0.003
  0
LWPOLYLINE
  5
5DF
100
AcDbEntity
  8
0
 62
     0
100
AcDbPolyline
 90
        2
 70
     0
 39
0.003
 10
-0.080697
 20
-1.089228
 40
0.003
 41
0.003
 10
-0.088516
 20
-1.08015
 40
0.003
 41
0.003
  0
LWPOLYLINE
  5
5E0
100
AcDbEntity
  8
0
 62
     0
100
AcDbPolyline
 90
        2
 70
     0
 39
0.003
 10
-0.088516
 20
-1.08015
 40
0.003
 41
0.003
 10
-0.096724
 20
-1.071161
 40
0.003
 41
0.003
  0
LWPOLYLINE
  5
5E1
100
AcDbEntity
  8
0
 62
     0
100
AcDbPolyline
 90
        2
 70
     0
 39
0.003
 10
-0.096724
 20
-1.071161
 40
0.003
 41
0.003
 10
-0.105303
 20
-1.062287
 40
0.003
 41
0.003
  0
LWPOLYLINE
  5
5E2
100
AcDbEntity
  8
0
 62
     0
100
AcDbPolyline
 90
        2
 70
     0
 39
0.003
 10
-0.105303
 20
-1.062287
 40
0.003
 41
0.003
 10
-0.114264
 20
-1.053528
 40
0.003
 41
0.003
  0
LWPOLYLINE
  5
5E3
100
AcDbEntity
  8
0
 62
     0
100
AcDbPolyline
 90
        2
 70
     0
 39
0.003
 10
-0.114264
 20
-1.053528
 40
0.003
 41
0.003
 10
-0.123594
 20
-1.044906
 40
0.003
 41
0.003
  0
LWPOLYLINE
  5
5E4
100
AcDbEntity
  8
0
 62
     0
100
AcDbPolyline
 90
        2
 70
     0
 39
0.003
 10
-0.123594
 20
-1.044906
 40
0.003
 41
0.003
 10
-0.133303
 20
-1.036409
 40
0.003
 41
0.003
  0
LWPOLYLINE
  5
5E5
100
AcDbEntity
  8
0
 62
     0
100
AcDbPolyline
 90
        2
 70
     0
 39
0.003
 10
-0.133303
 20
-1.036409
 40
0.003
 41
0.003
 10
-0.143374
 20
-1.028071
 40
0.003
 41
0.003
  0
LWPOLYLINE
  5
5E6
100
AcDbEntity
  8
0
 62
     0
100
AcDbPolyline
 90
        2
 70
     0
 39
0.003
 10
-0.143374
 20
-1.028071
 40
0.003
 41
0.003
 10
-0.153819
 20
-1.01989
 40
0.003
 41
0.003
  0
LWPOLYLINE
  5
5E7
100
AcDbEntity
  8
0
 62
     0
100
AcDbPolyline
 90
        2
 70
     0
 39
0.003
 10
-0.153819
 20
-1.01989
 40
0.003
 41
0.003
 10
-0.164622
 20
-1.01189
 40
0.003
 41
0.003
  0
LWPOLYLINE
  5
5E8
100
AcDbEntity
  8
0
 62
     0
100
AcDbPolyline
 90
        2
 70
     0
 39
0.003
 10
-0.164622
 20
-1.01189
 40
0.003
 41
0.003
 10
-0.175795
 20
-1.004059
 40
0.003
 41
0.003
  0
LWPOLYLINE
  5
5E9
100
AcDbEntity
  8
0
 62
     0
100
AcDbPolyline
 90
        2
 70
     0
 39
0.003
 10
-0.175795
 20
-1.004059
 40
0.003
 41
0.003
 10
-0.187323
 20
-0.996433
 40
0.003
 41
0.003
  0
LWPOLYLINE
  5
5EA
100
AcDbEntity
  8
0
 62
     0
100
AcDbPolyline
 90
        2
 70
     0
 39
0.003
 10
-0.187323
 20
-0.996433
 40
0.003
 41
0.003
 10
-0.199217
 20
-0.989004
 40
0.003
 41
0.003
  0
LWPOLYLINE
  5
5EB
100
AcDbEntity
  8
0
 62
     0
100
AcDbPolyline
 90
        2
 70
     0
 39
0.003
 10
-0.199217
 20
-0.989004
 40
0.003
 41
0.003
 10
-0.211461
 20
-0.981799
 40
0.003
 41
0.003
  0
LWPOLYLINE
  5
5EC
100
AcDbEntity
  8
0
 62
     0
100
AcDbPolyline
 90
        2
 70
     0
 39
0.003
 10
-0.211461
 20
-0.981799
 40
0.003
 41
0.003
 10
-0.22378
 20
-0.974583
 40
0.003
 41
0.003
  0
LWPOLYLINE
  5
5ED
100
AcDbEntity
  8
0
 62
     0
100
AcDbPolyline
 90
        2
 70
     0
 39
0.003
 10
-0.22378
 20
-0.974583
 40
0.003
 41
0.003
 10
-0.235862
 20
-0.967122
 40
0.003
 41
0.003
  0
LWPOLYLINE
  5
5EE
100
AcDbEntity
  8
0
 62
     0
100
AcDbPolyline
 90
        2
 70
     0
 39
0.003
 10
-0.235862
 20
-0.967122
 40
0.003
 41
0.003
 10
-0.247705
 20
-0.95935
 40
0.003
 41
0.003
  0
LWPOLYLINE
  5
5EF
100
AcDbEntity
  8
0
 62
     0
100
AcDbPolyline
 90
        2
 70
     0
 39
0.003
 10
-0.247705
 20
-0.95935
 40
0.003
 41
0.003
 10
-0.259287
 20
-0.951228
 40
0.003
 41
0.003
  0
LWPOLYLINE
  5
5F0
100
AcDbEntity
  8
0
 62
     0
100
AcDbPolyline
 90
        2
 70
     0
 39
0.003
 10
-0.259287
 20
-0.951228
 40
0.003
 41
0.003
 10
-0.270614
 20
-0.942689
 40
0.003
 41
0.003
  0
LWPOLYLINE
  5
5F1
100
AcDbEntity
  8
0
 62
     0
100
AcDbPolyline
 90
        2
 70
     0
 39
0.003
 10
-0.270614
 20
-0.942689
 40
0.003
 41
0.003
 10
-0.281661
 20
-0.933689
 40
0.003
 41
0.003
  0
LWPOLYLINE
  5
5F2
100
AcDbEntity
  8
0
 62
     0
100
AcDbPolyline
 90
        2
 70
     0
 39
0.003
 10
-0.281661
 20
-0.933689
 40
0.003
 41
0.003
 10
-0.292421
 20
-0.924173
 40
0.003
 41
0.003
  0
LWPOLYLINE
  5
5F3
100
AcDbEntity
  8
0
 62
     0
100
AcDbPolyline
 90
        2
 70
     0
 39
0.003
 10
-0.292421
 20
-0.924173
 40
0.003
 41
0.003
 10
-0.30289
 20
-0.914094
 40
0.003
 41
0.003
  0
LWPOLYLINE
  5
5F4
100
AcDbEntity
  8
0
 62
     0
100
AcDbPolyline
 90
        2
 70
     0
 39
0.003
 10
-0.30289
 20
-0.914094
 40
0.003
 41
0.003
 10
-0.313047
 20
-0.903386
 40
0.003
 41
0.003
  0
LWPOLYLINE
  5
5F5
100
AcDbEntity
  8
0
 62
     0
100
AcDbPolyline
 90
        2
 70
     0
 39
0.003
 10
-0.313047
 20
-0.903386
 40
0.003
 41
0.003
 10
-0.322898
 20
-0.892008
 40
0.003
 41
0.003
  0
LWPOLYLINE
  5
5F6
100
AcDbEntity
  8
0
 62
     0
100
AcDbPolyline
 90
        2
 70
     0
 39
0.003
 10
-0.322898
 20
-0.892008
 40
0.003
 41
0.003
 10
-0.332417
 20
-0.879902
 40
0.003
 41
0.003
  0
LWPOLYLINE
  5
5F7
100
AcDbEntity
  8
0
 62
     0
100
AcDbPolyline
 90
        2
 70
     0
 39
0.003
 10
-0.332417
 20
-0.879902
 40
0.003
 41
0.003
 10
-0.34161
 20
-0.86702
 40
0.003
 41
0.003
  0
LWPOLYLINE
  5
5F8
100
AcDbEntity
  8
0
 62
     0
100
AcDbPolyline
 90
        2
 70
     0
 39
0.003
 10
-0.34161
 20
-0.86702
 40
0.003
 41
0.003
 10
-0.350445
 20
-0.853299
 40
0.003
 41
0.003
  0
LWPOLYLINE
  5
5F9
100
AcDbEntity
  8
0
 62
     0
100
AcDbPolyline
 90
        2
 70
     0
 39
0.003
 10
-0.350445
 20
-0.853299
 40
0.003
 41
0.003
 10
-0.358933
 20
-0.838697
 40
0.003
 41
0.003
  0
LWPOLYLINE
  5
5FA
100
AcDbEntity
  8
0
 62
     0
100
AcDbPolyline
 90
        2
 70
     0
 39
0.003
 10
-0.358933
 20
-0.838697
 40
0.003
 41
0.003
 10
-0.367047
 20
-0.823157
 40
0.003
 41
0.003
  0
LWPOLYLINE
  5
5FB
100
AcDbEntity
  8
0
 62
     0
100
AcDbPolyline
 90
        2
 70
     0
 39
0.003
 10
-0.367047
 20
-0.823157
 40
0.003
 41
0.003
 10
-0.374791
 20
-0.80663
 40
0.003
 41
0.003
  0
LWPOLYLINE
  5
5FC
100
AcDbEntity
  8
0
 62
     0
100
AcDbPolyline
 90
        2
 70
     0
 39
0.003
 10
-0.374791
 20
-0.80663
 40
0.003
 41
0.003
 10
-0.382134
 20
-0.789051
 40
0.003
 41
0.003
  0
LWPOLYLINE
  5
5FD
100
AcDbEntity
  8
0
 62
     0
100
AcDbPolyline
 90
        2
 70
     0
 39
0.003
 10
-0.382134
 20
-0.789051
 40
0.003
 41
0.003
 10
-0.389087
 20
-0.770382
 40
0.003
 41
0.003
  0
LWPOLYLINE
  5
5FE
100
AcDbEntity
  8
0
 62
     0
100
AcDbPolyline
 90
        2
 70
     0
 39
0.003
 10
-0.389087
 20
-0.770382
 40
0.003
 41
0.003
 10
-0.395626
 20
-0.750563
 40
0.003
 41
0.003
  0
LWPOLYLINE
  5
5FF
100
AcDbEntity
  8
0
 62
     0
100
AcDbPolyline
 90
        2
 70
     0
 39
0.003
 10
-0.395626
 20
-0.750563
 40
0.003
 41
0.003
 10
-0.401748
 20
-0.729547
 40
0.003
 41
0.003
  0
LWPOLYLINE
  5
600
100
AcDbEntity
  8
0
 62
     0
100
AcDbPolyline
 90
        2
 70
     0
 39
0.003
 10
-0.401748
 20
-0.729547
 40
0.003
 41
0.003
 10
-0.407437
 20
-0.707272
 40
0.003
 41
0.003
  0
LWPOLYLINE
  5
601
100
AcDbEntity
  8
0
 62
     0
100
AcDbPolyline
 90
        2
 70
     0
 39
0.003
 10
-0.407437
 20
-0.707272
 40
0.003
 41
0.003
 10
-0.412689
 20
-0.683693
 40
0.003
 41
0.003
  0
LWPOLYLINE
  5
602
100
AcDbEntity
  8
0
 62
     0
100
AcDbPolyline
 90
        2
 70
     0
 39
0.003
 10
-0.412689
 20
-0.683693
 40
0.003
 41
0.003
 10
-0.417488
 20
-0.658756
 40
0.003
 41
0.003
  0
LWPOLYLINE
  5
603
100
AcDbEntity
  8
0
 62
     0
100
AcDbPolyline
 90
        2
 70
     0
 39
0.003
 10
-0.417488
 20
-0.658756
 40
0.003
 41
0.003
 10
-0.421835
 20
-0.632409
 40
0.003
 41
0.003
  0
LWPOLYLINE
  5
604
100
AcDbEntity
  8
0
 62
     0
100
AcDbPolyline
 90
        2
 70
     0
 39
0.003
 10
-0.421835
 20
-0.632409
 40
0.003
 41
0.003
 10
-0.425697
 20
-0.604587
 40
0.003
 41
0.003
  0
LWPOLYLINE
  5
605
100
AcDbEntity
  8
0
 62
     0
100
AcDbPolyline
 90
        2
 70
     0
 39
0.003
 10
-0.425697
 20
-0.604587
 40
0.003
 41
0.003
 10
-0.429087
 20
-0.57526
 40
0.003
 41
0.003
  0
LWPOLYLINE
  5
606
100
AcDbEntity
  8
0
 62
     0
100
AcDbPolyline
 90
        2
 70
     0
 39
0.003
 10
-0.429087
 20
-0.57526
 40
0.003
 41
0.003
 10
-0.43198
 20
-0.544358
 40
0.003
 41
0.003
  0
LWPOLYLINE
  5
607
100
AcDbEntity
  8
0
 62
     0
100
AcDbPolyline
 90
        2
 70
     0
 39
0.003
 10
-0.43198
 20
-0.544358
 40
0.003
 41
0.003
 10
-0.434374
 20
-0.511835
 40
0.003
 41
0.003
  0
LWPOLYLINE
  5
608
100
AcDbEntity
  8
0
 62
     0
100
AcDbPolyline
 90
        2
 70
     0
 39
0.003
 10
-0.434374
 20
-0.511835
 40
0.003
 41
0.003
 10
-0.436252
 20
-0.47763
 40
0.003
 41
0.003
  0
LWPOLYLINE
  5
609
100
AcDbEntity
  8
0
 62
     0
100
AcDbPolyline
 90
        2
 70
     0
 39
0.003
 10
-0.436252
 20
-0.47763
 40
0.003
 41
0.003
 10
-0.437606
 20
-0.441701
 40
0.003
 41
0.003
  0
LWPOLYLINE
  5
60A
100
AcDbEntity
  8
0
 62
     0
100
AcDbPolyline
 90
        2
 70
     0
 39
0.003
 10
-0.437606
 20
-0.441701
 40
0.003
 41
0.003
 10
-0.438425
 20
-0.403992
 40
0.003
 41
0.003
  0
LWPOLYLINE
  5
60B
100
AcDbEntity
  8
0
 62
     0
100
AcDbPolyline
 90
        2
 70
     0
 39
0.003
 10
-0.438425
 20
-0.403992
 40
0.003
 41
0.003
 10
-0.438705
 20
-0.364453
 40
0.003
 41
0.003
  0
LWPOLYLINE
  5
60C
100
AcDbEntity
  8
0
 62
     0
100
AcDbPolyline
 90
        2
 70
     0
 39
0.003
 10
-0.438705
 20
-0.364453
 40
0.003
 41
0.003
 10
-0.438925
 20
-0.324689
 40
0.003
 41
0.003
  0
LWPOLYLINE
  5
60D
100
AcDbEntity
  8
0
 62
     0
100
AcDbPolyline
 90
        2
 70
     0
 39
0.003
 10
-0.438925
 20
-0.324689
 40
0.003
 41
0.003
 10
-0.439622
 20
-0.286362
 40
0.003
 41
0.003
  0
LWPOLYLINE
  5
60E
100
AcDbEntity
  8
0
 62
     0
100
AcDbPolyline
 90
        2
 70
     0
 39
0.003
 10
-0.439622
 20
-0.286362
 40
0.003
 41
0.003
 10
-0.440807
 20
-0.249453
 40
0.003
 41
0.003
  0
LWPOLYLINE
  5
60F
100
AcDbEntity
  8
0
 62
     0
100
AcDbPolyline
 90
        2
 70
     0
 39
0.003
 10
-0.440807
 20
-0.249453
 40
0.003
 41
0.003
 10
-0.442512
 20
-0.213957
 40
0.003
 41
0.003
  0
LWPOLYLINE
  5
610
100
AcDbEntity
  8
0
 62
     0
100
AcDbPolyline
 90
        2
 70
     0
 39
0.003
 10
-0.442512
 20
-0.213957
 40
0.003
 41
0.003
 10
-0.444748
 20
-0.179854
 40
0.003
 41
0.003
  0
LWPOLYLINE
  5
611
100
AcDbEntity
  8
0
 62
     0
100
AcDbPolyline
 90
        2
 70
     0
 39
0.003
 10
-0.444748
 20
-0.179854
 40
0.003
 41
0.003
 10
-0.447563
 20
-0.147142
 40
0.003
 41
0.003
  0
LWPOLYLINE
  5
612
100
AcDbEntity
  8
0
 62
     0
100
AcDbPolyline
 90
        2
 70
     0
 39
0.003
 10
-0.447563
 20
-0.147142
 40
0.003
 41
0.003
 10
-0.450957
 20
-0.115807
 40
0.003
 41
0.003
  0
LWPOLYLINE
  5
613
100
AcDbEntity
  8
0
 62
     0
100
AcDbPolyline
 90
        2
 70
     0
 39
0.003
 10
-0.450957
 20
-0.115807
 40
0.003
 41
0.003
 10
-0.454976
 20
-0.085839
 40
0.003
 41
0.003
  0
LWPOLYLINE
  5
614
100
AcDbEntity
  8
0
 62
     0
100
AcDbPolyline
 90
        2
 70
     0
 39
0.003
 10
-0.454976
 20
-0.085839
 40
0.003
 41
0.003
 10
-0.459622
 20
-0.057217
 40
0.003
 41
0.003
  0
LWPOLYLINE
  5
615
100
AcDbEntity
  8
0
 62
     0
100
AcDbPolyline
 90
        2
 70
     0
 39
0.003
 10
-0.459622
 20
-0.057217
 40
0.003
 41
0.003
 10
-0.464937
 20
-0.029941
 40
0.003
 41
0.003
  0
LWPOLYLINE
  5
616
100
AcDbEntity
  8
0
 62
     0
100
AcDbPolyline
 90
        2
 70
     0
 39
0.003
 10
-0.464937
 20
-0.029941
 40
0.003
 41
0.003
 10
-0.470933
 20
-0.003992
 40
0.003
 41
0.003
  0
LWPOLYLINE
  5
617
100
AcDbEntity
  8
0
 62
     0
100
AcDbPolyline
 90
        2
 70
     0
 39
0.003
 10
-0.470933
 20
-0.003992
 40
0.003
 41
0.003
 10
-0.477646
 20
0.020626
 40
0.003
 41
0.003
  0
LWPOLYLINE
  5
618
100
AcDbEntity
  8
0
 62
     0
100
AcDbPolyline
 90
        2
 70
     0
 39
0.003
 10
-0.477646
 20
0.020626
 40
0.003
 41
0.003
 10
-0.485091
 20
0.043941
 40
0.003
 41
0.003
  0
LWPOLYLINE
  5
619
100
AcDbEntity
  8
0
 62
     0
100
AcDbPolyline
 90
        2
 70
     0
 39
0.003
 10
-0.485091
 20
0.043941
 40
0.003
 41
0.003
 10
-0.493295
 20
0.065949
 40
0.003
 41
0.003
  0
LWPOLYLINE
  5
61A
100
AcDbEntity
  8
0
 62
     0
100
AcDbPolyline
 90
        2
 70
     0
 39
0.003
 10
-0.493295
 20
0.065949
 40
0.003
 41
0.003
 10
-0.502283
 20
0.086673
 40
0.003
 41
0.003
  0
LWPOLYLINE
  5
61B
100
AcDbEntity
  8
0
 62
     0
100
AcDbPolyline
 90
        2
 70
     0
 39
0.003
 10
-0.502283
 20
0.086673
 40
0.003
 41
0.003
 10
-0.512083
 20
0.10613
 40
0.003
 41
0.003
  0
LWPOLYLINE
  5
61C
100
AcDbEntity
  8
0
 62
     0
100
AcDbPolyline
 90
        2
 70
     0
 39
0.003
 10
-0.512083
 20
0.10613
 40
0.003
 41
0.003
 10
-0.522705
 20
0.124311
 40
0.003
 41
0.003
  0
LWPOLYLINE
  5
61D
100
AcDbEntity
  8
0
 62
     0
100
AcDbPolyline
 90
        2
 70
     0
 39
0.003
 10
-0.522705
 20
0.124311
 40
0.003
 41
0.003
 10
-0.534189
 20
0.141248
 40
0.003
 41
0.003
  0
LWPOLYLINE
  5
61E
100
AcDbEntity
  8
0
 62
     0
100
AcDbPolyline
 90
        2
 70
     0
 39
0.003
 10
-0.534189
 20
0.141248
 40
0.003
 41
0.003
 10
-0.546555
 20
0.156937
 40
0.003
 41
0.003
  0
LWPOLYLINE
  5
61F
100
AcDbEntity
  8
0
 62
     0
100
AcDbPolyline
 90
        2
 70
     0
 39
0.003
 10
-0.546555
 20
0.156937
 40
0.003
 41
0.003
 10
-0.559827
 20
0.171398
 40
0.003
 41
0.003
  0
LWPOLYLINE
  5
620
100
AcDbEntity
  8
0
 62
     0
100
AcDbPolyline
 90
        2
 70
     0
 39
0.003
 10
-0.559827
 20
0.171398
 40
0.003
 41
0.003
 10
-0.574024
 20
0.184634
 40
0.003
 41
0.003
  0
LWPOLYLINE
  5
621
100
AcDbEntity
  8
0
 62
     0
100
AcDbPolyline
 90
        2
 70
     0
 39
0.003
 10
-0.574024
 20
0.184634
 40
0.003
 41
0.003
 10
-0.589181
 20
0.196665
 40
0.003
 41
0.003
  0
LWPOLYLINE
  5
622
100
AcDbEntity
  8
0
 62
     0
100
AcDbPolyline
 90
        2
 70
     0
 39
0.003
 10
-0.589181
 20
0.196665
 40
0.003
 41
0.003
 10
-0.605311
 20
0.207496
 40
0.003
 41
0.003
  0
LWPOLYLINE
  5
623
100
AcDbEntity
  8
0
 62
     0
100
AcDbPolyline
 90
        2
 70
     0
 39
0.003
 10
-0.605311
 20
0.207496
 40
0.003
 41
0.003
 10
-0.622449
 20
0.217146
 40
0.003
 41
0.003
  0
LWPOLYLINE
  5
624
100
AcDbEntity
  8
0
 62
     0
100
AcDbPolyline
 90
        2
 70
     0
 39
0.003
 10
-0.622449
 20
0.217146
 40
0.003
 41
0.003
 10
-0.640602
 20
0.22561
 40
0.003
 41
0.003
  0
LWPOLYLINE
  5
625
100
AcDbEntity
  8
0
 62
     0
100
AcDbPolyline
 90
        2
 70
     0
 39
0.003
 10
-0.640602
 20
0.22561
 40
0.003
 41
0.003
 10
-0.659815
 20
0.232913
 40
0.003
 41
0.003
  0
LWPOLYLINE
  5
626
100
AcDbEntity
  8
0
 62
     0
100
AcDbPolyline
 90
        2
 70
     0
 39
0.003
 10
-0.659815
 20
0.232913
 40
0.003
 41
0.003
 10
-0.680098
 20
0.239059
 40
0.003
 41
0.003
  0
LWPOLYLINE
  5
627
100
AcDbEntity
  8
0
 62
     0
100
AcDbPolyline
 90
        2
 70
     0
 39
0.003
 10
-0.680098
 20
0.239059
 40
0.003
 41
0.003
 10
-0.701488
 20
0.244071
 40
0.003
 41
0.003
  0
LWPOLYLINE
  5
628
100
AcDbEntity
  8
0
 62
     0
100
AcDbPolyline
 90
        2
 70
     0
 39
0.003
 10
-0.701488
 20
0.244071
 40
0.003
 41
0.003
 10
-0.723992
 20
0.247945
 40
0.003
 41
0.003
  0
LWPOLYLINE
  5
629
100
AcDbEntity
  8
0
 62
     0
100
AcDbPolyline
 90
        2
 70
     0
 39
0.003
 10
-0.723992
 20
0.247945
 40
0.003
 41
0.003
 10
-0.74765
 20
0.250701
 40
0.003
 41
0.003
  0
LWPOLYLINE
  5
62A
100
AcDbEntity
  8
0
 62
     0
100
AcDbPolyline
 90
        2
 70
     0
 39
0.003
 10
-0.74765
 20
0.250701
 40
0.003
 41
0.003
 10
-0.772476
 20
0.252343
 40
0.003
 41
0.003
  0
LWPOLYLINE
  5
62B
100
AcDbEntity
  8
0
 62
     0
100
AcDbPolyline
 90
        2
 70
     0
 39
0.003
 10
-0.772476
 20
0.252343
 40
0.003
 41
0.003
 10
-0.798508
 20
0.252894
 40
0.003
 41
0.003
  0
SPLINE
  5
62C
100
AcDbEntity
  8
0
 62
     7
100
AcDbSpline
210
0.0
220
0.0
230
1.0
 70
     0
 71
     3
 72
     0
 73
     0
 74
    64
 44
0.0000000001
 11
-0.7985078740157481
 21
0.2528937007874016
 31
0.0
 11
-0.7476496062992126
 21
0.2507007874015748
 31
0.0
 11
-0.701488188976378
 21
0.2440708661417323
 31
0.0
 11
-0.6598149606299213
 21
0.2329133858267717
 31
0.0
 11
-0.6224488188976378
 21
0.2171456692913386
 31
0.0
 11
-0.5891811023622048
 21
0.1966653543307087
 31
0.0
 11
-0.5598267716535433
 21
0.1713976377952756
 31
0.0
 11
-0.5341889763779527
 21
0.141248031496063
 31
0.0
 11
-0.5120826771653544
 21
0.1061299212598425
 31
0.0
 11
-0.4932952755905512
 21
0.0659448818897638
 31
0.0
 11
-0.4776456692913386
 21
0.0206141732283465
 31
0.0
 11
-0.4649370078740158
 21
-0.0299448818897638
 31
0.0
 11
-0.4549763779527559
 21
-0.0858425196850394
 31
0.0
 11
-0.4475629921259843
 21
-0.1471456692913386
 31
0.0
 11
-0.442511811023622
 21
-0.2139566929133858
 31
0.0
 11
-0.4396220472440945
 21
-0.2863622047244094
 31
0.0
 11
-0.4387047244094488
 21
-0.3644527559055118
 31
0.0
 11
-0.4376062992125984
 21
-0.4417007874015748
 31
0.0
 11
-0.4343740157480315
 21
-0.5118346456692914
 31
0.0
 11
-0.4290866141732284
 21
-0.5752598425196851
 31
0.0
 11
-0.4218346456692914
 21
-0.6324094488188976
 31
0.0
 11
-0.4126889763779528
 21
-0.6836929133858267
 31
0.0
 11
-0.401748031496063
 21
-0.7295472440944882
 31
0.0
 11
-0.3890866141732284
 21
-0.7703818897637795
 31
0.0
 11
-0.3747913385826772
 21
-0.8066299212598426
 31
0.0
 11
-0.3589330708661417
 21
-0.8386968503937008
 31
0.0
 11
-0.3416102362204724
 21
-0.8670196850393701
 31
0.0
 11
-0.3228976377952756
 21
-0.892007874015748
 31
0.0
 11
-0.3028858267716535
 21
-0.9140944881889764
 31
0.0
 11
-0.2816496062992126
 21
-0.9336889763779528
 31
0.0
 11
-0.2592795275590552
 21
-0.951228346456693
 31
0.0
 11
-0.2358503937007874
 21
-0.9671220472440945
 31
0.0
 11
-0.2114606299212598
 21
-0.9817992125984252
 31
0.0
 11
-0.1873110236220472
 21
-0.9964330708661418
 31
0.0
 11
-0.1646102362204724
 21
-1.0118897637795277
 31
0.0
 11
-0.1433582677165354
 21
-1.0280708661417324
 31
0.0
 11
-0.1235826771653543
 21
-1.0449055118110235
 31
0.0
 11
-0.1052874015748032
 21
-1.0622874015748032
 31
0.0
 11
-0.088503937007874
 21
-1.0801496062992126
 31
0.0
 11
-0.0732362204724409
 21
-1.0983976377952755
 31
0.0
 11
-0.059507874015748
 21
-1.1169488188976378
 31
0.0
 11
-0.0473228346456693
 21
-1.1357086614173229
 31
0.0
 11
-0.0367125984251968
 21
-1.1546023622047243
 31
0.0
 11
-0.0276889763779528
 21
-1.1735314960629921
 31
0.0
 11
-0.0202716535433071
 21
-1.1924291338582678
 31
0.0
 11
-0.0144645669291339
 21
-1.2111929133858268
 31
0.0
 11
-0.0102992125984252
 21
-1.229744094488189
 31
0.0
 11
-0.0077834645669291
 21
-1.247988188976378
 31
0.0
 11
-0.0069409448818898
 21
-1.2658543307086614
 31
0.0
 11
-0.0073385826771654
 21
-1.2828149606299213
 31
0.0
 11
-0.0085354330708661
 21
-1.2984763779527559
 31
0.0
 11
-0.0104645669291339
 21
-1.3129094488188977
 31
0.0
 11
-0.0130905511811024
 21
-1.3262047244094488
 31
0.0
 11
-0.0163425196850394
 21
-1.3384251968503937
 31
0.0
 11
-0.0201771653543307
 21
-1.3496614173228347
 31
0.0
 11
-0.0245393700787402
 21
-1.3599881889763779
 31
0.0
 11
-0.0293818897637795
 21
-1.3694881889763779
 31
0.0
 11
-0.0346377952755905
 21
-1.3782283464566929
 31
0.0
 11
-0.0402716535433071
 21
-1.3862952755905511
 31
0.0
 11
-0.0462244094488189
 21
-1.393763779527559
 31
0.0
 11
-0.0524409448818898
 21
-1.4007204724409448
 31
0.0
 11
-0.0588661417322835
 21
-1.407232283464567
 31
0.0
 11
-0.0654566929133858
 21
-1.4133858267716535
 31
0.0
 11
-0.0721496062992126
 21
-1.419255905511811
 31
0.0
  0
LWPOLYLINE
  5
62D
100
AcDbEntity
  8
0
 62
     7
100
AcDbPolyline
 90
        2
 70
     0
 39
0.003
 10
-0.07215
 20
-1.419256
 40
0.003
 41
0.003
 10
-0.078902
 20
-1.424925
 40
0.003
 41
0.003
  0
LWPOLYLINE
  5
62E
100
AcDbEntity
  8
0
 62
     7
100
AcDbPolyline
 90
        2
 70
     0
 39
0.003
 10
-0.078902
 20
-1.424925
 40
0.003
 41
0.003
 10
-0.79852
 20
-1.424925
 40
0.003
 41
0.003
  0
LWPOLYLINE
  5
62F
100
AcDbEntity
  8
0
 62
     7
100
AcDbPolyline
 90
        2
 70
     0
 39
0.003
 10
-0.79852
 20
-1.424925
 40
0.003
 41
0.003
 10
-0.798508
 20
0.252894
 40
0.003
 41
0.003
  0
MTEXT
  5
630
100
AcDbEntity
  8
0
 62
     0
100
AcDbMText
 10
-1.609339
 20
-1.344165
 30
0.0
 40
0.166665
 41
0.0
 71
     1
 72
     1
  1
{\fBookman Old Style|b0|i0|c0|p32;BA  1429}
 73
     1
 44
1.0
  0
MTEXT
  5
631
100
AcDbEntity
  8
0
 62
     0
100
AcDbMText
 10
-1.609339
 20
-1.531665
 30
0.0
 40
0.166665
 41
0.0
 71
     1
 72
     1
  1
{\fBookman Old Style|b0|i0|c0|p32;13/16" x 1-11/16"}
 73
     1
 44
1.0
  0
MTEXT
  5
632
100
AcDbEntity
  8
0
 62
     0
100
AcDbMText
 10
-1.821898
 20
1.65052
 30
0.0
 40
0.166665
 41
0.0
 71
     1
 72
     1
  1
{\fBookman Old Style|b0|i0|c0|p32;BA  1429}
 73
     1
 44
1.0
  0
MTEXT
  5
633
100
AcDbEntity
  8
0
 62
     0
100
AcDbMText
 10
-1.821898
 20
1.46302
 30
0.0
 40
0.166665
 41
0.0
 71
     1
 72
     1
  1
{\fBookman Old Style|b0|i0|c0|p32;13/16" x 1-11/16"}
 73
     1
 44
1.0
  0
ENDSEC
  0
SECTION
  2
OBJECTS
  0
DICTIONARY
  5
19
100
AcDbDictionary
280
     0
281
     1
  3
ACAD_GROUP
350
1A
  3
ACAD_MLINESTYLE
350
1B
  3
ACAD_LAYOUT
350
1E
  3
ACAD_PLOTSETTINGS
350
22
  3
ACAD_PLOTSTYLENAME
350
1F
  3
ACAD_WIPEOUT_VARS
350
23
  0
DICTIONARY
  5
1A
102
{ACAD_REACTORS
330
19
102
}
100
AcDbDictionary
280
     0
281
     1
  0
DICTIONARY
  5
1B
102
{ACAD_REACTORS
330
19
102
}
100
AcDbDictionary
280
     0
281
     1
  3
Standard
350
1C
  0
MLINESTYLE
  5
1C
102
{ACAD_REACTORS
330
1B
102
}
100
AcDbMlineStyle
  2
Standard
 70
     0
  3

 62
     0
 51
90.0
 52
90.0
 71
     2
 49
0.5
 62
   256
  6
BYLAYER
 49
-0.5
 62
   256
  6
BYLAYER
  0
ACDBDICTIONARYWDFLT
  5
1F
102
{ACAD_REACTORS
330
19
102
}
100
AcDbDictionary
281
     1
  3
Normal
350
1D
100
AcDbDictionaryWithDefault
340
1D
  0
ACDBPLACEHOLDER
  5
1D
102
{ACAD_REACTORS
330
1F
102
}
  0
LAYOUT
  5
20
102
{ACAD_REACTORS
330
1E
102
}
100
AcDbPlotSettings
  1

  2

  4

  6

 40
0.0
 41
0.0
 42
0.0
 43
0.0
 44
0.0
 45
0.0
 46
0.0
 47
0.0
 48
0.0
 49
0.0
140
0.0
141
0.0
142
1.0
143
1.0
 70
  1024
 72
     0
 73
     0
 74
     0
  7

 75
     0
147
1.0
148
0.0
149
0.0
100
AcDbLayout
  1
Model
 70
     0
 71
     0
 10
0.0
 20
0.0
 11
0.0
 21
0.0
 12
0.0
 22
0.0
 32
0.0
 14
0.0
 24
0.0
 34
0.0
 15
0.0
 25
0.0
 35
0.0
146
0.0
 13
0.0
 23
0.0
 33
0.0
 16
0.0
 26
0.0
 36
0.0
 17
0.0
 27
0.0
 37
0.0
 76
     0
330
A
331
0
345
0
346
0
  0
LAYOUT
  5
21
102
{ACAD_REACTORS
330
1E
102
}
100
AcDbPlotSettings
  1

  2

  4

  6

 40
0.0
 41
0.0
 42
0.0
 43
0.0
 44
0.0
 45
0.0
 46
0.0
 47
0.0
 48
0.0
 49
0.0
140
0.0
141
0.0
142
1.0
143
1.0
 70
     0
 72
     0
 73
     0
 74
     0
  7

 75
     0
147
1.0
148
0.0
149
0.0
100
AcDbLayout
  1
Layout1
 70
     0
 71
     0
 10
0.0
 20
0.0
 11
0.0
 21
0.0
 12
0.0
 22
0.0
 32
0.0
 14
0.0
 24
0.0
 34
0.0
 15
0.0
 25
0.0
 35
0.0
146
0.0
 13
0.0
 23
0.0
 33
0.0
 16
0.0
 26
0.0
 36
0.0
 17
0.0
 27
0.0
 37
0.0
 76
     0
330
B
331
0
345
0
346
0
  0
DICTIONARY
  5
1E
102
{ACAD_REACTORS
330
19
102
}
100
AcDbDictionary
280
     0
281
     1
  3
Layout1
350
21
  3
Model
350
20
  0
DICTIONARY
  5
22
102
{ACAD_REACTORS
330
19
102
}
100
AcDbDictionary
280
     0
281
     1
  0
WIPEOUTVARIABLES
  5
23
100
AcDbWipeoutVariables
 70
     1
  0
ENDSEC
  0
EOF
