  0
SECTION
  2
HEADER
  9
$ACADVER
  1
AC1015
  9
$ACADMAINTVER
 70
     6
  9
$DWGCODEPAGE
  3
DOS850
  9
$INSBASE
 10
0.0
 20
0.0
 30
0.0
  9
$EXTMIN
 10
1.000000E+20
 20
1.000000E+20
 30
1.000000E+20
  9
$EXTMAX
 10
-1.000000E+20
 20
-1.000000E+20
 30
-1.000000E+20
  9
$LIMMIN
 10
0.0
 20
0.0
  9
$LIMMAX
 10
0.0
 20
0.0
  9
$ORTHOMODE
 70
     0
  9
$REGENMODE
 70
     1
  9
$FILLMODE
 70
     1
  9
$QTEXTMODE
 70
     0
  9
$MIRRTEXT
 70
     1
  9
$LTSCALE
 40
1.0
  9
$ATTMODE
 70
     1
  9
$TEXTSIZE
 40
0.2
  9
$TRACEWID
 40
0.05
  9
$TEXTSTYLE
  7
Standard
  9
$CLAYER
  8
0
  9
$CELTYPE
  6
Continuous
  9
$CECOLOR
 62
   256
  9
$CELTSCALE
 40
1.0
  9
$DISPSILH
 70
     0
  9
$DIMSCALE
 40
1.0
  9
$DIMASZ
 40
0.18
  9
$DIMEXO
 40
0.0625
  9
$DIMDLI
 40
0.38
  9
$DIMRND
 40
0.0
  9
$DIMDLE
 40
0.0
  9
$DIMEXE
 40
0.18
  9
$DIMTP
 40
0.0
  9
$DIMTM
 40
0.0
  9
$DIMTXT
 40
0.18
  9
$DIMCEN
 40
0.09
  9
$DIMTSZ
 40
0.0
  9
$DIMTOL
 70
     0
  9
$DIMLIM
 70
     0
  9
$DIMTIH
 70
     1
  9
$DIMTOH
 70
     1
  9
$DIMSE1
 70
     0
  9
$DIMSE2
 70
     0
  9
$DIMTAD
 70
     0
  9
$DIMZIN
 70
     0
  9
$DIMBLK
  1

  9
$DIMASO
 70
     1
  9
$DIMSHO
 70
     1
  9
$DIMPOST
  1

  9
$DIMAPOST
  1

  9
$DIMALT
 70
     0
  9
$DIMALTD
 70
     2
  9
$DIMALTF
 40
25.4
  9
$DIMLFAC
 40
1.0
  9
$DIMTOFL
 70
     0
  9
$DIMTVP
 40
0.0
  9
$DIMTIX
 70
     0
  9
$DIMSOXD
 70
     0
  9
$DIMSAH
 70
     0
  9
$DIMBLK1
  1

  9
$DIMBLK2
  1

  9
$DIMSTYLE
  2
Standard
  9
$DIMCLRD
 70
     0
  9
$DIMCLRE
 70
     0
  9
$DIMCLRT
 70
     0
  9
$DIMTFAC
 40
1.0
  9
$DIMGAP
 40
0.09
  9
$DIMJUST
 70
     0
  9
$DIMSD1
 70
     0
  9
$DIMSD2
 70
     0
  9
$DIMTOLJ
 70
     1
  9
$DIMTZIN
 70
     0
  9
$DIMALTZ
 70
     0
  9
$DIMALTTZ
 70
     0
  9
$DIMUPT
 70
     0
  9
$DIMDEC
 70
     4
  9
$DIMTDEC
 70
     4
  9
$DIMALTU
 70
     2
  9
$DIMALTTD
 70
     2
  9
$DIMTXSTY
  7
Standard
  9
$DIMAUNIT
 70
     0
  9
$DIMADEC
 70
     0
  9
$DIMALTRND
 40
0.0
  9
$DIMAZIN
 70
     0
  9
$DIMDSEP
 70
     0
  9
$DIMATFIT
 70
     3
  9
$DIMFRAC
 70
     0
  9
$DIMLDRBLK
  1

  9
$DIMLUNIT
 70
     2
  9
$DIMLWD
 70
     0
  9
$DIMLWE
 70
     0
  9
$DIMTMOVE
 70
     0
  9
$LUNITS
 70
     2
  9
$LUPREC
 70
     4
  9
$SKETCHINC
 40
0.1
  9
$FILLETRAD
 40
0.0
  9
$AUNITS
 70
     0
  9
$AUPREC
 70
     0
  9
$MENU
  1
acad
  9
$ELEVATION
 40
0.0
  9
$PELEVATION
 40
0.0
  9
$THICKNESS
 40
0.0
  9
$LIMCHECK
 70
     0
  9
$CHAMFERA
 40
0.0
  9
$CHAMFERB
 40
0.0
  9
$CHAMFERC
 40
0.0
  9
$CHAMFERD
 40
0.0
  9
$SKPOLY
 70
     0
  9
$TDCREATE
 40
0.000000000
  9
$TDUCREATE
 40
0.000000000
  9
$TDUPDATE
 40
0.000000000
  9
$TDUUPDATE
 40
0.000000000
  9
$TDINDWG
 40
0.0000000000
  9
$TDUSRTIMER
 40
0.0000000000
  9
$USRTIMER
 70
     1
  9
$ANGBASE
 50
0.0
  9
$ANGDIR
 70
     0
  9
$PDMODE
 70
     0
  9
$PDSIZE
 40
0.0
  9
$PLINEWID
 40
0.0
  9
$SPLFRAME
 70
     0
  9
$SPLINETYPE
 70
     6
  9
$SPLINESEGS
 70
     8
  9
$HANDSEED
  5
66A
  9
$SURFTAB1
 70
     6
  9
$SURFTAB2
 70
     6
  9
$SURFTYPE
 70
     6
  9
$SURFU
 70
     6
  9
$SURFV
 70
     6
  9
$UCSBASE
  2

  9
$UCSNAME
  2

  9
$UCSORG
 10
0.0
 20
0.0
 30
0.0
  9
$UCSXDIR
 10
1.0
 20
0.0
 30
0.0
  9
$UCSYDIR
 10
0.0
 20
1.0
 30
0.0
  9
$UCSORTHOREF
  2

  9
$UCSORTHOVIEW
 70
     0
  9
$UCSORGTOP
 10
0.0
 20
0.0
 30
0.0
  9
$UCSORGBOTTOM
 10
0.0
 20
0.0
 30
0.0
  9
$UCSORGLEFT
 10
0.0
 20
0.0
 30
0.0
  9
$UCSORGRIGHT
 10
0.0
 20
0.0
 30
0.0
  9
$UCSORGFRONT
 10
0.0
 20
0.0
 30
0.0
  9
$UCSORGBACK
 10
0.0
 20
0.0
 30
0.0
  9
$PUCSBASE
  2

  9
$PUCSNAME
  2

  9
$PUCSORG
 10
0.0
 20
0.0
 30
0.0
  9
$PUCSXDIR
 10
1.0
 20
0.0
 30
0.0
  9
$PUCSYDIR
 10
0.0
 20
1.0
 30
0.0
  9
$PUCSORTHOREF
  2

  9
$PUCSORTHOVIEW
 70
     0
  9
$PUCSORGTOP
 10
0.0
 20
0.0
 30
0.0
  9
$PUCSORGBOTTOM
 10
0.0
 20
0.0
 30
0.0
  9
$PUCSORGLEFT
 10
0.0
 20
0.0
 30
0.0
  9
$PUCSORGRIGHT
 10
0.0
 20
0.0
 30
0.0
  9
$PUCSORGFRONT
 10
0.0
 20
0.0
 30
0.0
  9
$PUCSORGBACK
 10
0.0
 20
0.0
 30
0.0
  9
$USERI1
 70
     0
  9
$USERI2
 70
     0
  9
$USERI3
 70
     0
  9
$USERI4
 70
     0
  9
$USERI5
 70
     0
  9
$USERR1
 40
0.0
  9
$USERR2
 40
0.0
  9
$USERR3
 40
0.0
  9
$USERR4
 40
0.0
  9
$USERR5
 40
0.0
  9
$WORLDVIEW
 70
     1
  9
$SHADEDGE
 70
     3
  9
$SHADEDIF
 70
    70
  9
$TILEMODE
 70
     1
  9
$MAXACTVP
 70
    16
  9
$PINSBASE
 10
0.0
 20
0.0
 30
0.0
  9
$PLIMCHECK
 70
     0
  9
$PEXTMIN
 10
1.000000E+20
 20
1.000000E+20
 30
1.000000E+20
  9
$PEXTMAX
 10
-1.000000E+20
 20
-1.000000E+20
 30
-1.000000E+20
  9
$PLIMMIN
 10
0.0
 20
0.0
  9
$PLIMMAX
 10
12.0
 20
9.0
  9
$UNITMODE
 70
     0
  9
$VISRETAIN
 70
     0
  9
$PLINEGEN
 70
     1
  9
$PSLTSCALE
 70
     0
  9
$TREEDEPTH
 70
  3020
  9
$CMLSTYLE
  2
Standard
  9
$CMLJUST
 70
     0
  9
$CMLSCALE
 40
1.0
  9
$PROXYGRAPHICS
 70
     0
  9
$MEASUREMENT
 70
     0
  9
$CELWEIGHT
370
     0
  9
$ENDCAPS
280
     0
  9
$JOINSTYLE
280
     0
  9
$LWDISPLAY
290
     0
  9
$INSUNITS
 70
     0
  9
$HYPERLINKBASE
  1

  9
$XEDIT
290
     1
  9
$CEPSNTYPE
380
     0
  9
$PSTYLEMODE
290
     1
  9
$FINGERPRINTGUID
  2

  9
$VERSIONGUID
  2

  9
$EXTNAMES
290
     1
  9
$PSVPSCALE
 40
0.0
  0
ENDSEC
  0
SECTION
  2
CLASSES
  0
CLASS
  1
LWPOLYLINE
  2
AcDbPolyline
  3
AutoCAD 2000
 90
        0
280
     0
281
     1
  0
CLASS
  1
IMAGE
  2
AcDbRasterImage
  3
ISM
 90
    32895
280
     0
281
     1
  0
CLASS
  1
OLE2FRAME
  2
AcDbOle2Frame
  3
AutoCAD 2000
 90
    32768
280
     0
281
     1
  0
CLASS
  1
HATCH
  2
AcDbHatch
  3
AutoCAD 2000
 90
    32768
280
     0
281
     1
  0
CLASS
  1
DICTIONARYVAR
  2
AcDbDictionaryVar
  3
AutoCAD 2000
 90
    32768
280
     0
281
     0
  0
CLASS
  1
RASTERVARIABLES
  2
AcDbRasterVariables
  3
ISM
 90
    32768
280
     0
281
     0
  0
CLASS
  1
IMAGEDEF
  2
AcDbRasterImageDef
  3
ISM
 90
    32768
280
     0
281
     0
  0
CLASS
  1
IMAGEDEF_REACTOR
  2
AcDbRasterImageDefReactor
  3
ISM
 90
    32769
280
     0
281
     0
  0
CLASS
  1
IDBUFFER
  2
AcDbIdBuffer
  3
AutoCAD 2000
 90
    32768
280
     0
281
     0
  0
CLASS
  1
SPATIAL_FILTER
  2
AcDbSpatialFilter
  3
AutoCAD 2000
 90
    32768
280
     0
281
     0
  0
CLASS
  1
XRECORD
  2
AcDbXrecord
  3
AutoCAD 2000
 90
    32768
280
     0
281
     0
  0
CLASS
  1
SORTENTSTABLE
  2
AcDbSortentsTable
  3
AutoCAD 2000
 90
    32768
280
     0
281
     0
  0
CLASS
  1
LAYER_INDEX
  2
AcDbLayerIndex
  3
AutoCAD 2000
 90
    32768
280
     0
281
     0
  0
CLASS
  1
SPATIAL_INDEX
  2
AcDbSpatialIndex
  3
AutoCAD 2000
 90
    32768
280
     0
281
     0
  0
CLASS
  1
OBJECT_PTR
  2
CAseDLPNTableRecord
  3
"ASE-LPNTableRecord"
 90
    32769
280
     0
281
     0
  0
CLASS
  1
LAYOUT
  2
AcDbLayout
  3
AutoCAD 2000
 90
        0
280
     0
281
     0
  0
CLASS
  1
PLOTSETTINGS
  2
AcDbPlotSettings
  3
AutoCAD 2000
 90
    32768
280
     0
281
     0
  0
CLASS
  1
ACDBDICTIONARYWDFLT
  2
AcDbDictionaryWithDefault
  3
AutoCAD 2000
 90
        0
280
     0
281
     0
  0
CLASS
  1
ACDBPLACEHOLDER
  2
AcDbPlaceHolder
  3
AutoCAD 2000
 90
        0
280
     0
281
     0
  0
CLASS
  1
VBA_PROJECT
  2
AcDbVbaProject
  3
acadvba
 90
    32768
280
     0
281
     0
  0
CLASS
  1
WIPEOUT
  2
AcDbWipeout
  3
WipeOut|AutoCAD Express Tool|expresstools@autodesk.com
 90
    32895
280
     0
281
     1
  0
CLASS
  1
WIPEOUTVARIABLES
  2
AcDbWipeoutVariables
  3
WipeOut|AutoCAD Express Tool|expresstools@autodesk.com
 90
        0
280
     0
281
     0
  0
CLASS
  1
RTEXT
  2
RText
  3
RText|AutoCAD Express Tool|expresstools@autodesk.com
 90
    32768
280
     0
281
     1
  0
CLASS
  1
ARCALIGNEDTEXT
  2
AcDbArcAlignedText
  3
ATEXT|AutoCAD Express Tool|expresstools@autodesk.com
 90
    32768
280
     0
281
     1
  0
ENDSEC
  0
SECTION
  2
TABLES
  0
TABLE
  2
VPORT
  5
7
100
AcDbSymbolTable
 70
     1
  0
VPORT
  5
15
100
AcDbSymbolTableRecord
100
AcDbViewportTableRecord
  2
*ACTIVE
 70
     0
 10
0.0
 20
0.0
 11
1.0
 21
1.0
 12
6.591288
 22
4.579184
 13
0.0
 23
0.0
 14
1.0
 24
1.0
 15
0.0
 25
0.0
 16
0.0
 26
0.0
 36
1.0
 17
0.0
 27
0.0
 37
0.0
 40
9.158369
 41
0.688564
 42
50.0
 43
0.0
 44
0.0
 50
0.0
 51
0.0
 71
     0
 72
   100
 73
     1
 74
     1
 75
     0
 76
     0
 77
     0
 78
     0
281
     0
 65
     0
110
0.0
120
0.0
130
0.0
111
1.0
121
0.0
131
0.0
112
0.0
122
1.0
132
0.0
345
0
346
0
 79
     0
146
0.0
  0
ENDTAB
  0
TABLE
  2
LTYPE
  5
4
100
AcDbSymbolTable
 70
     3
  0
LTYPE
  5
11
100
AcDbSymbolTableRecord
100
AcDbLinetypeTableRecord
  2
ByBlock
 70
    64
  3

 72
    65
 73
     0
 40
0.0
  0
LTYPE
  5
12
100
AcDbSymbolTableRecord
100
AcDbLinetypeTableRecord
  2
ByLayer
 70
    64
  3

 72
    65
 73
     0
 40
0.0
  0
LTYPE
  5
13
100
AcDbSymbolTableRecord
100
AcDbLinetypeTableRecord
  2
Continuous
 70
    64
  3
Solid line
 72
    65
 73
     0
 40
0.0
  0
ENDTAB
  0
TABLE
  2
LAYER
  5
2
100
AcDbSymbolTable
 70
     1
  0
LAYER
  5
14
100
AcDbSymbolTableRecord
100
AcDbLayerTableRecord
  2
0
 70
     0
 62
     7
  6
Continuous
290
     1
370
    -3
390
1D
  0
ENDTAB
  0
TABLE
  2
STYLE
  5
3
100
AcDbSymbolTable
 70
     1
  0
STYLE
  5
17
100
AcDbSymbolTableRecord
100
AcDbTextStyleTableRecord
  2
Standard
 70
     0
 40
0.0
 41
1.0
 50
0.0
 71
     0
 42
0.0
  3
txt
  4

  0
ENDTAB
  0
TABLE
  2
VIEW
  5
5
100
AcDbSymbolTable
 70
     0
  0
ENDTAB
  0
TABLE
  2
UCS
  5
6
100
AcDbSymbolTable
 70
     0
  0
ENDTAB
  0
TABLE
  2
APPID
  5
8
100
AcDbSymbolTable
 70
     1
  0
APPID
  5
16
100
AcDbSymbolTableRecord
100
AcDbRegAppTableRecord
  2
ACAD
 70
     0
  0
ENDTAB
  0
TABLE
  2
DIMSTYLE
  5
9
100
AcDbSymbolTable
 70
     1
100
AcDbDimStyleTable
 71
     0
  0
DIMSTYLE
105
18
100
AcDbSymbolTableRecord
100
AcDbDimStyleTableRecord
  2
Standard
 70
     0
  3

  4

 40
1.0
 41
0.18
 42
0.0625
 43
0.38
 44
0.18
 45
0.0
 46
0.0
 47
0.0
 48
0.0
 71
     0
 72
     0
 73
     1
 74
     1
 75
     0
 76
     0
 77
     0
 78
     0
 79
     0
140
0.18
141
0.09
142
0.0
143
25.4
144
1.0
145
0.0
146
1.0
147
0.09
148
0.0
170
     0
171
     2
172
     0
173
     0
174
     0
175
     0
176
     0
177
     0
178
     0
179
     0
271
     4
272
     4
273
     2
274
     2
275
     0
276
     0
277
     2
278
    46
279
     0
280
     0
281
     0
282
     0
283
     1
284
     0
285
     0
286
     0
288
     0
340
17
341
0
342
0
343
0
344
0
371
    -2
372
    -2
  0
ENDTAB
  0
TABLE
  2
BLOCK_RECORD
  5
1
100
AcDbSymbolTable
 70
     0
  0
BLOCK_RECORD
  5
A
100
AcDbSymbolTableRecord
100
AcDbBlockTableRecord
  2
*MODEL_SPACE
340
20
  0
BLOCK_RECORD
  5
B
100
AcDbSymbolTableRecord
100
AcDbBlockTableRecord
  2
*PAPER_SPACE
340
21
  0
ENDTAB
  0
ENDSEC
  0
SECTION
  2
BLOCKS
  0
BLOCK
  5
D
100
AcDbEntity
  8
0
100
AcDbBlockBegin
  2
*MODEL_SPACE
 70
     0
 10
0.0
 20
0.0
 30
0.0
  3
*MODEL_SPACE
  1

  0
ENDBLK
  5
E
100
AcDbEntity
  8
0
100
AcDbBlockEnd
  0
BLOCK
  5
F
100
AcDbEntity
 67
     1
  8
0
100
AcDbBlockBegin
  2
*PAPER_SPACE
 70
     0
 10
0.0
 20
0.0
 30
0.0
  3
*PAPER_SPACE
  1

  0
ENDBLK
  5
10
100
AcDbEntity
 67
     1
  8
0
100
AcDbBlockEnd
  0
ENDSEC
  0
SECTION
  2
ENTITIES
  0
LWPOLYLINE
  5
24
100
AcDbEntity
  8
0
 62
     0
100
AcDbPolyline
 90
        2
 70
     0
 39
0.003
 10
2.226835
 20
3.347181
 40
0.003
 41
0.003
 10
0.496028
 20
3.347181
 40
0.003
 41
0.003
  0
SPLINE
  5
25
100
AcDbEntity
  8
0
 62
     0
100
AcDbSpline
210
0.0
220
0.0
230
1.0
 70
     0
 71
     3
 72
     0
 73
     0
 74
    16
 44
0.0000000001
 11
0.4960275590551181
 21
3.3471811023622049
 31
0.0
 11
0.4598740157480315
 21
3.3470472440944881
 31
0.0
 11
0.4210866141732284
 21
3.3468858267716537
 31
0.0
 11
0.3802204724409449
 21
3.3470393700787402
 31
0.0
 11
0.3378425196850394
 21
3.3478661417322835
 31
0.0
 11
0.2945
 21
3.3496968503937006
 31
0.0
 11
0.2507677165354331
 21
3.3528858267716535
 31
0.0
 11
0.2071968503937008
 21
3.357779527559055
 31
0.0
 11
0.1643582677165354
 21
3.364732283464567
 31
0.0
 11
0.1227952755905512
 21
3.3740708661417322
 31
0.0
 11
0.0830826771653543
 21
3.3861653543307089
 31
0.0
 11
0.0457755905511811
 21
3.4013464566929135
 31
0.0
 11
0.0114409448818898
 21
3.4199763779527559
 31
0.0
 11
-0.0193661417322835
 21
3.4423818897637797
 31
0.0
 11
-0.0460905511811024
 21
3.4689251968503938
 31
0.0
 11
-0.0681653543307087
 21
3.499948818897638
 31
0.0
  0
LWPOLYLINE
  5
26
100
AcDbEntity
  8
0
 62
     0
100
AcDbPolyline
 90
        2
 70
     0
 39
0.003
 10
-0.068165
 20
3.499949
 40
0.003
 41
0.003
 10
-0.085039
 20
3.535803
 40
0.003
 41
0.003
  0
LWPOLYLINE
  5
27
100
AcDbEntity
  8
0
 62
     0
100
AcDbPolyline
 90
        2
 70
     0
 39
0.003
 10
-0.085039
 20
3.535803
 40
0.003
 41
0.003
 10
-0.209925
 20
3.535803
 40
0.003
 41
0.003
  0
SPLINE
  5
28
100
AcDbEntity
  8
0
 62
     0
100
AcDbSpline
210
0.0
220
0.0
230
1.0
 70
     0
 71
     3
 72
     0
 73
     0
 74
    16
 44
0.0000000001
 11
-0.2099251968503937
 21
3.5358031496062994
 31
0.0
 11
-0.219263779527559
 21
3.5547204724409447
 31
0.0
 11
-0.2328070866141732
 21
3.5728346456692912
 31
0.0
 11
-0.2499370078740157
 21
3.5897598425196851
 31
0.0
 11
-0.2700472440944882
 21
3.6051299212598424
 31
0.0
 11
-0.2925157480314961
 21
3.6185472440944881
 31
0.0
 11
-0.316751968503937
 21
3.6296496062992127
 31
0.0
 11
-0.3421299212598425
 21
3.638047244094488
 31
0.0
 11
-0.3680551181102362
 21
3.6433740157480314
 31
0.0
 11
-0.3939015748031496
 21
3.645232283464567
 31
0.0
 11
-0.4190669291338583
 21
3.6432598425196852
 31
0.0
 11
-0.4429409448818898
 21
3.6370669291338582
 31
0.0
 11
-0.4649212598425197
 21
3.6262874015748032
 31
0.0
 11
-0.4843818897637796
 21
3.6105236220472441
 31
0.0
 11
-0.5007322834645669
 21
3.5894173228346458
 31
0.0
 11
-0.5133464566929133
 21
3.5625748031496065
 31
0.0
  0
LWPOLYLINE
  5
29
100
AcDbEntity
  8
0
 62
     0
100
AcDbPolyline
 90
        2
 70
     0
 39
0.003
 10
-0.513346
 20
3.562575
 40
0.003
 41
0.003
 10
-0.521626
 20
3.52963
 40
0.003
 41
0.003
  0
LWPOLYLINE
  5
2A
100
AcDbEntity
  8
0
 62
     0
100
AcDbPolyline
 90
        2
 70
     0
 39
0.003
 10
-0.521626
 20
3.52963
 40
0.003
 41
0.003
 10
-0.584209
 20
3.52963
 40
0.003
 41
0.003
  0
LWPOLYLINE
  5
2B
100
AcDbEntity
  8
0
 62
     0
100
AcDbPolyline
 90
        2
 70
     0
 39
0.003
 10
-0.584209
 20
3.52963
 40
0.003
 41
0.003
 10
-0.584209
 20
3.652378
 40
0.003
 41
0.003
  0
SPLINE
  5
2C
100
AcDbEntity
  8
0
 62
     0
100
AcDbSpline
210
0.0
220
0.0
230
1.0
 70
     0
 71
     3
 72
     0
 73
     0
 74
    16
 44
0.0000000001
 11
-0.5842086614173229
 21
3.6523779527559057
 31
0.0
 11
-0.6634212598425197
 21
3.6517716535433071
 31
0.0
 11
-0.7439527559055118
 21
3.6503897637795277
 31
0.0
 11
-0.8250275590551182
 21
3.6488503937007875
 31
0.0
 11
-0.9058937007874016
 21
3.6477952755905512
 31
0.0
 11
-0.9857795275590551
 21
3.6478425196850393
 31
0.0
 11
-1.0639409448818897
 21
3.6496299212598426
 31
0.0
 11
-1.1396062992125984
 21
3.6537795275590552
 31
0.0
 11
-1.212023622047244
 21
3.6609330708661418
 31
0.0
 11
-1.2804173228346456
 21
3.671700787401575
 31
0.0
 11
-1.3440433070866142
 21
3.6867322834645671
 31
0.0
 11
-1.4021299212598426
 21
3.7066456692913388
 31
0.0
 11
-1.4539251968503937
 21
3.7320787401574802
 31
0.0
 11
-1.4986574803149606
 21
3.7636496062992126
 31
0.0
 11
-1.5355787401574803
 21
3.802
 31
0.0
 11
-1.5639173228346457
 21
3.8477519685039372
 31
0.0
  0
LWPOLYLINE
  5
2D
100
AcDbEntity
  8
0
 62
     0
100
AcDbPolyline
 90
        2
 70
     0
 39
0.003
 10
-1.563917
 20
3.847752
 40
0.003
 41
0.003
 10
-1.582929
 20
3.901543
 40
0.003
 41
0.003
  0
LWPOLYLINE
  5
2E
100
AcDbEntity
  8
0
 62
     0
100
AcDbPolyline
 90
        2
 70
     0
 39
0.003
 10
-1.582929
 20
3.901543
 40
0.003
 41
0.003
 10
-1.706398
 20
3.901543
 40
0.003
 41
0.003
  0
SPLINE
  5
2F
100
AcDbEntity
  8
0
 62
     0
100
AcDbSpline
210
0.0
220
0.0
230
1.0
 70
     0
 71
     3
 72
     0
 73
     0
 74
    16
 44
0.0000000001
 11
-1.7063976377952756
 21
3.9015433070866141
 31
0.0
 11
-1.7399330708661418
 21
3.9718228346456694
 31
0.0
 11
-1.775736220472441
 21
4.0322362204724413
 31
0.0
 11
-1.8132559055118109
 21
4.0832204724409449
 31
0.0
 11
-1.8519488188976378
 21
4.1252244094488191
 31
0.0
 11
-1.891255905511811
 21
4.1586771653543311
 31
0.0
 11
-1.9306417322834646
 21
4.184035433070866
 31
0.0
 11
-1.9695511811023623
 21
4.2017322834645672
 31
0.0
 11
-2.0074488188976378
 21
4.212216535433071
 31
0.0
 11
-2.0437677165354331
 21
4.2159173228346454
 31
0.0
 11
-2.0779763779527558
 21
4.213287401574803
 31
0.0
 11
-2.1095157480314959
 21
4.2047677165354331
 31
0.0
 11
-2.1378543307086613
 21
4.1907992125984252
 31
0.0
 11
-2.1624251968503936
 21
4.1718188976377952
 31
0.0
 11
-2.1827007874015747
 21
4.1482795275590547
 31
0.0
 11
-2.1981181102362206
 21
4.1206141732283461
 31
0.0
  0
LWPOLYLINE
  5
30
100
AcDbEntity
  8
0
 62
     0
100
AcDbPolyline
 90
        2
 70
     0
 39
0.003
 10
-2.198118
 20
4.120614
 40
0.003
 41
0.003
 10
-2.208138
 20
4.089272
 40
0.003
 41
0.003
  0
LWPOLYLINE
  5
31
100
AcDbEntity
  8
0
 62
     0
100
AcDbPolyline
 90
        2
 70
     0
 39
0.003
 10
-2.208138
 20
4.089272
 40
0.003
 41
0.003
 10
-2.271244
 20
4.089272
 40
0.003
 41
0.003
  0
LWPOLYLINE
  5
32
100
AcDbEntity
  8
0
 62
     0
100
AcDbPolyline
 90
        2
 70
     0
 39
0.003
 10
-2.271244
 20
4.089272
 40
0.003
 41
0.003
 10
-2.271244
 20
4.212528
 40
0.003
 41
0.003
  0
LWPOLYLINE
  5
33
100
AcDbEntity
  8
0
 62
     0
100
AcDbPolyline
 90
        2
 70
     0
 39
0.003
 10
-2.271244
 20
4.212528
 40
0.003
 41
0.003
 10
-2.645996
 20
4.212528
 40
0.003
 41
0.003
  0
LWPOLYLINE
  5
34
100
AcDbEntity
  8
0
 62
     0
100
AcDbPolyline
 90
        2
 70
     0
 39
0.003
 10
-2.645996
 20
4.212528
 40
0.003
 41
0.003
 10
-2.645996
 20
2.462528
 40
0.003
 41
0.003
  0
LWPOLYLINE
  5
35
100
AcDbEntity
  8
0
 62
     0
100
AcDbPolyline
 90
        2
 70
     0
 39
0.003
 10
-2.645996
 20
2.462528
 40
0.003
 41
0.003
 10
2.227209
 20
2.462528
 40
0.003
 41
0.003
  0
LWPOLYLINE
  5
36
100
AcDbEntity
  8
0
 62
     0
100
AcDbPolyline
 90
        2
 70
     0
 39
0.003
 10
2.227209
 20
2.462528
 40
0.003
 41
0.003
 10
2.226835
 20
3.347181
 40
0.003
 41
0.003
  0
MTEXT
  5
37
100
AcDbEntity
  8
0
 62
     0
100
AcDbMText
 10
-1.474484
 20
2.493531
 30
0.0
 40
0.166665
 41
0.0
 71
     1
 72
     1
  1
{\fBookman Old Style|b0|i0|c0|p32;BA  1428}
 73
     1
 44
1.0
  0
MTEXT
  5
38
100
AcDbEntity
  8
0
 62
     0
100
AcDbMText
 10
-1.474484
 20
2.306031
 30
0.0
 40
0.166665
 41
0.0
 71
     1
 72
     1
  1
{\fBookman Old Style|b0|i0|c0|p32;1-3/4" x 4-7/8"  }
 73
     1
 44
1.0
  0
LWPOLYLINE
  5
39
100
AcDbEntity
  8
0
 62
     9
100
AcDbPolyline
 90
        2
 70
     0
 39
0.003
 10
-0.309228
 20
-3.756732
 40
0.003
 41
0.003
 10
0.346921
 20
-3.373205
 40
0.003
 41
0.003
  0
LWPOLYLINE
  5
3A
100
AcDbEntity
  8
0
 62
     9
100
AcDbPolyline
 90
        2
 70
     0
 39
0.003
 10
0.346921
 20
-3.373205
 40
0.003
 41
0.003
 10
0.346921
 20
-1.642398
 40
0.003
 41
0.003
  0
LWPOLYLINE
  5
3B
100
AcDbEntity
  8
0
 62
     9
100
AcDbPolyline
 90
        2
 70
     0
 39
0.003
 10
0.346921
 20
-1.642398
 40
0.003
 41
0.003
 10
-0.309228
 20
-2.025925
 40
0.003
 41
0.003
  0
LWPOLYLINE
  5
3C
100
AcDbEntity
  8
0
 62
     9
100
AcDbPolyline
 90
        2
 70
     0
 39
0.003
 10
-0.309228
 20
-2.025925
 40
0.003
 41
0.003
 10
-0.309228
 20
-3.756732
 40
0.003
 41
0.003
  0
LWPOLYLINE
  5
3D
100
AcDbEntity
  8
0
 62
     0
100
AcDbPolyline
 90
        2
 70
     0
 39
0.003
 10
-0.309228
 20
-3.756732
 40
0.003
 41
0.003
 10
0.346921
 20
-3.373205
 40
0.003
 41
0.003
  0
LWPOLYLINE
  5
3E
100
AcDbEntity
  8
0
 62
     0
100
AcDbPolyline
 90
        2
 70
     0
 39
0.003
 10
0.346921
 20
-3.373205
 40
0.003
 41
0.003
 10
0.346921
 20
-1.642398
 40
0.003
 41
0.003
  0
LWPOLYLINE
  5
3F
100
AcDbEntity
  8
0
 62
     0
100
AcDbPolyline
 90
        2
 70
     0
 39
0.003
 10
0.346921
 20
-1.642398
 40
0.003
 41
0.003
 10
-0.309228
 20
-2.025925
 40
0.003
 41
0.003
  0
LWPOLYLINE
  5
40
100
AcDbEntity
  8
0
 62
     0
100
AcDbPolyline
 90
        2
 70
     0
 39
0.003
 10
-0.309228
 20
-2.025925
 40
0.003
 41
0.003
 10
-0.309228
 20
-3.756732
 40
0.003
 41
0.003
  0
LWPOLYLINE
  5
41
100
AcDbEntity
  8
0
 62
     9
100
AcDbPolyline
 90
        2
 70
     0
 39
0.003
 10
-0.309228
 20
-2.025925
 40
0.003
 41
0.003
 10
0.346921
 20
-1.642398
 40
0.003
 41
0.003
  0
LWPOLYLINE
  5
42
100
AcDbEntity
  8
0
 62
     9
100
AcDbPolyline
 90
        2
 70
     0
 39
0.003
 10
0.346921
 20
-1.642398
 40
0.003
 41
0.003
 10
0.346886
 20
-1.624681
 40
0.003
 41
0.003
  0
LWPOLYLINE
  5
43
100
AcDbEntity
  8
0
 62
     9
100
AcDbPolyline
 90
        2
 70
     0
 39
0.003
 10
0.346886
 20
-1.624681
 40
0.003
 41
0.003
 10
-0.309264
 20
-2.008209
 40
0.003
 41
0.003
  0
LWPOLYLINE
  5
44
100
AcDbEntity
  8
0
 62
     9
100
AcDbPolyline
 90
        2
 70
     0
 39
0.003
 10
-0.309264
 20
-2.008209
 40
0.003
 41
0.003
 10
-0.309228
 20
-2.025925
 40
0.003
 41
0.003
  0
LWPOLYLINE
  5
45
100
AcDbEntity
  8
0
 62
     9
100
AcDbPolyline
 90
        2
 70
     0
 39
0.003
 10
-0.309264
 20
-2.008209
 40
0.003
 41
0.003
 10
0.346886
 20
-1.624681
 40
0.003
 41
0.003
  0
LWPOLYLINE
  5
46
100
AcDbEntity
  8
0
 62
     9
100
AcDbPolyline
 90
        2
 70
     0
 39
0.003
 10
0.346886
 20
-1.624681
 40
0.003
 41
0.003
 10
0.346795
 20
-1.606244
 40
0.003
 41
0.003
  0
LWPOLYLINE
  5
47
100
AcDbEntity
  8
0
 62
     9
100
AcDbPolyline
 90
        2
 70
     0
 39
0.003
 10
0.346795
 20
-1.606244
 40
0.003
 41
0.003
 10
-0.309354
 20
-1.989772
 40
0.003
 41
0.003
  0
LWPOLYLINE
  5
48
100
AcDbEntity
  8
0
 62
     9
100
AcDbPolyline
 90
        2
 70
     0
 39
0.003
 10
-0.309354
 20
-1.989772
 40
0.003
 41
0.003
 10
-0.309264
 20
-2.008209
 40
0.003
 41
0.003
  0
LWPOLYLINE
  5
49
100
AcDbEntity
  8
0
 62
     9
100
AcDbPolyline
 90
        2
 70
     0
 39
0.003
 10
-0.309354
 20
-1.989772
 40
0.003
 41
0.003
 10
0.346795
 20
-1.606244
 40
0.003
 41
0.003
  0
LWPOLYLINE
  5
4A
100
AcDbEntity
  8
0
 62
     9
100
AcDbPolyline
 90
        2
 70
     0
 39
0.003
 10
0.346795
 20
-1.606244
 40
0.003
 41
0.003
 10
0.346701
 20
-1.587146
 40
0.003
 41
0.003
  0
LWPOLYLINE
  5
4B
100
AcDbEntity
  8
0
 62
     9
100
AcDbPolyline
 90
        2
 70
     0
 39
0.003
 10
0.346701
 20
-1.587146
 40
0.003
 41
0.003
 10
-0.309449
 20
-1.970673
 40
0.003
 41
0.003
  0
LWPOLYLINE
  5
4C
100
AcDbEntity
  8
0
 62
     9
100
AcDbPolyline
 90
        2
 70
     0
 39
0.003
 10
-0.309449
 20
-1.970673
 40
0.003
 41
0.003
 10
-0.309354
 20
-1.989772
 40
0.003
 41
0.003
  0
LWPOLYLINE
  5
4D
100
AcDbEntity
  8
0
 62
     9
100
AcDbPolyline
 90
        2
 70
     0
 39
0.003
 10
-0.309449
 20
-1.970673
 40
0.003
 41
0.003
 10
0.346701
 20
-1.587146
 40
0.003
 41
0.003
  0
LWPOLYLINE
  5
4E
100
AcDbEntity
  8
0
 62
     9
100
AcDbPolyline
 90
        2
 70
     0
 39
0.003
 10
0.346701
 20
-1.587146
 40
0.003
 41
0.003
 10
0.346634
 20
-1.567457
 40
0.003
 41
0.003
  0
LWPOLYLINE
  5
4F
100
AcDbEntity
  8
0
 62
     9
100
AcDbPolyline
 90
        2
 70
     0
 39
0.003
 10
0.346634
 20
-1.567457
 40
0.003
 41
0.003
 10
-0.309516
 20
-1.950984
 40
0.003
 41
0.003
  0
LWPOLYLINE
  5
50
100
AcDbEntity
  8
0
 62
     9
100
AcDbPolyline
 90
        2
 70
     0
 39
0.003
 10
-0.309516
 20
-1.950984
 40
0.003
 41
0.003
 10
-0.309449
 20
-1.970673
 40
0.003
 41
0.003
  0
LWPOLYLINE
  5
51
100
AcDbEntity
  8
0
 62
     9
100
AcDbPolyline
 90
        2
 70
     0
 39
0.003
 10
-0.309516
 20
-1.950984
 40
0.003
 41
0.003
 10
0.346634
 20
-1.567457
 40
0.003
 41
0.003
  0
LWPOLYLINE
  5
52
100
AcDbEntity
  8
0
 62
     9
100
AcDbPolyline
 90
        2
 70
     0
 39
0.003
 10
0.346634
 20
-1.567457
 40
0.003
 41
0.003
 10
0.346657
 20
-1.547248
 40
0.003
 41
0.003
  0
LWPOLYLINE
  5
53
100
AcDbEntity
  8
0
 62
     9
100
AcDbPolyline
 90
        2
 70
     0
 39
0.003
 10
0.346657
 20
-1.547248
 40
0.003
 41
0.003
 10
-0.309492
 20
-1.930776
 40
0.003
 41
0.003
  0
LWPOLYLINE
  5
54
100
AcDbEntity
  8
0
 62
     9
100
AcDbPolyline
 90
        2
 70
     0
 39
0.003
 10
-0.309492
 20
-1.930776
 40
0.003
 41
0.003
 10
-0.309516
 20
-1.950984
 40
0.003
 41
0.003
  0
LWPOLYLINE
  5
55
100
AcDbEntity
  8
0
 62
     9
100
AcDbPolyline
 90
        2
 70
     0
 39
0.003
 10
-0.309492
 20
-1.930776
 40
0.003
 41
0.003
 10
0.346657
 20
-1.547248
 40
0.003
 41
0.003
  0
LWPOLYLINE
  5
56
100
AcDbEntity
  8
0
 62
     9
100
AcDbPolyline
 90
        2
 70
     0
 39
0.003
 10
0.346657
 20
-1.547248
 40
0.003
 41
0.003
 10
0.346795
 20
-1.526591
 40
0.003
 41
0.003
  0
LWPOLYLINE
  5
57
100
AcDbEntity
  8
0
 62
     9
100
AcDbPolyline
 90
        2
 70
     0
 39
0.003
 10
0.346795
 20
-1.526591
 40
0.003
 41
0.003
 10
-0.309354
 20
-1.910118
 40
0.003
 41
0.003
  0
LWPOLYLINE
  5
58
100
AcDbEntity
  8
0
 62
     9
100
AcDbPolyline
 90
        2
 70
     0
 39
0.003
 10
-0.309354
 20
-1.910118
 40
0.003
 41
0.003
 10
-0.309492
 20
-1.930776
 40
0.003
 41
0.003
  0
LWPOLYLINE
  5
59
100
AcDbEntity
  8
0
 62
     9
100
AcDbPolyline
 90
        2
 70
     0
 39
0.003
 10
-0.309354
 20
-1.910118
 40
0.003
 41
0.003
 10
0.346795
 20
-1.526591
 40
0.003
 41
0.003
  0
LWPOLYLINE
  5
5A
100
AcDbEntity
  8
0
 62
     9
100
AcDbPolyline
 90
        2
 70
     0
 39
0.003
 10
0.346795
 20
-1.526591
 40
0.003
 41
0.003
 10
0.347098
 20
-1.505555
 40
0.003
 41
0.003
  0
LWPOLYLINE
  5
5B
100
AcDbEntity
  8
0
 62
     9
100
AcDbPolyline
 90
        2
 70
     0
 39
0.003
 10
0.347098
 20
-1.505555
 40
0.003
 41
0.003
 10
-0.309051
 20
-1.889083
 40
0.003
 41
0.003
  0
LWPOLYLINE
  5
5C
100
AcDbEntity
  8
0
 62
     9
100
AcDbPolyline
 90
        2
 70
     0
 39
0.003
 10
-0.309051
 20
-1.889083
 40
0.003
 41
0.003
 10
-0.309354
 20
-1.910118
 40
0.003
 41
0.003
  0
LWPOLYLINE
  5
5D
100
AcDbEntity
  8
0
 62
     9
100
AcDbPolyline
 90
        2
 70
     0
 39
0.003
 10
-0.309051
 20
-1.889083
 40
0.003
 41
0.003
 10
0.347098
 20
-1.505555
 40
0.003
 41
0.003
  0
LWPOLYLINE
  5
5E
100
AcDbEntity
  8
0
 62
     9
100
AcDbPolyline
 90
        2
 70
     0
 39
0.003
 10
0.347098
 20
-1.505555
 40
0.003
 41
0.003
 10
0.34761
 20
-1.484213
 40
0.003
 41
0.003
  0
LWPOLYLINE
  5
5F
100
AcDbEntity
  8
0
 62
     9
100
AcDbPolyline
 90
        2
 70
     0
 39
0.003
 10
0.34761
 20
-1.484213
 40
0.003
 41
0.003
 10
-0.308539
 20
-1.86774
 40
0.003
 41
0.003
  0
LWPOLYLINE
  5
60
100
AcDbEntity
  8
0
 62
     9
100
AcDbPolyline
 90
        2
 70
     0
 39
0.003
 10
-0.308539
 20
-1.86774
 40
0.003
 41
0.003
 10
-0.309051
 20
-1.889083
 40
0.003
 41
0.003
  0
LWPOLYLINE
  5
61
100
AcDbEntity
  8
0
 62
     9
100
AcDbPolyline
 90
        2
 70
     0
 39
0.003
 10
-0.308539
 20
-1.86774
 40
0.003
 41
0.003
 10
0.34761
 20
-1.484213
 40
0.003
 41
0.003
  0
LWPOLYLINE
  5
62
100
AcDbEntity
  8
0
 62
     9
100
AcDbPolyline
 90
        2
 70
     0
 39
0.003
 10
0.34761
 20
-1.484213
 40
0.003
 41
0.003
 10
0.348386
 20
-1.462622
 40
0.003
 41
0.003
  0
LWPOLYLINE
  5
63
100
AcDbEntity
  8
0
 62
     9
100
AcDbPolyline
 90
        2
 70
     0
 39
0.003
 10
0.348386
 20
-1.462622
 40
0.003
 41
0.003
 10
-0.307764
 20
-1.84615
 40
0.003
 41
0.003
  0
LWPOLYLINE
  5
64
100
AcDbEntity
  8
0
 62
     9
100
AcDbPolyline
 90
        2
 70
     0
 39
0.003
 10
-0.307764
 20
-1.84615
 40
0.003
 41
0.003
 10
-0.308539
 20
-1.86774
 40
0.003
 41
0.003
  0
LWPOLYLINE
  5
65
100
AcDbEntity
  8
0
 62
     9
100
AcDbPolyline
 90
        2
 70
     0
 39
0.003
 10
-0.307764
 20
-1.84615
 40
0.003
 41
0.003
 10
0.348386
 20
-1.462622
 40
0.003
 41
0.003
  0
LWPOLYLINE
  5
66
100
AcDbEntity
  8
0
 62
     9
100
AcDbPolyline
 90
        2
 70
     0
 39
0.003
 10
0.348386
 20
-1.462622
 40
0.003
 41
0.003
 10
0.349449
 20
-1.44087
 40
0.003
 41
0.003
  0
LWPOLYLINE
  5
67
100
AcDbEntity
  8
0
 62
     9
100
AcDbPolyline
 90
        2
 70
     0
 39
0.003
 10
0.349449
 20
-1.44087
 40
0.003
 41
0.003
 10
-0.306701
 20
-1.824398
 40
0.003
 41
0.003
  0
LWPOLYLINE
  5
68
100
AcDbEntity
  8
0
 62
     9
100
AcDbPolyline
 90
        2
 70
     0
 39
0.003
 10
-0.306701
 20
-1.824398
 40
0.003
 41
0.003
 10
-0.307764
 20
-1.84615
 40
0.003
 41
0.003
  0
LWPOLYLINE
  5
69
100
AcDbEntity
  8
0
 62
     9
100
AcDbPolyline
 90
        2
 70
     0
 39
0.003
 10
-0.306701
 20
-1.824398
 40
0.003
 41
0.003
 10
0.349449
 20
-1.44087
 40
0.003
 41
0.003
  0
LWPOLYLINE
  5
6A
100
AcDbEntity
  8
0
 62
     9
100
AcDbPolyline
 90
        2
 70
     0
 39
0.003
 10
0.349449
 20
-1.44087
 40
0.003
 41
0.003
 10
0.350858
 20
-1.419016
 40
0.003
 41
0.003
  0
LWPOLYLINE
  5
6B
100
AcDbEntity
  8
0
 62
     9
100
AcDbPolyline
 90
        2
 70
     0
 39
0.003
 10
0.350858
 20
-1.419016
 40
0.003
 41
0.003
 10
-0.305291
 20
-1.802543
 40
0.003
 41
0.003
  0
LWPOLYLINE
  5
6C
100
AcDbEntity
  8
0
 62
     9
100
AcDbPolyline
 90
        2
 70
     0
 39
0.003
 10
-0.305291
 20
-1.802543
 40
0.003
 41
0.003
 10
-0.306701
 20
-1.824398
 40
0.003
 41
0.003
  0
LWPOLYLINE
  5
6D
100
AcDbEntity
  8
0
 62
     9
100
AcDbPolyline
 90
        2
 70
     0
 39
0.003
 10
-0.305291
 20
-1.802543
 40
0.003
 41
0.003
 10
0.350858
 20
-1.419016
 40
0.003
 41
0.003
  0
LWPOLYLINE
  5
6E
100
AcDbEntity
  8
0
 62
     9
100
AcDbPolyline
 90
        2
 70
     0
 39
0.003
 10
0.350858
 20
-1.419016
 40
0.003
 41
0.003
 10
0.352638
 20
-1.397138
 40
0.003
 41
0.003
  0
LWPOLYLINE
  5
6F
100
AcDbEntity
  8
0
 62
     9
100
AcDbPolyline
 90
        2
 70
     0
 39
0.003
 10
0.352638
 20
-1.397138
 40
0.003
 41
0.003
 10
-0.303512
 20
-1.780665
 40
0.003
 41
0.003
  0
LWPOLYLINE
  5
70
100
AcDbEntity
  8
0
 62
     9
100
AcDbPolyline
 90
        2
 70
     0
 39
0.003
 10
-0.303512
 20
-1.780665
 40
0.003
 41
0.003
 10
-0.305291
 20
-1.802543
 40
0.003
 41
0.003
  0
LWPOLYLINE
  5
71
100
AcDbEntity
  8
0
 62
     9
100
AcDbPolyline
 90
        2
 70
     0
 39
0.003
 10
-0.303512
 20
-1.780665
 40
0.003
 41
0.003
 10
0.352638
 20
-1.397138
 40
0.003
 41
0.003
  0
LWPOLYLINE
  5
72
100
AcDbEntity
  8
0
 62
     9
100
AcDbPolyline
 90
        2
 70
     0
 39
0.003
 10
0.352638
 20
-1.397138
 40
0.003
 41
0.003
 10
0.354854
 20
-1.375291
 40
0.003
 41
0.003
  0
LWPOLYLINE
  5
73
100
AcDbEntity
  8
0
 62
     9
100
AcDbPolyline
 90
        2
 70
     0
 39
0.003
 10
0.354854
 20
-1.375291
 40
0.003
 41
0.003
 10
-0.301295
 20
-1.758819
 40
0.003
 41
0.003
  0
LWPOLYLINE
  5
74
100
AcDbEntity
  8
0
 62
     9
100
AcDbPolyline
 90
        2
 70
     0
 39
0.003
 10
-0.301295
 20
-1.758819
 40
0.003
 41
0.003
 10
-0.303512
 20
-1.780665
 40
0.003
 41
0.003
  0
LWPOLYLINE
  5
75
100
AcDbEntity
  8
0
 62
   253
100
AcDbPolyline
 90
        2
 70
     0
 39
0.003
 10
-0.301295
 20
-1.758819
 40
0.003
 41
0.003
 10
0.354854
 20
-1.375291
 40
0.003
 41
0.003
  0
LWPOLYLINE
  5
76
100
AcDbEntity
  8
0
 62
   253
100
AcDbPolyline
 90
        2
 70
     0
 39
0.003
 10
0.354854
 20
-1.375291
 40
0.003
 41
0.003
 10
0.357535
 20
-1.353567
 40
0.003
 41
0.003
  0
LWPOLYLINE
  5
77
100
AcDbEntity
  8
0
 62
   253
100
AcDbPolyline
 90
        2
 70
     0
 39
0.003
 10
0.357535
 20
-1.353567
 40
0.003
 41
0.003
 10
-0.298614
 20
-1.737094
 40
0.003
 41
0.003
  0
LWPOLYLINE
  5
78
100
AcDbEntity
  8
0
 62
   253
100
AcDbPolyline
 90
        2
 70
     0
 39
0.003
 10
-0.298614
 20
-1.737094
 40
0.003
 41
0.003
 10
-0.301295
 20
-1.758819
 40
0.003
 41
0.003
  0
LWPOLYLINE
  5
79
100
AcDbEntity
  8
0
 62
   253
100
AcDbPolyline
 90
        2
 70
     0
 39
0.003
 10
-0.298614
 20
-1.737094
 40
0.003
 41
0.003
 10
0.357535
 20
-1.353567
 40
0.003
 41
0.003
  0
LWPOLYLINE
  5
7A
100
AcDbEntity
  8
0
 62
   253
100
AcDbPolyline
 90
        2
 70
     0
 39
0.003
 10
0.357535
 20
-1.353567
 40
0.003
 41
0.003
 10
0.360732
 20
-1.33202
 40
0.003
 41
0.003
  0
LWPOLYLINE
  5
7B
100
AcDbEntity
  8
0
 62
   253
100
AcDbPolyline
 90
        2
 70
     0
 39
0.003
 10
0.360732
 20
-1.33202
 40
0.003
 41
0.003
 10
-0.295417
 20
-1.715547
 40
0.003
 41
0.003
  0
LWPOLYLINE
  5
7C
100
AcDbEntity
  8
0
 62
   253
100
AcDbPolyline
 90
        2
 70
     0
 39
0.003
 10
-0.295417
 20
-1.715547
 40
0.003
 41
0.003
 10
-0.298614
 20
-1.737094
 40
0.003
 41
0.003
  0
LWPOLYLINE
  5
7D
100
AcDbEntity
  8
0
 62
   253
100
AcDbPolyline
 90
        2
 70
     0
 39
0.003
 10
-0.295417
 20
-1.715547
 40
0.003
 41
0.003
 10
0.360732
 20
-1.33202
 40
0.003
 41
0.003
  0
LWPOLYLINE
  5
7E
100
AcDbEntity
  8
0
 62
   253
100
AcDbPolyline
 90
        2
 70
     0
 39
0.003
 10
0.360732
 20
-1.33202
 40
0.003
 41
0.003
 10
0.364476
 20
-1.310728
 40
0.003
 41
0.003
  0
LWPOLYLINE
  5
7F
100
AcDbEntity
  8
0
 62
   253
100
AcDbPolyline
 90
        2
 70
     0
 39
0.003
 10
0.364476
 20
-1.310728
 40
0.003
 41
0.003
 10
-0.291673
 20
-1.694256
 40
0.003
 41
0.003
  0
LWPOLYLINE
  5
80
100
AcDbEntity
  8
0
 62
   253
100
AcDbPolyline
 90
        2
 70
     0
 39
0.003
 10
-0.291673
 20
-1.694256
 40
0.003
 41
0.003
 10
-0.295417
 20
-1.715547
 40
0.003
 41
0.003
  0
LWPOLYLINE
  5
81
100
AcDbEntity
  8
0
 62
   253
100
AcDbPolyline
 90
        2
 70
     0
 39
0.003
 10
-0.291673
 20
-1.694256
 40
0.003
 41
0.003
 10
0.364476
 20
-1.310728
 40
0.003
 41
0.003
  0
LWPOLYLINE
  5
82
100
AcDbEntity
  8
0
 62
   253
100
AcDbPolyline
 90
        2
 70
     0
 39
0.003
 10
0.364476
 20
-1.310728
 40
0.003
 41
0.003
 10
0.368835
 20
-1.289748
 40
0.003
 41
0.003
  0
LWPOLYLINE
  5
83
100
AcDbEntity
  8
0
 62
   253
100
AcDbPolyline
 90
        2
 70
     0
 39
0.003
 10
0.368835
 20
-1.289748
 40
0.003
 41
0.003
 10
-0.287315
 20
-1.673276
 40
0.003
 41
0.003
  0
LWPOLYLINE
  5
84
100
AcDbEntity
  8
0
 62
   253
100
AcDbPolyline
 90
        2
 70
     0
 39
0.003
 10
-0.287315
 20
-1.673276
 40
0.003
 41
0.003
 10
-0.291673
 20
-1.694256
 40
0.003
 41
0.003
  0
LWPOLYLINE
  5
85
100
AcDbEntity
  8
0
 62
   253
100
AcDbPolyline
 90
        2
 70
     0
 39
0.003
 10
-0.287315
 20
-1.673276
 40
0.003
 41
0.003
 10
0.368835
 20
-1.289748
 40
0.003
 41
0.003
  0
LWPOLYLINE
  5
86
100
AcDbEntity
  8
0
 62
   253
100
AcDbPolyline
 90
        2
 70
     0
 39
0.003
 10
0.368835
 20
-1.289748
 40
0.003
 41
0.003
 10
0.373827
 20
-1.269165
 40
0.003
 41
0.003
  0
LWPOLYLINE
  5
87
100
AcDbEntity
  8
0
 62
   253
100
AcDbPolyline
 90
        2
 70
     0
 39
0.003
 10
0.373827
 20
-1.269165
 40
0.003
 41
0.003
 10
-0.282323
 20
-1.652693
 40
0.003
 41
0.003
  0
LWPOLYLINE
  5
88
100
AcDbEntity
  8
0
 62
   253
100
AcDbPolyline
 90
        2
 70
     0
 39
0.003
 10
-0.282323
 20
-1.652693
 40
0.003
 41
0.003
 10
-0.287315
 20
-1.673276
 40
0.003
 41
0.003
  0
LWPOLYLINE
  5
89
100
AcDbEntity
  8
0
 62
   253
100
AcDbPolyline
 90
        2
 70
     0
 39
0.003
 10
-0.282323
 20
-1.652693
 40
0.003
 41
0.003
 10
0.373827
 20
-1.269165
 40
0.003
 41
0.003
  0
LWPOLYLINE
  5
8A
100
AcDbEntity
  8
0
 62
   253
100
AcDbPolyline
 90
        2
 70
     0
 39
0.003
 10
0.373827
 20
-1.269165
 40
0.003
 41
0.003
 10
0.379508
 20
-1.249039
 40
0.003
 41
0.003
  0
LWPOLYLINE
  5
8B
100
AcDbEntity
  8
0
 62
   253
100
AcDbPolyline
 90
        2
 70
     0
 39
0.003
 10
0.379508
 20
-1.249039
 40
0.003
 41
0.003
 10
-0.276642
 20
-1.632567
 40
0.003
 41
0.003
  0
LWPOLYLINE
  5
8C
100
AcDbEntity
  8
0
 62
   253
100
AcDbPolyline
 90
        2
 70
     0
 39
0.003
 10
-0.276642
 20
-1.632567
 40
0.003
 41
0.003
 10
-0.282323
 20
-1.652693
 40
0.003
 41
0.003
  0
LWPOLYLINE
  5
8D
100
AcDbEntity
  8
0
 62
   253
100
AcDbPolyline
 90
        2
 70
     0
 39
0.003
 10
-0.276642
 20
-1.632567
 40
0.003
 41
0.003
 10
0.379508
 20
-1.249039
 40
0.003
 41
0.003
  0
LWPOLYLINE
  5
8E
100
AcDbEntity
  8
0
 62
   253
100
AcDbPolyline
 90
        2
 70
     0
 39
0.003
 10
0.379508
 20
-1.249039
 40
0.003
 41
0.003
 10
0.385917
 20
-1.229453
 40
0.003
 41
0.003
  0
LWPOLYLINE
  5
8F
100
AcDbEntity
  8
0
 62
   253
100
AcDbPolyline
 90
        2
 70
     0
 39
0.003
 10
0.385917
 20
-1.229453
 40
0.003
 41
0.003
 10
-0.270232
 20
-1.61298
 40
0.003
 41
0.003
  0
LWPOLYLINE
  5
90
100
AcDbEntity
  8
0
 62
   253
100
AcDbPolyline
 90
        2
 70
     0
 39
0.003
 10
-0.270232
 20
-1.61298
 40
0.003
 41
0.003
 10
-0.276642
 20
-1.632567
 40
0.003
 41
0.003
  0
LWPOLYLINE
  5
91
100
AcDbEntity
  8
0
 62
   253
100
AcDbPolyline
 90
        2
 70
     0
 39
0.003
 10
-0.270232
 20
-1.61298
 40
0.003
 41
0.003
 10
0.385917
 20
-1.229453
 40
0.003
 41
0.003
  0
LWPOLYLINE
  5
92
100
AcDbEntity
  8
0
 62
   253
100
AcDbPolyline
 90
        2
 70
     0
 39
0.003
 10
0.385917
 20
-1.229453
 40
0.003
 41
0.003
 10
0.393106
 20
-1.210461
 40
0.003
 41
0.003
  0
LWPOLYLINE
  5
93
100
AcDbEntity
  8
0
 62
   253
100
AcDbPolyline
 90
        2
 70
     0
 39
0.003
 10
0.393106
 20
-1.210461
 40
0.003
 41
0.003
 10
-0.263043
 20
-1.593988
 40
0.003
 41
0.003
  0
LWPOLYLINE
  5
94
100
AcDbEntity
  8
0
 62
   253
100
AcDbPolyline
 90
        2
 70
     0
 39
0.003
 10
-0.263043
 20
-1.593988
 40
0.003
 41
0.003
 10
-0.270232
 20
-1.61298
 40
0.003
 41
0.003
  0
LWPOLYLINE
  5
95
100
AcDbEntity
  8
0
 62
   253
100
AcDbPolyline
 90
        2
 70
     0
 39
0.003
 10
-0.263043
 20
-1.593988
 40
0.003
 41
0.003
 10
0.393106
 20
-1.210461
 40
0.003
 41
0.003
  0
LWPOLYLINE
  5
96
100
AcDbEntity
  8
0
 62
   253
100
AcDbPolyline
 90
        2
 70
     0
 39
0.003
 10
0.393106
 20
-1.210461
 40
0.003
 41
0.003
 10
0.401106
 20
-1.192146
 40
0.003
 41
0.003
  0
LWPOLYLINE
  5
97
100
AcDbEntity
  8
0
 62
   253
100
AcDbPolyline
 90
        2
 70
     0
 39
0.003
 10
0.401106
 20
-1.192146
 40
0.003
 41
0.003
 10
-0.255043
 20
-1.575673
 40
0.003
 41
0.003
  0
LWPOLYLINE
  5
98
100
AcDbEntity
  8
0
 62
   253
100
AcDbPolyline
 90
        2
 70
     0
 39
0.003
 10
-0.255043
 20
-1.575673
 40
0.003
 41
0.003
 10
-0.263043
 20
-1.593988
 40
0.003
 41
0.003
  0
LWPOLYLINE
  5
99
100
AcDbEntity
  8
0
 62
   252
100
AcDbPolyline
 90
        2
 70
     0
 39
0.003
 10
-0.255043
 20
-1.575673
 40
0.003
 41
0.003
 10
0.401106
 20
-1.192146
 40
0.003
 41
0.003
  0
LWPOLYLINE
  5
9A
100
AcDbEntity
  8
0
 62
   252
100
AcDbPolyline
 90
        2
 70
     0
 39
0.003
 10
0.401106
 20
-1.192146
 40
0.003
 41
0.003
 10
0.409969
 20
-1.174571
 40
0.003
 41
0.003
  0
LWPOLYLINE
  5
9B
100
AcDbEntity
  8
0
 62
   252
100
AcDbPolyline
 90
        2
 70
     0
 39
0.003
 10
0.409969
 20
-1.174571
 40
0.003
 41
0.003
 10
-0.246181
 20
-1.558098
 40
0.003
 41
0.003
  0
LWPOLYLINE
  5
9C
100
AcDbEntity
  8
0
 62
   252
100
AcDbPolyline
 90
        2
 70
     0
 39
0.003
 10
-0.246181
 20
-1.558098
 40
0.003
 41
0.003
 10
-0.255043
 20
-1.575673
 40
0.003
 41
0.003
  0
LWPOLYLINE
  5
9D
100
AcDbEntity
  8
0
 62
     8
100
AcDbPolyline
 90
        2
 70
     0
 39
0.003
 10
-0.246181
 20
-1.558098
 40
0.003
 41
0.003
 10
0.409969
 20
-1.174571
 40
0.003
 41
0.003
  0
LWPOLYLINE
  5
9E
100
AcDbEntity
  8
0
 62
     8
100
AcDbPolyline
 90
        2
 70
     0
 39
0.003
 10
0.409969
 20
-1.174571
 40
0.003
 41
0.003
 10
0.419724
 20
-1.157811
 40
0.003
 41
0.003
  0
LWPOLYLINE
  5
9F
100
AcDbEntity
  8
0
 62
     8
100
AcDbPolyline
 90
        2
 70
     0
 39
0.003
 10
0.419724
 20
-1.157811
 40
0.003
 41
0.003
 10
-0.236425
 20
-1.541339
 40
0.003
 41
0.003
  0
LWPOLYLINE
  5
A0
100
AcDbEntity
  8
0
 62
     8
100
AcDbPolyline
 90
        2
 70
     0
 39
0.003
 10
-0.236425
 20
-1.541339
 40
0.003
 41
0.003
 10
-0.246181
 20
-1.558098
 40
0.003
 41
0.003
  0
LWPOLYLINE
  5
A1
100
AcDbEntity
  8
0
 62
     8
100
AcDbPolyline
 90
        2
 70
     0
 39
0.003
 10
-0.236425
 20
-1.541339
 40
0.003
 41
0.003
 10
0.419724
 20
-1.157811
 40
0.003
 41
0.003
  0
LWPOLYLINE
  5
A2
100
AcDbEntity
  8
0
 62
     8
100
AcDbPolyline
 90
        2
 70
     0
 39
0.003
 10
0.419724
 20
-1.157811
 40
0.003
 41
0.003
 10
0.430437
 20
-1.141925
 40
0.003
 41
0.003
  0
LWPOLYLINE
  5
A3
100
AcDbEntity
  8
0
 62
     8
100
AcDbPolyline
 90
        2
 70
     0
 39
0.003
 10
0.430437
 20
-1.141925
 40
0.003
 41
0.003
 10
-0.225713
 20
-1.525453
 40
0.003
 41
0.003
  0
LWPOLYLINE
  5
A4
100
AcDbEntity
  8
0
 62
     8
100
AcDbPolyline
 90
        2
 70
     0
 39
0.003
 10
-0.225713
 20
-1.525453
 40
0.003
 41
0.003
 10
-0.236425
 20
-1.541339
 40
0.003
 41
0.003
  0
LWPOLYLINE
  5
A5
100
AcDbEntity
  8
0
 62
   127
100
AcDbPolyline
 90
        2
 70
     0
 39
0.003
 10
-0.225713
 20
-1.525453
 40
0.003
 41
0.003
 10
0.430437
 20
-1.141925
 40
0.003
 41
0.003
  0
LWPOLYLINE
  5
A6
100
AcDbEntity
  8
0
 62
   127
100
AcDbPolyline
 90
        2
 70
     0
 39
0.003
 10
0.430437
 20
-1.141925
 40
0.003
 41
0.003
 10
0.442138
 20
-1.126996
 40
0.003
 41
0.003
  0
LWPOLYLINE
  5
A7
100
AcDbEntity
  8
0
 62
   127
100
AcDbPolyline
 90
        2
 70
     0
 39
0.003
 10
0.442138
 20
-1.126996
 40
0.003
 41
0.003
 10
-0.214012
 20
-1.510524
 40
0.003
 41
0.003
  0
LWPOLYLINE
  5
A8
100
AcDbEntity
  8
0
 62
   127
100
AcDbPolyline
 90
        2
 70
     0
 39
0.003
 10
-0.214012
 20
-1.510524
 40
0.003
 41
0.003
 10
-0.225713
 20
-1.525453
 40
0.003
 41
0.003
  0
LWPOLYLINE
  5
A9
100
AcDbEntity
  8
0
 62
   251
100
AcDbPolyline
 90
        2
 70
     0
 39
0.003
 10
-0.214012
 20
-1.510524
 40
0.003
 41
0.003
 10
0.442138
 20
-1.126996
 40
0.003
 41
0.003
  0
LWPOLYLINE
  5
AA
100
AcDbEntity
  8
0
 62
   251
100
AcDbPolyline
 90
        2
 70
     0
 39
0.003
 10
0.442138
 20
-1.126996
 40
0.003
 41
0.003
 10
0.45487
 20
-1.113087
 40
0.003
 41
0.003
  0
LWPOLYLINE
  5
AB
100
AcDbEntity
  8
0
 62
   251
100
AcDbPolyline
 90
        2
 70
     0
 39
0.003
 10
0.45487
 20
-1.113087
 40
0.003
 41
0.003
 10
-0.20128
 20
-1.496614
 40
0.003
 41
0.003
  0
LWPOLYLINE
  5
AC
100
AcDbEntity
  8
0
 62
   251
100
AcDbPolyline
 90
        2
 70
     0
 39
0.003
 10
-0.20128
 20
-1.496614
 40
0.003
 41
0.003
 10
-0.214012
 20
-1.510524
 40
0.003
 41
0.003
  0
LWPOLYLINE
  5
AD
100
AcDbEntity
  8
0
 62
   251
100
AcDbPolyline
 90
        2
 70
     0
 39
0.003
 10
-0.20128
 20
-1.496614
 40
0.003
 41
0.003
 10
0.45487
 20
-1.113087
 40
0.003
 41
0.003
  0
LWPOLYLINE
  5
AE
100
AcDbEntity
  8
0
 62
   251
100
AcDbPolyline
 90
        2
 70
     0
 39
0.003
 10
0.45487
 20
-1.113087
 40
0.003
 41
0.003
 10
0.468677
 20
-1.100272
 40
0.003
 41
0.003
  0
LWPOLYLINE
  5
AF
100
AcDbEntity
  8
0
 62
   251
100
AcDbPolyline
 90
        2
 70
     0
 39
0.003
 10
0.468677
 20
-1.100272
 40
0.003
 41
0.003
 10
-0.187472
 20
-1.483799
 40
0.003
 41
0.003
  0
LWPOLYLINE
  5
B0
100
AcDbEntity
  8
0
 62
   251
100
AcDbPolyline
 90
        2
 70
     0
 39
0.003
 10
-0.187472
 20
-1.483799
 40
0.003
 41
0.003
 10
-0.20128
 20
-1.496614
 40
0.003
 41
0.003
  0
LWPOLYLINE
  5
B1
100
AcDbEntity
  8
0
 62
   127
100
AcDbPolyline
 90
        2
 70
     0
 39
0.003
 10
-0.187472
 20
-1.483799
 40
0.003
 41
0.003
 10
0.468677
 20
-1.100272
 40
0.003
 41
0.003
  0
LWPOLYLINE
  5
B2
100
AcDbEntity
  8
0
 62
   127
100
AcDbPolyline
 90
        2
 70
     0
 39
0.003
 10
0.468677
 20
-1.100272
 40
0.003
 41
0.003
 10
0.48361
 20
-1.088614
 40
0.003
 41
0.003
  0
LWPOLYLINE
  5
B3
100
AcDbEntity
  8
0
 62
   127
100
AcDbPolyline
 90
        2
 70
     0
 39
0.003
 10
0.48361
 20
-1.088614
 40
0.003
 41
0.003
 10
-0.172539
 20
-1.472142
 40
0.003
 41
0.003
  0
LWPOLYLINE
  5
B4
100
AcDbEntity
  8
0
 62
   127
100
AcDbPolyline
 90
        2
 70
     0
 39
0.003
 10
-0.172539
 20
-1.472142
 40
0.003
 41
0.003
 10
-0.187472
 20
-1.483799
 40
0.003
 41
0.003
  0
LWPOLYLINE
  5
B5
100
AcDbEntity
  8
0
 62
     8
100
AcDbPolyline
 90
        2
 70
     0
 39
0.003
 10
-0.172539
 20
-1.472142
 40
0.003
 41
0.003
 10
0.48361
 20
-1.088614
 40
0.003
 41
0.003
  0
LWPOLYLINE
  5
B6
100
AcDbEntity
  8
0
 62
     8
100
AcDbPolyline
 90
        2
 70
     0
 39
0.003
 10
0.48361
 20
-1.088614
 40
0.003
 41
0.003
 10
0.499701
 20
-1.078193
 40
0.003
 41
0.003
  0
LWPOLYLINE
  5
B7
100
AcDbEntity
  8
0
 62
     8
100
AcDbPolyline
 90
        2
 70
     0
 39
0.003
 10
0.499701
 20
-1.078193
 40
0.003
 41
0.003
 10
-0.156449
 20
-1.46172
 40
0.003
 41
0.003
  0
LWPOLYLINE
  5
B8
100
AcDbEntity
  8
0
 62
     8
100
AcDbPolyline
 90
        2
 70
     0
 39
0.003
 10
-0.156449
 20
-1.46172
 40
0.003
 41
0.003
 10
-0.172539
 20
-1.472142
 40
0.003
 41
0.003
  0
LWPOLYLINE
  5
B9
100
AcDbEntity
  8
0
 62
     0
100
AcDbPolyline
 90
        2
 70
     0
 39
0.003
 10
-0.309228
 20
-2.025925
 40
0.003
 41
0.003
 10
0.346921
 20
-1.642398
 40
0.003
 41
0.003
  0
LWPOLYLINE
  5
BA
100
AcDbEntity
  8
0
 62
     0
100
AcDbPolyline
 90
        2
 70
     0
 39
0.003
 10
0.346921
 20
-1.642398
 40
0.003
 41
0.003
 10
0.346886
 20
-1.624681
 40
0.003
 41
0.003
  0
LWPOLYLINE
  5
BB
100
AcDbEntity
  8
0
 62
     0
100
AcDbPolyline
 90
        2
 70
     0
 39
0.003
 10
0.346886
 20
-1.624681
 40
0.003
 41
0.003
 10
0.346795
 20
-1.606244
 40
0.003
 41
0.003
  0
LWPOLYLINE
  5
BC
100
AcDbEntity
  8
0
 62
     0
100
AcDbPolyline
 90
        2
 70
     0
 39
0.003
 10
0.346795
 20
-1.606244
 40
0.003
 41
0.003
 10
0.346701
 20
-1.587146
 40
0.003
 41
0.003
  0
LWPOLYLINE
  5
BD
100
AcDbEntity
  8
0
 62
     0
100
AcDbPolyline
 90
        2
 70
     0
 39
0.003
 10
0.346701
 20
-1.587146
 40
0.003
 41
0.003
 10
0.346634
 20
-1.567457
 40
0.003
 41
0.003
  0
LWPOLYLINE
  5
BE
100
AcDbEntity
  8
0
 62
     0
100
AcDbPolyline
 90
        2
 70
     0
 39
0.003
 10
0.346634
 20
-1.567457
 40
0.003
 41
0.003
 10
0.346657
 20
-1.547248
 40
0.003
 41
0.003
  0
LWPOLYLINE
  5
BF
100
AcDbEntity
  8
0
 62
     0
100
AcDbPolyline
 90
        2
 70
     0
 39
0.003
 10
0.346657
 20
-1.547248
 40
0.003
 41
0.003
 10
0.346795
 20
-1.526591
 40
0.003
 41
0.003
  0
LWPOLYLINE
  5
C0
100
AcDbEntity
  8
0
 62
     0
100
AcDbPolyline
 90
        2
 70
     0
 39
0.003
 10
0.346795
 20
-1.526591
 40
0.003
 41
0.003
 10
0.347098
 20
-1.505555
 40
0.003
 41
0.003
  0
LWPOLYLINE
  5
C1
100
AcDbEntity
  8
0
 62
     0
100
AcDbPolyline
 90
        2
 70
     0
 39
0.003
 10
0.347098
 20
-1.505555
 40
0.003
 41
0.003
 10
0.34761
 20
-1.484213
 40
0.003
 41
0.003
  0
LWPOLYLINE
  5
C2
100
AcDbEntity
  8
0
 62
     0
100
AcDbPolyline
 90
        2
 70
     0
 39
0.003
 10
0.34761
 20
-1.484213
 40
0.003
 41
0.003
 10
0.348386
 20
-1.462622
 40
0.003
 41
0.003
  0
LWPOLYLINE
  5
C3
100
AcDbEntity
  8
0
 62
     0
100
AcDbPolyline
 90
        2
 70
     0
 39
0.003
 10
0.348386
 20
-1.462622
 40
0.003
 41
0.003
 10
0.349449
 20
-1.44087
 40
0.003
 41
0.003
  0
LWPOLYLINE
  5
C4
100
AcDbEntity
  8
0
 62
     0
100
AcDbPolyline
 90
        2
 70
     0
 39
0.003
 10
0.349449
 20
-1.44087
 40
0.003
 41
0.003
 10
0.350858
 20
-1.419016
 40
0.003
 41
0.003
  0
LWPOLYLINE
  5
C5
100
AcDbEntity
  8
0
 62
     0
100
AcDbPolyline
 90
        2
 70
     0
 39
0.003
 10
0.350858
 20
-1.419016
 40
0.003
 41
0.003
 10
0.352638
 20
-1.397138
 40
0.003
 41
0.003
  0
LWPOLYLINE
  5
C6
100
AcDbEntity
  8
0
 62
     0
100
AcDbPolyline
 90
        2
 70
     0
 39
0.003
 10
0.352638
 20
-1.397138
 40
0.003
 41
0.003
 10
0.354854
 20
-1.375291
 40
0.003
 41
0.003
  0
LWPOLYLINE
  5
C7
100
AcDbEntity
  8
0
 62
     0
100
AcDbPolyline
 90
        2
 70
     0
 39
0.003
 10
0.354854
 20
-1.375291
 40
0.003
 41
0.003
 10
0.357535
 20
-1.353567
 40
0.003
 41
0.003
  0
LWPOLYLINE
  5
C8
100
AcDbEntity
  8
0
 62
     0
100
AcDbPolyline
 90
        2
 70
     0
 39
0.003
 10
0.357535
 20
-1.353567
 40
0.003
 41
0.003
 10
0.360732
 20
-1.33202
 40
0.003
 41
0.003
  0
LWPOLYLINE
  5
C9
100
AcDbEntity
  8
0
 62
     0
100
AcDbPolyline
 90
        2
 70
     0
 39
0.003
 10
0.360732
 20
-1.33202
 40
0.003
 41
0.003
 10
0.364476
 20
-1.310728
 40
0.003
 41
0.003
  0
LWPOLYLINE
  5
CA
100
AcDbEntity
  8
0
 62
     0
100
AcDbPolyline
 90
        2
 70
     0
 39
0.003
 10
0.364476
 20
-1.310728
 40
0.003
 41
0.003
 10
0.368835
 20
-1.289748
 40
0.003
 41
0.003
  0
LWPOLYLINE
  5
CB
100
AcDbEntity
  8
0
 62
     0
100
AcDbPolyline
 90
        2
 70
     0
 39
0.003
 10
0.368835
 20
-1.289748
 40
0.003
 41
0.003
 10
0.373827
 20
-1.269165
 40
0.003
 41
0.003
  0
LWPOLYLINE
  5
CC
100
AcDbEntity
  8
0
 62
     0
100
AcDbPolyline
 90
        2
 70
     0
 39
0.003
 10
0.373827
 20
-1.269165
 40
0.003
 41
0.003
 10
0.379508
 20
-1.249039
 40
0.003
 41
0.003
  0
LWPOLYLINE
  5
CD
100
AcDbEntity
  8
0
 62
     0
100
AcDbPolyline
 90
        2
 70
     0
 39
0.003
 10
0.379508
 20
-1.249039
 40
0.003
 41
0.003
 10
0.385917
 20
-1.229453
 40
0.003
 41
0.003
  0
LWPOLYLINE
  5
CE
100
AcDbEntity
  8
0
 62
     0
100
AcDbPolyline
 90
        2
 70
     0
 39
0.003
 10
0.385917
 20
-1.229453
 40
0.003
 41
0.003
 10
0.393106
 20
-1.210461
 40
0.003
 41
0.003
  0
LWPOLYLINE
  5
CF
100
AcDbEntity
  8
0
 62
     0
100
AcDbPolyline
 90
        2
 70
     0
 39
0.003
 10
0.393106
 20
-1.210461
 40
0.003
 41
0.003
 10
0.401106
 20
-1.192146
 40
0.003
 41
0.003
  0
LWPOLYLINE
  5
D0
100
AcDbEntity
  8
0
 62
     0
100
AcDbPolyline
 90
        2
 70
     0
 39
0.003
 10
0.401106
 20
-1.192146
 40
0.003
 41
0.003
 10
0.409969
 20
-1.174571
 40
0.003
 41
0.003
  0
LWPOLYLINE
  5
D1
100
AcDbEntity
  8
0
 62
     0
100
AcDbPolyline
 90
        2
 70
     0
 39
0.003
 10
0.409969
 20
-1.174571
 40
0.003
 41
0.003
 10
0.419724
 20
-1.157811
 40
0.003
 41
0.003
  0
LWPOLYLINE
  5
D2
100
AcDbEntity
  8
0
 62
     0
100
AcDbPolyline
 90
        2
 70
     0
 39
0.003
 10
0.419724
 20
-1.157811
 40
0.003
 41
0.003
 10
0.430437
 20
-1.141925
 40
0.003
 41
0.003
  0
LWPOLYLINE
  5
D3
100
AcDbEntity
  8
0
 62
     0
100
AcDbPolyline
 90
        2
 70
     0
 39
0.003
 10
0.430437
 20
-1.141925
 40
0.003
 41
0.003
 10
0.442138
 20
-1.126996
 40
0.003
 41
0.003
  0
LWPOLYLINE
  5
D4
100
AcDbEntity
  8
0
 62
     0
100
AcDbPolyline
 90
        2
 70
     0
 39
0.003
 10
0.442138
 20
-1.126996
 40
0.003
 41
0.003
 10
0.45487
 20
-1.113087
 40
0.003
 41
0.003
  0
LWPOLYLINE
  5
D5
100
AcDbEntity
  8
0
 62
     0
100
AcDbPolyline
 90
        2
 70
     0
 39
0.003
 10
0.45487
 20
-1.113087
 40
0.003
 41
0.003
 10
0.468677
 20
-1.100272
 40
0.003
 41
0.003
  0
LWPOLYLINE
  5
D6
100
AcDbEntity
  8
0
 62
     0
100
AcDbPolyline
 90
        2
 70
     0
 39
0.003
 10
0.468677
 20
-1.100272
 40
0.003
 41
0.003
 10
0.48361
 20
-1.088614
 40
0.003
 41
0.003
  0
LWPOLYLINE
  5
D7
100
AcDbEntity
  8
0
 62
     0
100
AcDbPolyline
 90
        2
 70
     0
 39
0.003
 10
0.48361
 20
-1.088614
 40
0.003
 41
0.003
 10
0.499701
 20
-1.078193
 40
0.003
 41
0.003
  0
LWPOLYLINE
  5
D8
100
AcDbEntity
  8
0
 62
     0
100
AcDbPolyline
 90
        2
 70
     0
 39
0.003
 10
0.499701
 20
-1.078193
 40
0.003
 41
0.003
 10
-0.156449
 20
-1.46172
 40
0.003
 41
0.003
  0
LWPOLYLINE
  5
D9
100
AcDbEntity
  8
0
 62
     0
100
AcDbPolyline
 90
        2
 70
     0
 39
0.003
 10
-0.156449
 20
-1.46172
 40
0.003
 41
0.003
 10
-0.172539
 20
-1.472142
 40
0.003
 41
0.003
  0
LWPOLYLINE
  5
DA
100
AcDbEntity
  8
0
 62
     0
100
AcDbPolyline
 90
        2
 70
     0
 39
0.003
 10
-0.172539
 20
-1.472142
 40
0.003
 41
0.003
 10
-0.187472
 20
-1.483799
 40
0.003
 41
0.003
  0
LWPOLYLINE
  5
DB
100
AcDbEntity
  8
0
 62
     0
100
AcDbPolyline
 90
        2
 70
     0
 39
0.003
 10
-0.187472
 20
-1.483799
 40
0.003
 41
0.003
 10
-0.20128
 20
-1.496614
 40
0.003
 41
0.003
  0
LWPOLYLINE
  5
DC
100
AcDbEntity
  8
0
 62
     0
100
AcDbPolyline
 90
        2
 70
     0
 39
0.003
 10
-0.20128
 20
-1.496614
 40
0.003
 41
0.003
 10
-0.214012
 20
-1.510524
 40
0.003
 41
0.003
  0
LWPOLYLINE
  5
DD
100
AcDbEntity
  8
0
 62
     0
100
AcDbPolyline
 90
        2
 70
     0
 39
0.003
 10
-0.214012
 20
-1.510524
 40
0.003
 41
0.003
 10
-0.225713
 20
-1.525453
 40
0.003
 41
0.003
  0
LWPOLYLINE
  5
DE
100
AcDbEntity
  8
0
 62
     0
100
AcDbPolyline
 90
        2
 70
     0
 39
0.003
 10
-0.225713
 20
-1.525453
 40
0.003
 41
0.003
 10
-0.236425
 20
-1.541339
 40
0.003
 41
0.003
  0
LWPOLYLINE
  5
DF
100
AcDbEntity
  8
0
 62
     0
100
AcDbPolyline
 90
        2
 70
     0
 39
0.003
 10
-0.236425
 20
-1.541339
 40
0.003
 41
0.003
 10
-0.246181
 20
-1.558098
 40
0.003
 41
0.003
  0
LWPOLYLINE
  5
E0
100
AcDbEntity
  8
0
 62
     0
100
AcDbPolyline
 90
        2
 70
     0
 39
0.003
 10
-0.246181
 20
-1.558098
 40
0.003
 41
0.003
 10
-0.255043
 20
-1.575673
 40
0.003
 41
0.003
  0
LWPOLYLINE
  5
E1
100
AcDbEntity
  8
0
 62
     0
100
AcDbPolyline
 90
        2
 70
     0
 39
0.003
 10
-0.255043
 20
-1.575673
 40
0.003
 41
0.003
 10
-0.263043
 20
-1.593988
 40
0.003
 41
0.003
  0
LWPOLYLINE
  5
E2
100
AcDbEntity
  8
0
 62
     0
100
AcDbPolyline
 90
        2
 70
     0
 39
0.003
 10
-0.263043
 20
-1.593988
 40
0.003
 41
0.003
 10
-0.270232
 20
-1.61298
 40
0.003
 41
0.003
  0
LWPOLYLINE
  5
E3
100
AcDbEntity
  8
0
 62
     0
100
AcDbPolyline
 90
        2
 70
     0
 39
0.003
 10
-0.270232
 20
-1.61298
 40
0.003
 41
0.003
 10
-0.276642
 20
-1.632567
 40
0.003
 41
0.003
  0
LWPOLYLINE
  5
E4
100
AcDbEntity
  8
0
 62
     0
100
AcDbPolyline
 90
        2
 70
     0
 39
0.003
 10
-0.276642
 20
-1.632567
 40
0.003
 41
0.003
 10
-0.282323
 20
-1.652693
 40
0.003
 41
0.003
  0
LWPOLYLINE
  5
E5
100
AcDbEntity
  8
0
 62
     0
100
AcDbPolyline
 90
        2
 70
     0
 39
0.003
 10
-0.282323
 20
-1.652693
 40
0.003
 41
0.003
 10
-0.287315
 20
-1.673276
 40
0.003
 41
0.003
  0
LWPOLYLINE
  5
E6
100
AcDbEntity
  8
0
 62
     0
100
AcDbPolyline
 90
        2
 70
     0
 39
0.003
 10
-0.287315
 20
-1.673276
 40
0.003
 41
0.003
 10
-0.291673
 20
-1.694256
 40
0.003
 41
0.003
  0
LWPOLYLINE
  5
E7
100
AcDbEntity
  8
0
 62
     0
100
AcDbPolyline
 90
        2
 70
     0
 39
0.003
 10
-0.291673
 20
-1.694256
 40
0.003
 41
0.003
 10
-0.295417
 20
-1.715547
 40
0.003
 41
0.003
  0
LWPOLYLINE
  5
E8
100
AcDbEntity
  8
0
 62
     0
100
AcDbPolyline
 90
        2
 70
     0
 39
0.003
 10
-0.295417
 20
-1.715547
 40
0.003
 41
0.003
 10
-0.298614
 20
-1.737094
 40
0.003
 41
0.003
  0
LWPOLYLINE
  5
E9
100
AcDbEntity
  8
0
 62
     0
100
AcDbPolyline
 90
        2
 70
     0
 39
0.003
 10
-0.298614
 20
-1.737094
 40
0.003
 41
0.003
 10
-0.301295
 20
-1.758819
 40
0.003
 41
0.003
  0
LWPOLYLINE
  5
EA
100
AcDbEntity
  8
0
 62
     0
100
AcDbPolyline
 90
        2
 70
     0
 39
0.003
 10
-0.301295
 20
-1.758819
 40
0.003
 41
0.003
 10
-0.303512
 20
-1.780665
 40
0.003
 41
0.003
  0
LWPOLYLINE
  5
EB
100
AcDbEntity
  8
0
 62
     0
100
AcDbPolyline
 90
        2
 70
     0
 39
0.003
 10
-0.303512
 20
-1.780665
 40
0.003
 41
0.003
 10
-0.305291
 20
-1.802543
 40
0.003
 41
0.003
  0
LWPOLYLINE
  5
EC
100
AcDbEntity
  8
0
 62
     0
100
AcDbPolyline
 90
        2
 70
     0
 39
0.003
 10
-0.305291
 20
-1.802543
 40
0.003
 41
0.003
 10
-0.306701
 20
-1.824398
 40
0.003
 41
0.003
  0
LWPOLYLINE
  5
ED
100
AcDbEntity
  8
0
 62
     0
100
AcDbPolyline
 90
        2
 70
     0
 39
0.003
 10
-0.306701
 20
-1.824398
 40
0.003
 41
0.003
 10
-0.307764
 20
-1.84615
 40
0.003
 41
0.003
  0
LWPOLYLINE
  5
EE
100
AcDbEntity
  8
0
 62
     0
100
AcDbPolyline
 90
        2
 70
     0
 39
0.003
 10
-0.307764
 20
-1.84615
 40
0.003
 41
0.003
 10
-0.308539
 20
-1.86774
 40
0.003
 41
0.003
  0
LWPOLYLINE
  5
EF
100
AcDbEntity
  8
0
 62
     0
100
AcDbPolyline
 90
        2
 70
     0
 39
0.003
 10
-0.308539
 20
-1.86774
 40
0.003
 41
0.003
 10
-0.309051
 20
-1.889083
 40
0.003
 41
0.003
  0
LWPOLYLINE
  5
F0
100
AcDbEntity
  8
0
 62
     0
100
AcDbPolyline
 90
        2
 70
     0
 39
0.003
 10
-0.309051
 20
-1.889083
 40
0.003
 41
0.003
 10
-0.309354
 20
-1.910118
 40
0.003
 41
0.003
  0
LWPOLYLINE
  5
F1
100
AcDbEntity
  8
0
 62
     0
100
AcDbPolyline
 90
        2
 70
     0
 39
0.003
 10
-0.309354
 20
-1.910118
 40
0.003
 41
0.003
 10
-0.309492
 20
-1.930776
 40
0.003
 41
0.003
  0
LWPOLYLINE
  5
F2
100
AcDbEntity
  8
0
 62
     0
100
AcDbPolyline
 90
        2
 70
     0
 39
0.003
 10
-0.309492
 20
-1.930776
 40
0.003
 41
0.003
 10
-0.309516
 20
-1.950984
 40
0.003
 41
0.003
  0
LWPOLYLINE
  5
F3
100
AcDbEntity
  8
0
 62
     0
100
AcDbPolyline
 90
        2
 70
     0
 39
0.003
 10
-0.309516
 20
-1.950984
 40
0.003
 41
0.003
 10
-0.309449
 20
-1.970673
 40
0.003
 41
0.003
  0
LWPOLYLINE
  5
F4
100
AcDbEntity
  8
0
 62
     0
100
AcDbPolyline
 90
        2
 70
     0
 39
0.003
 10
-0.309449
 20
-1.970673
 40
0.003
 41
0.003
 10
-0.309354
 20
-1.989772
 40
0.003
 41
0.003
  0
LWPOLYLINE
  5
F5
100
AcDbEntity
  8
0
 62
     0
100
AcDbPolyline
 90
        2
 70
     0
 39
0.003
 10
-0.309354
 20
-1.989772
 40
0.003
 41
0.003
 10
-0.309264
 20
-2.008209
 40
0.003
 41
0.003
  0
LWPOLYLINE
  5
F6
100
AcDbEntity
  8
0
 62
     0
100
AcDbPolyline
 90
        2
 70
     0
 39
0.003
 10
-0.309264
 20
-2.008209
 40
0.003
 41
0.003
 10
-0.309228
 20
-2.025925
 40
0.003
 41
0.003
  0
LWPOLYLINE
  5
F7
100
AcDbEntity
  8
0
 62
     9
100
AcDbPolyline
 90
        2
 70
     0
 39
0.003
 10
-0.120606
 20
-1.444858
 40
0.003
 41
0.003
 10
0.535543
 20
-1.061331
 40
0.003
 41
0.003
  0
LWPOLYLINE
  5
F8
100
AcDbEntity
  8
0
 62
     9
100
AcDbPolyline
 90
        2
 70
     0
 39
0.003
 10
0.535543
 20
-1.061331
 40
0.003
 41
0.003
 10
0.535543
 20
-0.936445
 40
0.003
 41
0.003
  0
LWPOLYLINE
  5
F9
100
AcDbEntity
  8
0
 62
     9
100
AcDbPolyline
 90
        2
 70
     0
 39
0.003
 10
0.535543
 20
-0.936445
 40
0.003
 41
0.003
 10
-0.120606
 20
-1.319972
 40
0.003
 41
0.003
  0
LWPOLYLINE
  5
FA
100
AcDbEntity
  8
0
 62
     9
100
AcDbPolyline
 90
        2
 70
     0
 39
0.003
 10
-0.120606
 20
-1.319972
 40
0.003
 41
0.003
 10
-0.120606
 20
-1.444858
 40
0.003
 41
0.003
  0
LWPOLYLINE
  5
FB
100
AcDbEntity
  8
0
 62
     0
100
AcDbPolyline
 90
        2
 70
     0
 39
0.003
 10
-0.120606
 20
-1.444858
 40
0.003
 41
0.003
 10
0.535543
 20
-1.061331
 40
0.003
 41
0.003
  0
LWPOLYLINE
  5
FC
100
AcDbEntity
  8
0
 62
     0
100
AcDbPolyline
 90
        2
 70
     0
 39
0.003
 10
0.535543
 20
-1.061331
 40
0.003
 41
0.003
 10
0.535543
 20
-0.936445
 40
0.003
 41
0.003
  0
LWPOLYLINE
  5
FD
100
AcDbEntity
  8
0
 62
     0
100
AcDbPolyline
 90
        2
 70
     0
 39
0.003
 10
0.535543
 20
-0.936445
 40
0.003
 41
0.003
 10
-0.120606
 20
-1.319972
 40
0.003
 41
0.003
  0
LWPOLYLINE
  5
FE
100
AcDbEntity
  8
0
 62
     0
100
AcDbPolyline
 90
        2
 70
     0
 39
0.003
 10
-0.120606
 20
-1.319972
 40
0.003
 41
0.003
 10
-0.120606
 20
-1.444858
 40
0.003
 41
0.003
  0
LWPOLYLINE
  5
FF
100
AcDbEntity
  8
0
 62
   127
100
AcDbPolyline
 90
        2
 70
     0
 39
0.003
 10
-0.101681
 20
-1.310622
 40
0.003
 41
0.003
 10
0.554469
 20
-0.927094
 40
0.003
 41
0.003
  0
LWPOLYLINE
  5
100
100
AcDbEntity
  8
0
 62
   127
100
AcDbPolyline
 90
        2
 70
     0
 39
0.003
 10
0.554469
 20
-0.927094
 40
0.003
 41
0.003
 10
0.563654
 20
-0.920803
 40
0.003
 41
0.003
  0
LWPOLYLINE
  5
101
100
AcDbEntity
  8
0
 62
   127
100
AcDbPolyline
 90
        2
 70
     0
 39
0.003
 10
0.563654
 20
-0.920803
 40
0.003
 41
0.003
 10
-0.092496
 20
-1.304331
 40
0.003
 41
0.003
  0
LWPOLYLINE
  5
102
100
AcDbEntity
  8
0
 62
   127
100
AcDbPolyline
 90
        2
 70
     0
 39
0.003
 10
-0.092496
 20
-1.304331
 40
0.003
 41
0.003
 10
-0.101681
 20
-1.310622
 40
0.003
 41
0.003
  0
LWPOLYLINE
  5
103
100
AcDbEntity
  8
0
 62
   251
100
AcDbPolyline
 90
        2
 70
     0
 39
0.003
 10
-0.092496
 20
-1.304331
 40
0.003
 41
0.003
 10
0.563654
 20
-0.920803
 40
0.003
 41
0.003
  0
LWPOLYLINE
  5
104
100
AcDbEntity
  8
0
 62
   251
100
AcDbPolyline
 90
        2
 70
     0
 39
0.003
 10
0.563654
 20
-0.920803
 40
0.003
 41
0.003
 10
0.572583
 20
-0.913551
 40
0.003
 41
0.003
  0
LWPOLYLINE
  5
105
100
AcDbEntity
  8
0
 62
   251
100
AcDbPolyline
 90
        2
 70
     0
 39
0.003
 10
0.572583
 20
-0.913551
 40
0.003
 41
0.003
 10
-0.083567
 20
-1.297079
 40
0.003
 41
0.003
  0
LWPOLYLINE
  5
106
100
AcDbEntity
  8
0
 62
   251
100
AcDbPolyline
 90
        2
 70
     0
 39
0.003
 10
-0.083567
 20
-1.297079
 40
0.003
 41
0.003
 10
-0.092496
 20
-1.304331
 40
0.003
 41
0.003
  0
LWPOLYLINE
  5
107
100
AcDbEntity
  8
0
 62
   251
100
AcDbPolyline
 90
        2
 70
     0
 39
0.003
 10
-0.083567
 20
-1.297079
 40
0.003
 41
0.003
 10
0.572583
 20
-0.913551
 40
0.003
 41
0.003
  0
LWPOLYLINE
  5
108
100
AcDbEntity
  8
0
 62
   251
100
AcDbPolyline
 90
        2
 70
     0
 39
0.003
 10
0.572583
 20
-0.913551
 40
0.003
 41
0.003
 10
0.581224
 20
-0.905394
 40
0.003
 41
0.003
  0
LWPOLYLINE
  5
109
100
AcDbEntity
  8
0
 62
   251
100
AcDbPolyline
 90
        2
 70
     0
 39
0.003
 10
0.581224
 20
-0.905394
 40
0.003
 41
0.003
 10
-0.074925
 20
-1.288921
 40
0.003
 41
0.003
  0
LWPOLYLINE
  5
10A
100
AcDbEntity
  8
0
 62
   251
100
AcDbPolyline
 90
        2
 70
     0
 39
0.003
 10
-0.074925
 20
-1.288921
 40
0.003
 41
0.003
 10
-0.083567
 20
-1.297079
 40
0.003
 41
0.003
  0
LWPOLYLINE
  5
10B
100
AcDbEntity
  8
0
 62
   251
100
AcDbPolyline
 90
        2
 70
     0
 39
0.003
 10
-0.074925
 20
-1.288921
 40
0.003
 41
0.003
 10
0.581224
 20
-0.905394
 40
0.003
 41
0.003
  0
LWPOLYLINE
  5
10C
100
AcDbEntity
  8
0
 62
   251
100
AcDbPolyline
 90
        2
 70
     0
 39
0.003
 10
0.581224
 20
-0.905394
 40
0.003
 41
0.003
 10
0.589516
 20
-0.896421
 40
0.003
 41
0.003
  0
LWPOLYLINE
  5
10D
100
AcDbEntity
  8
0
 62
   251
100
AcDbPolyline
 90
        2
 70
     0
 39
0.003
 10
0.589516
 20
-0.896421
 40
0.003
 41
0.003
 10
-0.066634
 20
-1.279949
 40
0.003
 41
0.003
  0
LWPOLYLINE
  5
10E
100
AcDbEntity
  8
0
 62
   251
100
AcDbPolyline
 90
        2
 70
     0
 39
0.003
 10
-0.066634
 20
-1.279949
 40
0.003
 41
0.003
 10
-0.074925
 20
-1.288921
 40
0.003
 41
0.003
  0
LWPOLYLINE
  5
10F
100
AcDbEntity
  8
0
 62
   127
100
AcDbPolyline
 90
        2
 70
     0
 39
0.003
 10
-0.066634
 20
-1.279949
 40
0.003
 41
0.003
 10
0.589516
 20
-0.896421
 40
0.003
 41
0.003
  0
LWPOLYLINE
  5
110
100
AcDbEntity
  8
0
 62
   127
100
AcDbPolyline
 90
        2
 70
     0
 39
0.003
 10
0.589516
 20
-0.896421
 40
0.003
 41
0.003
 10
0.597417
 20
-0.886697
 40
0.003
 41
0.003
  0
LWPOLYLINE
  5
111
100
AcDbEntity
  8
0
 62
   127
100
AcDbPolyline
 90
        2
 70
     0
 39
0.003
 10
0.597417
 20
-0.886697
 40
0.003
 41
0.003
 10
-0.058732
 20
-1.270224
 40
0.003
 41
0.003
  0
LWPOLYLINE
  5
112
100
AcDbEntity
  8
0
 62
   127
100
AcDbPolyline
 90
        2
 70
     0
 39
0.003
 10
-0.058732
 20
-1.270224
 40
0.003
 41
0.003
 10
-0.066634
 20
-1.279949
 40
0.003
 41
0.003
  0
LWPOLYLINE
  5
113
100
AcDbEntity
  8
0
 62
   127
100
AcDbPolyline
 90
        2
 70
     0
 39
0.003
 10
-0.058732
 20
-1.270224
 40
0.003
 41
0.003
 10
0.597417
 20
-0.886697
 40
0.003
 41
0.003
  0
LWPOLYLINE
  5
114
100
AcDbEntity
  8
0
 62
   127
100
AcDbPolyline
 90
        2
 70
     0
 39
0.003
 10
0.597417
 20
-0.886697
 40
0.003
 41
0.003
 10
0.604878
 20
-0.876315
 40
0.003
 41
0.003
  0
LWPOLYLINE
  5
115
100
AcDbEntity
  8
0
 62
   127
100
AcDbPolyline
 90
        2
 70
     0
 39
0.003
 10
0.604878
 20
-0.876315
 40
0.003
 41
0.003
 10
-0.051272
 20
-1.259843
 40
0.003
 41
0.003
  0
LWPOLYLINE
  5
116
100
AcDbEntity
  8
0
 62
   127
100
AcDbPolyline
 90
        2
 70
     0
 39
0.003
 10
-0.051272
 20
-1.259843
 40
0.003
 41
0.003
 10
-0.058732
 20
-1.270224
 40
0.003
 41
0.003
  0
LWPOLYLINE
  5
117
100
AcDbEntity
  8
0
 62
     8
100
AcDbPolyline
 90
        2
 70
     0
 39
0.003
 10
-0.051272
 20
-1.259843
 40
0.003
 41
0.003
 10
0.604878
 20
-0.876315
 40
0.003
 41
0.003
  0
LWPOLYLINE
  5
118
100
AcDbEntity
  8
0
 62
     8
100
AcDbPolyline
 90
        2
 70
     0
 39
0.003
 10
0.604878
 20
-0.876315
 40
0.003
 41
0.003
 10
0.611858
 20
-0.865331
 40
0.003
 41
0.003
  0
LWPOLYLINE
  5
119
100
AcDbEntity
  8
0
 62
     8
100
AcDbPolyline
 90
        2
 70
     0
 39
0.003
 10
0.611858
 20
-0.865331
 40
0.003
 41
0.003
 10
-0.044291
 20
-1.248858
 40
0.003
 41
0.003
  0
LWPOLYLINE
  5
11A
100
AcDbEntity
  8
0
 62
     8
100
AcDbPolyline
 90
        2
 70
     0
 39
0.003
 10
-0.044291
 20
-1.248858
 40
0.003
 41
0.003
 10
-0.051272
 20
-1.259843
 40
0.003
 41
0.003
  0
LWPOLYLINE
  5
11B
100
AcDbEntity
  8
0
 62
     8
100
AcDbPolyline
 90
        2
 70
     0
 39
0.003
 10
-0.044291
 20
-1.248858
 40
0.003
 41
0.003
 10
0.611858
 20
-0.865331
 40
0.003
 41
0.003
  0
LWPOLYLINE
  5
11C
100
AcDbEntity
  8
0
 62
     8
100
AcDbPolyline
 90
        2
 70
     0
 39
0.003
 10
0.611858
 20
-0.865331
 40
0.003
 41
0.003
 10
0.618303
 20
-0.853835
 40
0.003
 41
0.003
  0
LWPOLYLINE
  5
11D
100
AcDbEntity
  8
0
 62
     8
100
AcDbPolyline
 90
        2
 70
     0
 39
0.003
 10
0.618303
 20
-0.853835
 40
0.003
 41
0.003
 10
-0.037846
 20
-1.237362
 40
0.003
 41
0.003
  0
LWPOLYLINE
  5
11E
100
AcDbEntity
  8
0
 62
     8
100
AcDbPolyline
 90
        2
 70
     0
 39
0.003
 10
-0.037846
 20
-1.237362
 40
0.003
 41
0.003
 10
-0.044291
 20
-1.248858
 40
0.003
 41
0.003
  0
LWPOLYLINE
  5
11F
100
AcDbEntity
  8
0
 62
   252
100
AcDbPolyline
 90
        2
 70
     0
 39
0.003
 10
-0.037846
 20
-1.237362
 40
0.003
 41
0.003
 10
0.618303
 20
-0.853835
 40
0.003
 41
0.003
  0
LWPOLYLINE
  5
120
100
AcDbEntity
  8
0
 62
   252
100
AcDbPolyline
 90
        2
 70
     0
 39
0.003
 10
0.618303
 20
-0.853835
 40
0.003
 41
0.003
 10
0.624169
 20
-0.841898
 40
0.003
 41
0.003
  0
LWPOLYLINE
  5
121
100
AcDbEntity
  8
0
 62
   252
100
AcDbPolyline
 90
        2
 70
     0
 39
0.003
 10
0.624169
 20
-0.841898
 40
0.003
 41
0.003
 10
-0.03198
 20
-1.225425
 40
0.003
 41
0.003
  0
LWPOLYLINE
  5
122
100
AcDbEntity
  8
0
 62
   252
100
AcDbPolyline
 90
        2
 70
     0
 39
0.003
 10
-0.03198
 20
-1.225425
 40
0.003
 41
0.003
 10
-0.037846
 20
-1.237362
 40
0.003
 41
0.003
  0
LWPOLYLINE
  5
123
100
AcDbEntity
  8
0
 62
   253
100
AcDbPolyline
 90
        2
 70
     0
 39
0.003
 10
-0.03198
 20
-1.225425
 40
0.003
 41
0.003
 10
0.624169
 20
-0.841898
 40
0.003
 41
0.003
  0
LWPOLYLINE
  5
124
100
AcDbEntity
  8
0
 62
   253
100
AcDbPolyline
 90
        2
 70
     0
 39
0.003
 10
0.624169
 20
-0.841898
 40
0.003
 41
0.003
 10
0.629402
 20
-0.829602
 40
0.003
 41
0.003
  0
LWPOLYLINE
  5
125
100
AcDbEntity
  8
0
 62
   253
100
AcDbPolyline
 90
        2
 70
     0
 39
0.003
 10
0.629402
 20
-0.829602
 40
0.003
 41
0.003
 10
-0.026748
 20
-1.21313
 40
0.003
 41
0.003
  0
LWPOLYLINE
  5
126
100
AcDbEntity
  8
0
 62
   253
100
AcDbPolyline
 90
        2
 70
     0
 39
0.003
 10
-0.026748
 20
-1.21313
 40
0.003
 41
0.003
 10
-0.03198
 20
-1.225425
 40
0.003
 41
0.003
  0
LWPOLYLINE
  5
127
100
AcDbEntity
  8
0
 62
   253
100
AcDbPolyline
 90
        2
 70
     0
 39
0.003
 10
-0.026748
 20
-1.21313
 40
0.003
 41
0.003
 10
0.629402
 20
-0.829602
 40
0.003
 41
0.003
  0
LWPOLYLINE
  5
128
100
AcDbEntity
  8
0
 62
   253
100
AcDbPolyline
 90
        2
 70
     0
 39
0.003
 10
0.629402
 20
-0.829602
 40
0.003
 41
0.003
 10
0.633969
 20
-0.817016
 40
0.003
 41
0.003
  0
LWPOLYLINE
  5
129
100
AcDbEntity
  8
0
 62
   253
100
AcDbPolyline
 90
        2
 70
     0
 39
0.003
 10
0.633969
 20
-0.817016
 40
0.003
 41
0.003
 10
-0.022181
 20
-1.200543
 40
0.003
 41
0.003
  0
LWPOLYLINE
  5
12A
100
AcDbEntity
  8
0
 62
   253
100
AcDbPolyline
 90
        2
 70
     0
 39
0.003
 10
-0.022181
 20
-1.200543
 40
0.003
 41
0.003
 10
-0.026748
 20
-1.21313
 40
0.003
 41
0.003
  0
LWPOLYLINE
  5
12B
100
AcDbEntity
  8
0
 62
   253
100
AcDbPolyline
 90
        2
 70
     0
 39
0.003
 10
-0.022181
 20
-1.200543
 40
0.003
 41
0.003
 10
0.633969
 20
-0.817016
 40
0.003
 41
0.003
  0
LWPOLYLINE
  5
12C
100
AcDbEntity
  8
0
 62
   253
100
AcDbPolyline
 90
        2
 70
     0
 39
0.003
 10
0.633969
 20
-0.817016
 40
0.003
 41
0.003
 10
0.637803
 20
-0.804224
 40
0.003
 41
0.003
  0
LWPOLYLINE
  5
12D
100
AcDbEntity
  8
0
 62
   253
100
AcDbPolyline
 90
        2
 70
     0
 39
0.003
 10
0.637803
 20
-0.804224
 40
0.003
 41
0.003
 10
-0.018346
 20
-1.187752
 40
0.003
 41
0.003
  0
LWPOLYLINE
  5
12E
100
AcDbEntity
  8
0
 62
   253
100
AcDbPolyline
 90
        2
 70
     0
 39
0.003
 10
-0.018346
 20
-1.187752
 40
0.003
 41
0.003
 10
-0.022181
 20
-1.200543
 40
0.003
 41
0.003
  0
LWPOLYLINE
  5
12F
100
AcDbEntity
  8
0
 62
   253
100
AcDbPolyline
 90
        2
 70
     0
 39
0.003
 10
-0.018346
 20
-1.187752
 40
0.003
 41
0.003
 10
0.637803
 20
-0.804224
 40
0.003
 41
0.003
  0
LWPOLYLINE
  5
130
100
AcDbEntity
  8
0
 62
   253
100
AcDbPolyline
 90
        2
 70
     0
 39
0.003
 10
0.637803
 20
-0.804224
 40
0.003
 41
0.003
 10
0.640874
 20
-0.791291
 40
0.003
 41
0.003
  0
LWPOLYLINE
  5
131
100
AcDbEntity
  8
0
 62
   253
100
AcDbPolyline
 90
        2
 70
     0
 39
0.003
 10
0.640874
 20
-0.791291
 40
0.003
 41
0.003
 10
-0.015276
 20
-1.174819
 40
0.003
 41
0.003
  0
LWPOLYLINE
  5
132
100
AcDbEntity
  8
0
 62
   253
100
AcDbPolyline
 90
        2
 70
     0
 39
0.003
 10
-0.015276
 20
-1.174819
 40
0.003
 41
0.003
 10
-0.018346
 20
-1.187752
 40
0.003
 41
0.003
  0
LWPOLYLINE
  5
133
100
AcDbEntity
  8
0
 62
   253
100
AcDbPolyline
 90
        2
 70
     0
 39
0.003
 10
-0.015276
 20
-1.174819
 40
0.003
 41
0.003
 10
0.640874
 20
-0.791291
 40
0.003
 41
0.003
  0
LWPOLYLINE
  5
134
100
AcDbEntity
  8
0
 62
   253
100
AcDbPolyline
 90
        2
 70
     0
 39
0.003
 10
0.640874
 20
-0.791291
 40
0.003
 41
0.003
 10
0.643122
 20
-0.778307
 40
0.003
 41
0.003
  0
LWPOLYLINE
  5
135
100
AcDbEntity
  8
0
 62
   253
100
AcDbPolyline
 90
        2
 70
     0
 39
0.003
 10
0.643122
 20
-0.778307
 40
0.003
 41
0.003
 10
-0.013028
 20
-1.161835
 40
0.003
 41
0.003
  0
LWPOLYLINE
  5
136
100
AcDbEntity
  8
0
 62
   253
100
AcDbPolyline
 90
        2
 70
     0
 39
0.003
 10
-0.013028
 20
-1.161835
 40
0.003
 41
0.003
 10
-0.015276
 20
-1.174819
 40
0.003
 41
0.003
  0
LWPOLYLINE
  5
137
100
AcDbEntity
  8
0
 62
     9
100
AcDbPolyline
 90
        2
 70
     0
 39
0.003
 10
-0.013028
 20
-1.161835
 40
0.003
 41
0.003
 10
0.643122
 20
-0.778307
 40
0.003
 41
0.003
  0
LWPOLYLINE
  5
138
100
AcDbEntity
  8
0
 62
     9
100
AcDbPolyline
 90
        2
 70
     0
 39
0.003
 10
0.643122
 20
-0.778307
 40
0.003
 41
0.003
 10
0.644516
 20
-0.765327
 40
0.003
 41
0.003
  0
LWPOLYLINE
  5
139
100
AcDbEntity
  8
0
 62
     9
100
AcDbPolyline
 90
        2
 70
     0
 39
0.003
 10
0.644516
 20
-0.765327
 40
0.003
 41
0.003
 10
-0.011634
 20
-1.148854
 40
0.003
 41
0.003
  0
LWPOLYLINE
  5
13A
100
AcDbEntity
  8
0
 62
     9
100
AcDbPolyline
 90
        2
 70
     0
 39
0.003
 10
-0.011634
 20
-1.148854
 40
0.003
 41
0.003
 10
-0.013028
 20
-1.161835
 40
0.003
 41
0.003
  0
LWPOLYLINE
  5
13B
100
AcDbEntity
  8
0
 62
     9
100
AcDbPolyline
 90
        2
 70
     0
 39
0.003
 10
-0.011634
 20
-1.148854
 40
0.003
 41
0.003
 10
0.644516
 20
-0.765327
 40
0.003
 41
0.003
  0
LWPOLYLINE
  5
13C
100
AcDbEntity
  8
0
 62
     9
100
AcDbPolyline
 90
        2
 70
     0
 39
0.003
 10
0.644516
 20
-0.765327
 40
0.003
 41
0.003
 10
0.644988
 20
-0.752453
 40
0.003
 41
0.003
  0
LWPOLYLINE
  5
13D
100
AcDbEntity
  8
0
 62
     9
100
AcDbPolyline
 90
        2
 70
     0
 39
0.003
 10
0.644988
 20
-0.752453
 40
0.003
 41
0.003
 10
-0.011161
 20
-1.13598
 40
0.003
 41
0.003
  0
LWPOLYLINE
  5
13E
100
AcDbEntity
  8
0
 62
     9
100
AcDbPolyline
 90
        2
 70
     0
 39
0.003
 10
-0.011161
 20
-1.13598
 40
0.003
 41
0.003
 10
-0.011634
 20
-1.148854
 40
0.003
 41
0.003
  0
LWPOLYLINE
  5
13F
100
AcDbEntity
  8
0
 62
     9
100
AcDbPolyline
 90
        2
 70
     0
 39
0.003
 10
-0.011161
 20
-1.13598
 40
0.003
 41
0.003
 10
0.644988
 20
-0.752453
 40
0.003
 41
0.003
  0
LWPOLYLINE
  5
140
100
AcDbEntity
  8
0
 62
     9
100
AcDbPolyline
 90
        2
 70
     0
 39
0.003
 10
0.644988
 20
-0.752453
 40
0.003
 41
0.003
 10
0.644508
 20
-0.739744
 40
0.003
 41
0.003
  0
LWPOLYLINE
  5
141
100
AcDbEntity
  8
0
 62
     9
100
AcDbPolyline
 90
        2
 70
     0
 39
0.003
 10
0.644508
 20
-0.739744
 40
0.003
 41
0.003
 10
-0.011642
 20
-1.123272
 40
0.003
 41
0.003
  0
LWPOLYLINE
  5
142
100
AcDbEntity
  8
0
 62
     9
100
AcDbPolyline
 90
        2
 70
     0
 39
0.003
 10
-0.011642
 20
-1.123272
 40
0.003
 41
0.003
 10
-0.011161
 20
-1.13598
 40
0.003
 41
0.003
  0
LWPOLYLINE
  5
143
100
AcDbEntity
  8
0
 62
     9
100
AcDbPolyline
 90
        2
 70
     0
 39
0.003
 10
-0.011642
 20
-1.123272
 40
0.003
 41
0.003
 10
0.644508
 20
-0.739744
 40
0.003
 41
0.003
  0
LWPOLYLINE
  5
144
100
AcDbEntity
  8
0
 62
     9
100
AcDbPolyline
 90
        2
 70
     0
 39
0.003
 10
0.644508
 20
-0.739744
 40
0.003
 41
0.003
 10
0.643016
 20
-0.727287
 40
0.003
 41
0.003
  0
LWPOLYLINE
  5
145
100
AcDbEntity
  8
0
 62
     9
100
AcDbPolyline
 90
        2
 70
     0
 39
0.003
 10
0.643016
 20
-0.727287
 40
0.003
 41
0.003
 10
-0.013134
 20
-1.110815
 40
0.003
 41
0.003
  0
LWPOLYLINE
  5
146
100
AcDbEntity
  8
0
 62
     9
100
AcDbPolyline
 90
        2
 70
     0
 39
0.003
 10
-0.013134
 20
-1.110815
 40
0.003
 41
0.003
 10
-0.011642
 20
-1.123272
 40
0.003
 41
0.003
  0
LWPOLYLINE
  5
147
100
AcDbEntity
  8
0
 62
     9
100
AcDbPolyline
 90
        2
 70
     0
 39
0.003
 10
-0.013134
 20
-1.110815
 40
0.003
 41
0.003
 10
0.643016
 20
-0.727287
 40
0.003
 41
0.003
  0
LWPOLYLINE
  5
148
100
AcDbEntity
  8
0
 62
     9
100
AcDbPolyline
 90
        2
 70
     0
 39
0.003
 10
0.643016
 20
-0.727287
 40
0.003
 41
0.003
 10
0.640476
 20
-0.715146
 40
0.003
 41
0.003
  0
LWPOLYLINE
  5
149
100
AcDbEntity
  8
0
 62
     9
100
AcDbPolyline
 90
        2
 70
     0
 39
0.003
 10
0.640476
 20
-0.715146
 40
0.003
 41
0.003
 10
-0.015673
 20
-1.098673
 40
0.003
 41
0.003
  0
LWPOLYLINE
  5
14A
100
AcDbEntity
  8
0
 62
     9
100
AcDbPolyline
 90
        2
 70
     0
 39
0.003
 10
-0.015673
 20
-1.098673
 40
0.003
 41
0.003
 10
-0.013134
 20
-1.110815
 40
0.003
 41
0.003
  0
LWPOLYLINE
  5
14B
100
AcDbEntity
  8
0
 62
     9
100
AcDbPolyline
 90
        2
 70
     0
 39
0.003
 10
-0.015673
 20
-1.098673
 40
0.003
 41
0.003
 10
0.640476
 20
-0.715146
 40
0.003
 41
0.003
  0
LWPOLYLINE
  5
14C
100
AcDbEntity
  8
0
 62
     9
100
AcDbPolyline
 90
        2
 70
     0
 39
0.003
 10
0.640476
 20
-0.715146
 40
0.003
 41
0.003
 10
0.636827
 20
-0.703409
 40
0.003
 41
0.003
  0
LWPOLYLINE
  5
14D
100
AcDbEntity
  8
0
 62
     9
100
AcDbPolyline
 90
        2
 70
     0
 39
0.003
 10
0.636827
 20
-0.703409
 40
0.003
 41
0.003
 10
-0.019323
 20
-1.086937
 40
0.003
 41
0.003
  0
LWPOLYLINE
  5
14E
100
AcDbEntity
  8
0
 62
     9
100
AcDbPolyline
 90
        2
 70
     0
 39
0.003
 10
-0.019323
 20
-1.086937
 40
0.003
 41
0.003
 10
-0.015673
 20
-1.098673
 40
0.003
 41
0.003
  0
LWPOLYLINE
  5
14F
100
AcDbEntity
  8
0
 62
     9
100
AcDbPolyline
 90
        2
 70
     0
 39
0.003
 10
-0.019323
 20
-1.086937
 40
0.003
 41
0.003
 10
0.636827
 20
-0.703409
 40
0.003
 41
0.003
  0
LWPOLYLINE
  5
150
100
AcDbEntity
  8
0
 62
     9
100
AcDbPolyline
 90
        2
 70
     0
 39
0.003
 10
0.636827
 20
-0.703409
 40
0.003
 41
0.003
 10
0.632031
 20
-0.692146
 40
0.003
 41
0.003
  0
LWPOLYLINE
  5
151
100
AcDbEntity
  8
0
 62
     9
100
AcDbPolyline
 90
        2
 70
     0
 39
0.003
 10
0.632031
 20
-0.692146
 40
0.003
 41
0.003
 10
-0.024118
 20
-1.075673
 40
0.003
 41
0.003
  0
LWPOLYLINE
  5
152
100
AcDbEntity
  8
0
 62
     9
100
AcDbPolyline
 90
        2
 70
     0
 39
0.003
 10
-0.024118
 20
-1.075673
 40
0.003
 41
0.003
 10
-0.019323
 20
-1.086937
 40
0.003
 41
0.003
  0
LWPOLYLINE
  5
153
100
AcDbEntity
  8
0
 62
     9
100
AcDbPolyline
 90
        2
 70
     0
 39
0.003
 10
-0.024118
 20
-1.075673
 40
0.003
 41
0.003
 10
0.632031
 20
-0.692146
 40
0.003
 41
0.003
  0
LWPOLYLINE
  5
154
100
AcDbEntity
  8
0
 62
     9
100
AcDbPolyline
 90
        2
 70
     0
 39
0.003
 10
0.632031
 20
-0.692146
 40
0.003
 41
0.003
 10
0.626035
 20
-0.681437
 40
0.003
 41
0.003
  0
LWPOLYLINE
  5
155
100
AcDbEntity
  8
0
 62
     9
100
AcDbPolyline
 90
        2
 70
     0
 39
0.003
 10
0.626035
 20
-0.681437
 40
0.003
 41
0.003
 10
-0.030114
 20
-1.064965
 40
0.003
 41
0.003
  0
LWPOLYLINE
  5
156
100
AcDbEntity
  8
0
 62
     9
100
AcDbPolyline
 90
        2
 70
     0
 39
0.003
 10
-0.030114
 20
-1.064965
 40
0.003
 41
0.003
 10
-0.024118
 20
-1.075673
 40
0.003
 41
0.003
  0
LWPOLYLINE
  5
157
100
AcDbEntity
  8
0
 62
     9
100
AcDbPolyline
 90
        2
 70
     0
 39
0.003
 10
-0.030114
 20
-1.064965
 40
0.003
 41
0.003
 10
0.626035
 20
-0.681437
 40
0.003
 41
0.003
  0
LWPOLYLINE
  5
158
100
AcDbEntity
  8
0
 62
     9
100
AcDbPolyline
 90
        2
 70
     0
 39
0.003
 10
0.626035
 20
-0.681437
 40
0.003
 41
0.003
 10
0.618807
 20
-0.671346
 40
0.003
 41
0.003
  0
LWPOLYLINE
  5
159
100
AcDbEntity
  8
0
 62
     9
100
AcDbPolyline
 90
        2
 70
     0
 39
0.003
 10
0.618807
 20
-0.671346
 40
0.003
 41
0.003
 10
-0.037343
 20
-1.054874
 40
0.003
 41
0.003
  0
LWPOLYLINE
  5
15A
100
AcDbEntity
  8
0
 62
     9
100
AcDbPolyline
 90
        2
 70
     0
 39
0.003
 10
-0.037343
 20
-1.054874
 40
0.003
 41
0.003
 10
-0.030114
 20
-1.064965
 40
0.003
 41
0.003
  0
LWPOLYLINE
  5
15B
100
AcDbEntity
  8
0
 62
     9
100
AcDbPolyline
 90
        2
 70
     0
 39
0.003
 10
-0.037343
 20
-1.054874
 40
0.003
 41
0.003
 10
0.618807
 20
-0.671346
 40
0.003
 41
0.003
  0
LWPOLYLINE
  5
15C
100
AcDbEntity
  8
0
 62
     9
100
AcDbPolyline
 90
        2
 70
     0
 39
0.003
 10
0.618807
 20
-0.671346
 40
0.003
 41
0.003
 10
0.61028
 20
-0.661969
 40
0.003
 41
0.003
  0
LWPOLYLINE
  5
15D
100
AcDbEntity
  8
0
 62
     9
100
AcDbPolyline
 90
        2
 70
     0
 39
0.003
 10
0.61028
 20
-0.661969
 40
0.003
 41
0.003
 10
-0.04587
 20
-1.045496
 40
0.003
 41
0.003
  0
LWPOLYLINE
  5
15E
100
AcDbEntity
  8
0
 62
     9
100
AcDbPolyline
 90
        2
 70
     0
 39
0.003
 10
-0.04587
 20
-1.045496
 40
0.003
 41
0.003
 10
-0.037343
 20
-1.054874
 40
0.003
 41
0.003
  0
LWPOLYLINE
  5
15F
100
AcDbEntity
  8
0
 62
     9
100
AcDbPolyline
 90
        2
 70
     0
 39
0.003
 10
-0.04587
 20
-1.045496
 40
0.003
 41
0.003
 10
0.61028
 20
-0.661969
 40
0.003
 41
0.003
  0
LWPOLYLINE
  5
160
100
AcDbEntity
  8
0
 62
     9
100
AcDbPolyline
 90
        2
 70
     0
 39
0.003
 10
0.61028
 20
-0.661969
 40
0.003
 41
0.003
 10
0.600417
 20
-0.653366
 40
0.003
 41
0.003
  0
LWPOLYLINE
  5
161
100
AcDbEntity
  8
0
 62
     9
100
AcDbPolyline
 90
        2
 70
     0
 39
0.003
 10
0.600417
 20
-0.653366
 40
0.003
 41
0.003
 10
-0.055732
 20
-1.036894
 40
0.003
 41
0.003
  0
LWPOLYLINE
  5
162
100
AcDbEntity
  8
0
 62
     9
100
AcDbPolyline
 90
        2
 70
     0
 39
0.003
 10
-0.055732
 20
-1.036894
 40
0.003
 41
0.003
 10
-0.04587
 20
-1.045496
 40
0.003
 41
0.003
  0
LWPOLYLINE
  5
163
100
AcDbEntity
  8
0
 62
     9
100
AcDbPolyline
 90
        2
 70
     0
 39
0.003
 10
-0.055732
 20
-1.036894
 40
0.003
 41
0.003
 10
0.600417
 20
-0.653366
 40
0.003
 41
0.003
  0
LWPOLYLINE
  5
164
100
AcDbEntity
  8
0
 62
     9
100
AcDbPolyline
 90
        2
 70
     0
 39
0.003
 10
0.600417
 20
-0.653366
 40
0.003
 41
0.003
 10
0.589165
 20
-0.645626
 40
0.003
 41
0.003
  0
LWPOLYLINE
  5
165
100
AcDbEntity
  8
0
 62
     9
100
AcDbPolyline
 90
        2
 70
     0
 39
0.003
 10
0.589165
 20
-0.645626
 40
0.003
 41
0.003
 10
-0.066984
 20
-1.029154
 40
0.003
 41
0.003
  0
LWPOLYLINE
  5
166
100
AcDbEntity
  8
0
 62
     9
100
AcDbPolyline
 90
        2
 70
     0
 39
0.003
 10
-0.066984
 20
-1.029154
 40
0.003
 41
0.003
 10
-0.055732
 20
-1.036894
 40
0.003
 41
0.003
  0
LWPOLYLINE
  5
167
100
AcDbEntity
  8
0
 62
     9
100
AcDbPolyline
 90
        2
 70
     0
 39
0.003
 10
-0.066984
 20
-1.029154
 40
0.003
 41
0.003
 10
0.589165
 20
-0.645626
 40
0.003
 41
0.003
  0
LWPOLYLINE
  5
168
100
AcDbEntity
  8
0
 62
     9
100
AcDbPolyline
 90
        2
 70
     0
 39
0.003
 10
0.589165
 20
-0.645626
 40
0.003
 41
0.003
 10
0.576492
 20
-0.638811
 40
0.003
 41
0.003
  0
LWPOLYLINE
  5
169
100
AcDbEntity
  8
0
 62
     9
100
AcDbPolyline
 90
        2
 70
     0
 39
0.003
 10
0.576492
 20
-0.638811
 40
0.003
 41
0.003
 10
-0.079657
 20
-1.022339
 40
0.003
 41
0.003
  0
LWPOLYLINE
  5
16A
100
AcDbEntity
  8
0
 62
     9
100
AcDbPolyline
 90
        2
 70
     0
 39
0.003
 10
-0.079657
 20
-1.022339
 40
0.003
 41
0.003
 10
-0.066984
 20
-1.029154
 40
0.003
 41
0.003
  0
LWPOLYLINE
  5
16B
100
AcDbEntity
  8
0
 62
     9
100
AcDbPolyline
 90
        2
 70
     0
 39
0.003
 10
-0.079657
 20
-1.022339
 40
0.003
 41
0.003
 10
0.576492
 20
-0.638811
 40
0.003
 41
0.003
  0
LWPOLYLINE
  5
16C
100
AcDbEntity
  8
0
 62
     9
100
AcDbPolyline
 90
        2
 70
     0
 39
0.003
 10
0.576492
 20
-0.638811
 40
0.003
 41
0.003
 10
0.562327
 20
-0.633012
 40
0.003
 41
0.003
  0
LWPOLYLINE
  5
16D
100
AcDbEntity
  8
0
 62
     9
100
AcDbPolyline
 90
        2
 70
     0
 39
0.003
 10
0.562327
 20
-0.633012
 40
0.003
 41
0.003
 10
-0.093823
 20
-1.016539
 40
0.003
 41
0.003
  0
LWPOLYLINE
  5
16E
100
AcDbEntity
  8
0
 62
     9
100
AcDbPolyline
 90
        2
 70
     0
 39
0.003
 10
-0.093823
 20
-1.016539
 40
0.003
 41
0.003
 10
-0.079657
 20
-1.022339
 40
0.003
 41
0.003
  0
LWPOLYLINE
  5
16F
100
AcDbEntity
  8
0
 62
     9
100
AcDbPolyline
 90
        2
 70
     0
 39
0.003
 10
-0.093823
 20
-1.016539
 40
0.003
 41
0.003
 10
0.562327
 20
-0.633012
 40
0.003
 41
0.003
  0
LWPOLYLINE
  5
170
100
AcDbEntity
  8
0
 62
     9
100
AcDbPolyline
 90
        2
 70
     0
 39
0.003
 10
0.562327
 20
-0.633012
 40
0.003
 41
0.003
 10
0.546642
 20
-0.628295
 40
0.003
 41
0.003
  0
LWPOLYLINE
  5
171
100
AcDbEntity
  8
0
 62
     9
100
AcDbPolyline
 90
        2
 70
     0
 39
0.003
 10
0.546642
 20
-0.628295
 40
0.003
 41
0.003
 10
-0.109508
 20
-1.011823
 40
0.003
 41
0.003
  0
LWPOLYLINE
  5
172
100
AcDbEntity
  8
0
 62
     9
100
AcDbPolyline
 90
        2
 70
     0
 39
0.003
 10
-0.109508
 20
-1.011823
 40
0.003
 41
0.003
 10
-0.093823
 20
-1.016539
 40
0.003
 41
0.003
  0
LWPOLYLINE
  5
173
100
AcDbEntity
  8
0
 62
     9
100
AcDbPolyline
 90
        2
 70
     0
 39
0.003
 10
-0.109508
 20
-1.011823
 40
0.003
 41
0.003
 10
0.546642
 20
-0.628295
 40
0.003
 41
0.003
  0
LWPOLYLINE
  5
174
100
AcDbEntity
  8
0
 62
     9
100
AcDbPolyline
 90
        2
 70
     0
 39
0.003
 10
0.546642
 20
-0.628295
 40
0.003
 41
0.003
 10
0.52937
 20
-0.624744
 40
0.003
 41
0.003
  0
LWPOLYLINE
  5
175
100
AcDbEntity
  8
0
 62
     9
100
AcDbPolyline
 90
        2
 70
     0
 39
0.003
 10
0.52937
 20
-0.624744
 40
0.003
 41
0.003
 10
-0.12678
 20
-1.008272
 40
0.003
 41
0.003
  0
LWPOLYLINE
  5
176
100
AcDbEntity
  8
0
 62
     9
100
AcDbPolyline
 90
        2
 70
     0
 39
0.003
 10
-0.12678
 20
-1.008272
 40
0.003
 41
0.003
 10
-0.109508
 20
-1.011823
 40
0.003
 41
0.003
  0
LWPOLYLINE
  5
177
100
AcDbEntity
  8
0
 62
     9
100
AcDbPolyline
 90
        2
 70
     0
 39
0.003
 10
-0.12678
 20
-1.008272
 40
0.003
 41
0.003
 10
0.52937
 20
-0.624744
 40
0.003
 41
0.003
  0
LWPOLYLINE
  5
178
100
AcDbEntity
  8
0
 62
     9
100
AcDbPolyline
 90
        2
 70
     0
 39
0.003
 10
0.52937
 20
-0.624744
 40
0.003
 41
0.003
 10
0.52937
 20
-0.562161
 40
0.003
 41
0.003
  0
LWPOLYLINE
  5
179
100
AcDbEntity
  8
0
 62
     9
100
AcDbPolyline
 90
        2
 70
     0
 39
0.003
 10
0.52937
 20
-0.562161
 40
0.003
 41
0.003
 10
-0.12678
 20
-0.945689
 40
0.003
 41
0.003
  0
LWPOLYLINE
  5
17A
100
AcDbEntity
  8
0
 62
     9
100
AcDbPolyline
 90
        2
 70
     0
 39
0.003
 10
-0.12678
 20
-0.945689
 40
0.003
 41
0.003
 10
-0.12678
 20
-1.008272
 40
0.003
 41
0.003
  0
LWPOLYLINE
  5
17B
100
AcDbEntity
  8
0
 62
     0
100
AcDbPolyline
 90
        2
 70
     0
 39
0.003
 10
-0.101681
 20
-1.310622
 40
0.003
 41
0.003
 10
0.554469
 20
-0.927094
 40
0.003
 41
0.003
  0
LWPOLYLINE
  5
17C
100
AcDbEntity
  8
0
 62
     0
100
AcDbPolyline
 90
        2
 70
     0
 39
0.003
 10
0.554469
 20
-0.927094
 40
0.003
 41
0.003
 10
0.563654
 20
-0.920803
 40
0.003
 41
0.003
  0
LWPOLYLINE
  5
17D
100
AcDbEntity
  8
0
 62
     0
100
AcDbPolyline
 90
        2
 70
     0
 39
0.003
 10
0.563654
 20
-0.920803
 40
0.003
 41
0.003
 10
0.572583
 20
-0.913551
 40
0.003
 41
0.003
  0
LWPOLYLINE
  5
17E
100
AcDbEntity
  8
0
 62
     0
100
AcDbPolyline
 90
        2
 70
     0
 39
0.003
 10
0.572583
 20
-0.913551
 40
0.003
 41
0.003
 10
0.581224
 20
-0.905394
 40
0.003
 41
0.003
  0
LWPOLYLINE
  5
17F
100
AcDbEntity
  8
0
 62
     0
100
AcDbPolyline
 90
        2
 70
     0
 39
0.003
 10
0.581224
 20
-0.905394
 40
0.003
 41
0.003
 10
0.589516
 20
-0.896421
 40
0.003
 41
0.003
  0
LWPOLYLINE
  5
180
100
AcDbEntity
  8
0
 62
     0
100
AcDbPolyline
 90
        2
 70
     0
 39
0.003
 10
0.589516
 20
-0.896421
 40
0.003
 41
0.003
 10
0.597417
 20
-0.886697
 40
0.003
 41
0.003
  0
LWPOLYLINE
  5
181
100
AcDbEntity
  8
0
 62
     0
100
AcDbPolyline
 90
        2
 70
     0
 39
0.003
 10
0.597417
 20
-0.886697
 40
0.003
 41
0.003
 10
0.604878
 20
-0.876315
 40
0.003
 41
0.003
  0
LWPOLYLINE
  5
182
100
AcDbEntity
  8
0
 62
     0
100
AcDbPolyline
 90
        2
 70
     0
 39
0.003
 10
0.604878
 20
-0.876315
 40
0.003
 41
0.003
 10
0.611858
 20
-0.865331
 40
0.003
 41
0.003
  0
LWPOLYLINE
  5
183
100
AcDbEntity
  8
0
 62
     0
100
AcDbPolyline
 90
        2
 70
     0
 39
0.003
 10
0.611858
 20
-0.865331
 40
0.003
 41
0.003
 10
0.618303
 20
-0.853835
 40
0.003
 41
0.003
  0
LWPOLYLINE
  5
184
100
AcDbEntity
  8
0
 62
     0
100
AcDbPolyline
 90
        2
 70
     0
 39
0.003
 10
0.618303
 20
-0.853835
 40
0.003
 41
0.003
 10
0.624169
 20
-0.841898
 40
0.003
 41
0.003
  0
LWPOLYLINE
  5
185
100
AcDbEntity
  8
0
 62
     0
100
AcDbPolyline
 90
        2
 70
     0
 39
0.003
 10
0.624169
 20
-0.841898
 40
0.003
 41
0.003
 10
0.629402
 20
-0.829602
 40
0.003
 41
0.003
  0
LWPOLYLINE
  5
186
100
AcDbEntity
  8
0
 62
     0
100
AcDbPolyline
 90
        2
 70
     0
 39
0.003
 10
0.629402
 20
-0.829602
 40
0.003
 41
0.003
 10
0.633969
 20
-0.817016
 40
0.003
 41
0.003
  0
LWPOLYLINE
  5
187
100
AcDbEntity
  8
0
 62
     0
100
AcDbPolyline
 90
        2
 70
     0
 39
0.003
 10
0.633969
 20
-0.817016
 40
0.003
 41
0.003
 10
0.637803
 20
-0.804224
 40
0.003
 41
0.003
  0
LWPOLYLINE
  5
188
100
AcDbEntity
  8
0
 62
     0
100
AcDbPolyline
 90
        2
 70
     0
 39
0.003
 10
0.637803
 20
-0.804224
 40
0.003
 41
0.003
 10
0.640874
 20
-0.791291
 40
0.003
 41
0.003
  0
LWPOLYLINE
  5
189
100
AcDbEntity
  8
0
 62
     0
100
AcDbPolyline
 90
        2
 70
     0
 39
0.003
 10
0.640874
 20
-0.791291
 40
0.003
 41
0.003
 10
0.643122
 20
-0.778307
 40
0.003
 41
0.003
  0
LWPOLYLINE
  5
18A
100
AcDbEntity
  8
0
 62
     0
100
AcDbPolyline
 90
        2
 70
     0
 39
0.003
 10
0.643122
 20
-0.778307
 40
0.003
 41
0.003
 10
0.644516
 20
-0.765327
 40
0.003
 41
0.003
  0
LWPOLYLINE
  5
18B
100
AcDbEntity
  8
0
 62
     0
100
AcDbPolyline
 90
        2
 70
     0
 39
0.003
 10
0.644516
 20
-0.765327
 40
0.003
 41
0.003
 10
0.644988
 20
-0.752453
 40
0.003
 41
0.003
  0
LWPOLYLINE
  5
18C
100
AcDbEntity
  8
0
 62
     0
100
AcDbPolyline
 90
        2
 70
     0
 39
0.003
 10
0.644988
 20
-0.752453
 40
0.003
 41
0.003
 10
0.644508
 20
-0.739744
 40
0.003
 41
0.003
  0
LWPOLYLINE
  5
18D
100
AcDbEntity
  8
0
 62
     0
100
AcDbPolyline
 90
        2
 70
     0
 39
0.003
 10
0.644508
 20
-0.739744
 40
0.003
 41
0.003
 10
0.643016
 20
-0.727287
 40
0.003
 41
0.003
  0
LWPOLYLINE
  5
18E
100
AcDbEntity
  8
0
 62
     0
100
AcDbPolyline
 90
        2
 70
     0
 39
0.003
 10
0.643016
 20
-0.727287
 40
0.003
 41
0.003
 10
0.640476
 20
-0.715146
 40
0.003
 41
0.003
  0
LWPOLYLINE
  5
18F
100
AcDbEntity
  8
0
 62
     0
100
AcDbPolyline
 90
        2
 70
     0
 39
0.003
 10
0.640476
 20
-0.715146
 40
0.003
 41
0.003
 10
0.636827
 20
-0.703409
 40
0.003
 41
0.003
  0
LWPOLYLINE
  5
190
100
AcDbEntity
  8
0
 62
     0
100
AcDbPolyline
 90
        2
 70
     0
 39
0.003
 10
0.636827
 20
-0.703409
 40
0.003
 41
0.003
 10
0.632031
 20
-0.692146
 40
0.003
 41
0.003
  0
LWPOLYLINE
  5
191
100
AcDbEntity
  8
0
 62
     0
100
AcDbPolyline
 90
        2
 70
     0
 39
0.003
 10
0.632031
 20
-0.692146
 40
0.003
 41
0.003
 10
0.626035
 20
-0.681437
 40
0.003
 41
0.003
  0
LWPOLYLINE
  5
192
100
AcDbEntity
  8
0
 62
     0
100
AcDbPolyline
 90
        2
 70
     0
 39
0.003
 10
0.626035
 20
-0.681437
 40
0.003
 41
0.003
 10
0.618807
 20
-0.671346
 40
0.003
 41
0.003
  0
LWPOLYLINE
  5
193
100
AcDbEntity
  8
0
 62
     0
100
AcDbPolyline
 90
        2
 70
     0
 39
0.003
 10
0.618807
 20
-0.671346
 40
0.003
 41
0.003
 10
0.61028
 20
-0.661969
 40
0.003
 41
0.003
  0
LWPOLYLINE
  5
194
100
AcDbEntity
  8
0
 62
     0
100
AcDbPolyline
 90
        2
 70
     0
 39
0.003
 10
0.61028
 20
-0.661969
 40
0.003
 41
0.003
 10
0.600417
 20
-0.653366
 40
0.003
 41
0.003
  0
LWPOLYLINE
  5
195
100
AcDbEntity
  8
0
 62
     0
100
AcDbPolyline
 90
        2
 70
     0
 39
0.003
 10
0.600417
 20
-0.653366
 40
0.003
 41
0.003
 10
0.589165
 20
-0.645626
 40
0.003
 41
0.003
  0
LWPOLYLINE
  5
196
100
AcDbEntity
  8
0
 62
     0
100
AcDbPolyline
 90
        2
 70
     0
 39
0.003
 10
0.589165
 20
-0.645626
 40
0.003
 41
0.003
 10
0.576492
 20
-0.638811
 40
0.003
 41
0.003
  0
LWPOLYLINE
  5
197
100
AcDbEntity
  8
0
 62
     0
100
AcDbPolyline
 90
        2
 70
     0
 39
0.003
 10
0.576492
 20
-0.638811
 40
0.003
 41
0.003
 10
0.562327
 20
-0.633012
 40
0.003
 41
0.003
  0
LWPOLYLINE
  5
198
100
AcDbEntity
  8
0
 62
     0
100
AcDbPolyline
 90
        2
 70
     0
 39
0.003
 10
0.562327
 20
-0.633012
 40
0.003
 41
0.003
 10
0.546642
 20
-0.628295
 40
0.003
 41
0.003
  0
LWPOLYLINE
  5
199
100
AcDbEntity
  8
0
 62
     0
100
AcDbPolyline
 90
        2
 70
     0
 39
0.003
 10
0.546642
 20
-0.628295
 40
0.003
 41
0.003
 10
0.52937
 20
-0.624744
 40
0.003
 41
0.003
  0
LWPOLYLINE
  5
19A
100
AcDbEntity
  8
0
 62
     0
100
AcDbPolyline
 90
        2
 70
     0
 39
0.003
 10
0.52937
 20
-0.624744
 40
0.003
 41
0.003
 10
0.52937
 20
-0.562161
 40
0.003
 41
0.003
  0
LWPOLYLINE
  5
19B
100
AcDbEntity
  8
0
 62
     0
100
AcDbPolyline
 90
        2
 70
     0
 39
0.003
 10
0.52937
 20
-0.562161
 40
0.003
 41
0.003
 10
-0.12678
 20
-0.945689
 40
0.003
 41
0.003
  0
LWPOLYLINE
  5
19C
100
AcDbEntity
  8
0
 62
     0
100
AcDbPolyline
 90
        2
 70
     0
 39
0.003
 10
-0.12678
 20
-0.945689
 40
0.003
 41
0.003
 10
-0.12678
 20
-1.008272
 40
0.003
 41
0.003
  0
LWPOLYLINE
  5
19D
100
AcDbEntity
  8
0
 62
     0
100
AcDbPolyline
 90
        2
 70
     0
 39
0.003
 10
-0.12678
 20
-1.008272
 40
0.003
 41
0.003
 10
-0.109508
 20
-1.011823
 40
0.003
 41
0.003
  0
LWPOLYLINE
  5
19E
100
AcDbEntity
  8
0
 62
     0
100
AcDbPolyline
 90
        2
 70
     0
 39
0.003
 10
-0.109508
 20
-1.011823
 40
0.003
 41
0.003
 10
-0.093823
 20
-1.016539
 40
0.003
 41
0.003
  0
LWPOLYLINE
  5
19F
100
AcDbEntity
  8
0
 62
     0
100
AcDbPolyline
 90
        2
 70
     0
 39
0.003
 10
-0.093823
 20
-1.016539
 40
0.003
 41
0.003
 10
-0.079657
 20
-1.022339
 40
0.003
 41
0.003
  0
LWPOLYLINE
  5
1A0
100
AcDbEntity
  8
0
 62
     0
100
AcDbPolyline
 90
        2
 70
     0
 39
0.003
 10
-0.079657
 20
-1.022339
 40
0.003
 41
0.003
 10
-0.066984
 20
-1.029154
 40
0.003
 41
0.003
  0
LWPOLYLINE
  5
1A1
100
AcDbEntity
  8
0
 62
     0
100
AcDbPolyline
 90
        2
 70
     0
 39
0.003
 10
-0.066984
 20
-1.029154
 40
0.003
 41
0.003
 10
-0.055732
 20
-1.036894
 40
0.003
 41
0.003
  0
LWPOLYLINE
  5
1A2
100
AcDbEntity
  8
0
 62
     0
100
AcDbPolyline
 90
        2
 70
     0
 39
0.003
 10
-0.055732
 20
-1.036894
 40
0.003
 41
0.003
 10
-0.04587
 20
-1.045496
 40
0.003
 41
0.003
  0
LWPOLYLINE
  5
1A3
100
AcDbEntity
  8
0
 62
     0
100
AcDbPolyline
 90
        2
 70
     0
 39
0.003
 10
-0.04587
 20
-1.045496
 40
0.003
 41
0.003
 10
-0.037343
 20
-1.054874
 40
0.003
 41
0.003
  0
LWPOLYLINE
  5
1A4
100
AcDbEntity
  8
0
 62
     0
100
AcDbPolyline
 90
        2
 70
     0
 39
0.003
 10
-0.037343
 20
-1.054874
 40
0.003
 41
0.003
 10
-0.030114
 20
-1.064965
 40
0.003
 41
0.003
  0
LWPOLYLINE
  5
1A5
100
AcDbEntity
  8
0
 62
     0
100
AcDbPolyline
 90
        2
 70
     0
 39
0.003
 10
-0.030114
 20
-1.064965
 40
0.003
 41
0.003
 10
-0.024118
 20
-1.075673
 40
0.003
 41
0.003
  0
LWPOLYLINE
  5
1A6
100
AcDbEntity
  8
0
 62
     0
100
AcDbPolyline
 90
        2
 70
     0
 39
0.003
 10
-0.024118
 20
-1.075673
 40
0.003
 41
0.003
 10
-0.019323
 20
-1.086937
 40
0.003
 41
0.003
  0
LWPOLYLINE
  5
1A7
100
AcDbEntity
  8
0
 62
     0
100
AcDbPolyline
 90
        2
 70
     0
 39
0.003
 10
-0.019323
 20
-1.086937
 40
0.003
 41
0.003
 10
-0.015673
 20
-1.098673
 40
0.003
 41
0.003
  0
LWPOLYLINE
  5
1A8
100
AcDbEntity
  8
0
 62
     0
100
AcDbPolyline
 90
        2
 70
     0
 39
0.003
 10
-0.015673
 20
-1.098673
 40
0.003
 41
0.003
 10
-0.013134
 20
-1.110815
 40
0.003
 41
0.003
  0
LWPOLYLINE
  5
1A9
100
AcDbEntity
  8
0
 62
     0
100
AcDbPolyline
 90
        2
 70
     0
 39
0.003
 10
-0.013134
 20
-1.110815
 40
0.003
 41
0.003
 10
-0.011642
 20
-1.123272
 40
0.003
 41
0.003
  0
LWPOLYLINE
  5
1AA
100
AcDbEntity
  8
0
 62
     0
100
AcDbPolyline
 90
        2
 70
     0
 39
0.003
 10
-0.011642
 20
-1.123272
 40
0.003
 41
0.003
 10
-0.011161
 20
-1.13598
 40
0.003
 41
0.003
  0
LWPOLYLINE
  5
1AB
100
AcDbEntity
  8
0
 62
     0
100
AcDbPolyline
 90
        2
 70
     0
 39
0.003
 10
-0.011161
 20
-1.13598
 40
0.003
 41
0.003
 10
-0.011634
 20
-1.148854
 40
0.003
 41
0.003
  0
LWPOLYLINE
  5
1AC
100
AcDbEntity
  8
0
 62
     0
100
AcDbPolyline
 90
        2
 70
     0
 39
0.003
 10
-0.011634
 20
-1.148854
 40
0.003
 41
0.003
 10
-0.013028
 20
-1.161835
 40
0.003
 41
0.003
  0
LWPOLYLINE
  5
1AD
100
AcDbEntity
  8
0
 62
     0
100
AcDbPolyline
 90
        2
 70
     0
 39
0.003
 10
-0.013028
 20
-1.161835
 40
0.003
 41
0.003
 10
-0.015276
 20
-1.174819
 40
0.003
 41
0.003
  0
LWPOLYLINE
  5
1AE
100
AcDbEntity
  8
0
 62
     0
100
AcDbPolyline
 90
        2
 70
     0
 39
0.003
 10
-0.015276
 20
-1.174819
 40
0.003
 41
0.003
 10
-0.018346
 20
-1.187752
 40
0.003
 41
0.003
  0
LWPOLYLINE
  5
1AF
100
AcDbEntity
  8
0
 62
     0
100
AcDbPolyline
 90
        2
 70
     0
 39
0.003
 10
-0.018346
 20
-1.187752
 40
0.003
 41
0.003
 10
-0.022181
 20
-1.200543
 40
0.003
 41
0.003
  0
LWPOLYLINE
  5
1B0
100
AcDbEntity
  8
0
 62
     0
100
AcDbPolyline
 90
        2
 70
     0
 39
0.003
 10
-0.022181
 20
-1.200543
 40
0.003
 41
0.003
 10
-0.026748
 20
-1.21313
 40
0.003
 41
0.003
  0
LWPOLYLINE
  5
1B1
100
AcDbEntity
  8
0
 62
     0
100
AcDbPolyline
 90
        2
 70
     0
 39
0.003
 10
-0.026748
 20
-1.21313
 40
0.003
 41
0.003
 10
-0.03198
 20
-1.225425
 40
0.003
 41
0.003
  0
LWPOLYLINE
  5
1B2
100
AcDbEntity
  8
0
 62
     0
100
AcDbPolyline
 90
        2
 70
     0
 39
0.003
 10
-0.03198
 20
-1.225425
 40
0.003
 41
0.003
 10
-0.037846
 20
-1.237362
 40
0.003
 41
0.003
  0
LWPOLYLINE
  5
1B3
100
AcDbEntity
  8
0
 62
     0
100
AcDbPolyline
 90
        2
 70
     0
 39
0.003
 10
-0.037846
 20
-1.237362
 40
0.003
 41
0.003
 10
-0.044291
 20
-1.248858
 40
0.003
 41
0.003
  0
LWPOLYLINE
  5
1B4
100
AcDbEntity
  8
0
 62
     0
100
AcDbPolyline
 90
        2
 70
     0
 39
0.003
 10
-0.044291
 20
-1.248858
 40
0.003
 41
0.003
 10
-0.051272
 20
-1.259843
 40
0.003
 41
0.003
  0
LWPOLYLINE
  5
1B5
100
AcDbEntity
  8
0
 62
     0
100
AcDbPolyline
 90
        2
 70
     0
 39
0.003
 10
-0.051272
 20
-1.259843
 40
0.003
 41
0.003
 10
-0.058732
 20
-1.270224
 40
0.003
 41
0.003
  0
LWPOLYLINE
  5
1B6
100
AcDbEntity
  8
0
 62
     0
100
AcDbPolyline
 90
        2
 70
     0
 39
0.003
 10
-0.058732
 20
-1.270224
 40
0.003
 41
0.003
 10
-0.066634
 20
-1.279949
 40
0.003
 41
0.003
  0
LWPOLYLINE
  5
1B7
100
AcDbEntity
  8
0
 62
     0
100
AcDbPolyline
 90
        2
 70
     0
 39
0.003
 10
-0.066634
 20
-1.279949
 40
0.003
 41
0.003
 10
-0.074925
 20
-1.288921
 40
0.003
 41
0.003
  0
LWPOLYLINE
  5
1B8
100
AcDbEntity
  8
0
 62
     0
100
AcDbPolyline
 90
        2
 70
     0
 39
0.003
 10
-0.074925
 20
-1.288921
 40
0.003
 41
0.003
 10
-0.083567
 20
-1.297079
 40
0.003
 41
0.003
  0
LWPOLYLINE
  5
1B9
100
AcDbEntity
  8
0
 62
     0
100
AcDbPolyline
 90
        2
 70
     0
 39
0.003
 10
-0.083567
 20
-1.297079
 40
0.003
 41
0.003
 10
-0.092496
 20
-1.304331
 40
0.003
 41
0.003
  0
LWPOLYLINE
  5
1BA
100
AcDbEntity
  8
0
 62
     0
100
AcDbPolyline
 90
        2
 70
     0
 39
0.003
 10
-0.092496
 20
-1.304331
 40
0.003
 41
0.003
 10
-0.101681
 20
-1.310622
 40
0.003
 41
0.003
  0
LWPOLYLINE
  5
1BB
100
AcDbEntity
  8
0
 62
     9
100
AcDbPolyline
 90
        2
 70
     0
 39
0.003
 10
-0.004031
 20
-0.945689
 40
0.003
 41
0.003
 10
0.652118
 20
-0.562161
 40
0.003
 41
0.003
  0
LWPOLYLINE
  5
1BC
100
AcDbEntity
  8
0
 62
     9
100
AcDbPolyline
 90
        2
 70
     0
 39
0.003
 10
0.652118
 20
-0.562161
 40
0.003
 41
0.003
 10
0.651961
 20
-0.52276
 40
0.003
 41
0.003
  0
LWPOLYLINE
  5
1BD
100
AcDbEntity
  8
0
 62
     9
100
AcDbPolyline
 90
        2
 70
     0
 39
0.003
 10
0.651961
 20
-0.52276
 40
0.003
 41
0.003
 10
-0.004189
 20
-0.906287
 40
0.003
 41
0.003
  0
LWPOLYLINE
  5
1BE
100
AcDbEntity
  8
0
 62
     9
100
AcDbPolyline
 90
        2
 70
     0
 39
0.003
 10
-0.004189
 20
-0.906287
 40
0.003
 41
0.003
 10
-0.004031
 20
-0.945689
 40
0.003
 41
0.003
  0
LWPOLYLINE
  5
1BF
100
AcDbEntity
  8
0
 62
     9
100
AcDbPolyline
 90
        2
 70
     0
 39
0.003
 10
-0.004189
 20
-0.906287
 40
0.003
 41
0.003
 10
0.651961
 20
-0.52276
 40
0.003
 41
0.003
  0
LWPOLYLINE
  5
1C0
100
AcDbEntity
  8
0
 62
     9
100
AcDbPolyline
 90
        2
 70
     0
 39
0.003
 10
0.651961
 20
-0.52276
 40
0.003
 41
0.003
 10
0.65152
 20
-0.482937
 40
0.003
 41
0.003
  0
LWPOLYLINE
  5
1C1
100
AcDbEntity
  8
0
 62
     9
100
AcDbPolyline
 90
        2
 70
     0
 39
0.003
 10
0.65152
 20
-0.482937
 40
0.003
 41
0.003
 10
-0.00463
 20
-0.866465
 40
0.003
 41
0.003
  0
LWPOLYLINE
  5
1C2
100
AcDbEntity
  8
0
 62
     9
100
AcDbPolyline
 90
        2
 70
     0
 39
0.003
 10
-0.00463
 20
-0.866465
 40
0.003
 41
0.003
 10
-0.004189
 20
-0.906287
 40
0.003
 41
0.003
  0
LWPOLYLINE
  5
1C3
100
AcDbEntity
  8
0
 62
     9
100
AcDbPolyline
 90
        2
 70
     0
 39
0.003
 10
-0.00463
 20
-0.866465
 40
0.003
 41
0.003
 10
0.65152
 20
-0.482937
 40
0.003
 41
0.003
  0
LWPOLYLINE
  5
1C4
100
AcDbEntity
  8
0
 62
     9
100
AcDbPolyline
 90
        2
 70
     0
 39
0.003
 10
0.65152
 20
-0.482937
 40
0.003
 41
0.003
 10
0.65089
 20
-0.442791
 40
0.003
 41
0.003
  0
LWPOLYLINE
  5
1C5
100
AcDbEntity
  8
0
 62
     9
100
AcDbPolyline
 90
        2
 70
     0
 39
0.003
 10
0.65089
 20
-0.442791
 40
0.003
 41
0.003
 10
-0.00526
 20
-0.826319
 40
0.003
 41
0.003
  0
LWPOLYLINE
  5
1C6
100
AcDbEntity
  8
0
 62
     9
100
AcDbPolyline
 90
        2
 70
     0
 39
0.003
 10
-0.00526
 20
-0.826319
 40
0.003
 41
0.003
 10
-0.00463
 20
-0.866465
 40
0.003
 41
0.003
  0
LWPOLYLINE
  5
1C7
100
AcDbEntity
  8
0
 62
     9
100
AcDbPolyline
 90
        2
 70
     0
 39
0.003
 10
-0.00526
 20
-0.826319
 40
0.003
 41
0.003
 10
0.65089
 20
-0.442791
 40
0.003
 41
0.003
  0
LWPOLYLINE
  5
1C8
100
AcDbEntity
  8
0
 62
     9
100
AcDbPolyline
 90
        2
 70
     0
 39
0.003
 10
0.65089
 20
-0.442791
 40
0.003
 41
0.003
 10
0.650138
 20
-0.402413
 40
0.003
 41
0.003
  0
LWPOLYLINE
  5
1C9
100
AcDbEntity
  8
0
 62
     9
100
AcDbPolyline
 90
        2
 70
     0
 39
0.003
 10
0.650138
 20
-0.402413
 40
0.003
 41
0.003
 10
-0.006012
 20
-0.785941
 40
0.003
 41
0.003
  0
LWPOLYLINE
  5
1CA
100
AcDbEntity
  8
0
 62
     9
100
AcDbPolyline
 90
        2
 70
     0
 39
0.003
 10
-0.006012
 20
-0.785941
 40
0.003
 41
0.003
 10
-0.00526
 20
-0.826319
 40
0.003
 41
0.003
  0
LWPOLYLINE
  5
1CB
100
AcDbEntity
  8
0
 62
     9
100
AcDbPolyline
 90
        2
 70
     0
 39
0.003
 10
-0.006012
 20
-0.785941
 40
0.003
 41
0.003
 10
0.650138
 20
-0.402413
 40
0.003
 41
0.003
  0
LWPOLYLINE
  5
1CC
100
AcDbEntity
  8
0
 62
     9
100
AcDbPolyline
 90
        2
 70
     0
 39
0.003
 10
0.650138
 20
-0.402413
 40
0.003
 41
0.003
 10
0.649354
 20
-0.361894
 40
0.003
 41
0.003
  0
LWPOLYLINE
  5
1CD
100
AcDbEntity
  8
0
 62
     9
100
AcDbPolyline
 90
        2
 70
     0
 39
0.003
 10
0.649354
 20
-0.361894
 40
0.003
 41
0.003
 10
-0.006795
 20
-0.745421
 40
0.003
 41
0.003
  0
LWPOLYLINE
  5
1CE
100
AcDbEntity
  8
0
 62
     9
100
AcDbPolyline
 90
        2
 70
     0
 39
0.003
 10
-0.006795
 20
-0.745421
 40
0.003
 41
0.003
 10
-0.006012
 20
-0.785941
 40
0.003
 41
0.003
  0
LWPOLYLINE
  5
1CF
100
AcDbEntity
  8
0
 62
     9
100
AcDbPolyline
 90
        2
 70
     0
 39
0.003
 10
-0.006795
 20
-0.745421
 40
0.003
 41
0.003
 10
0.649354
 20
-0.361894
 40
0.003
 41
0.003
  0
LWPOLYLINE
  5
1D0
100
AcDbEntity
  8
0
 62
     9
100
AcDbPolyline
 90
        2
 70
     0
 39
0.003
 10
0.649354
 20
-0.361894
 40
0.003
 41
0.003
 10
0.648606
 20
-0.321335
 40
0.003
 41
0.003
  0
LWPOLYLINE
  5
1D1
100
AcDbEntity
  8
0
 62
     9
100
AcDbPolyline
 90
        2
 70
     0
 39
0.003
 10
0.648606
 20
-0.321335
 40
0.003
 41
0.003
 10
-0.007543
 20
-0.704862
 40
0.003
 41
0.003
  0
LWPOLYLINE
  5
1D2
100
AcDbEntity
  8
0
 62
     9
100
AcDbPolyline
 90
        2
 70
     0
 39
0.003
 10
-0.007543
 20
-0.704862
 40
0.003
 41
0.003
 10
-0.006795
 20
-0.745421
 40
0.003
 41
0.003
  0
LWPOLYLINE
  5
1D3
100
AcDbEntity
  8
0
 62
     9
100
AcDbPolyline
 90
        2
 70
     0
 39
0.003
 10
-0.007543
 20
-0.704862
 40
0.003
 41
0.003
 10
0.648606
 20
-0.321335
 40
0.003
 41
0.003
  0
LWPOLYLINE
  5
1D4
100
AcDbEntity
  8
0
 62
     9
100
AcDbPolyline
 90
        2
 70
     0
 39
0.003
 10
0.648606
 20
-0.321335
 40
0.003
 41
0.003
 10
0.64798
 20
-0.280827
 40
0.003
 41
0.003
  0
LWPOLYLINE
  5
1D5
100
AcDbEntity
  8
0
 62
     9
100
AcDbPolyline
 90
        2
 70
     0
 39
0.003
 10
0.64798
 20
-0.280827
 40
0.003
 41
0.003
 10
-0.008169
 20
-0.664354
 40
0.003
 41
0.003
  0
LWPOLYLINE
  5
1D6
100
AcDbEntity
  8
0
 62
     9
100
AcDbPolyline
 90
        2
 70
     0
 39
0.003
 10
-0.008169
 20
-0.664354
 40
0.003
 41
0.003
 10
-0.007543
 20
-0.704862
 40
0.003
 41
0.003
  0
LWPOLYLINE
  5
1D7
100
AcDbEntity
  8
0
 62
     9
100
AcDbPolyline
 90
        2
 70
     0
 39
0.003
 10
-0.008169
 20
-0.664354
 40
0.003
 41
0.003
 10
0.64798
 20
-0.280827
 40
0.003
 41
0.003
  0
LWPOLYLINE
  5
1D8
100
AcDbEntity
  8
0
 62
     9
100
AcDbPolyline
 90
        2
 70
     0
 39
0.003
 10
0.64798
 20
-0.280827
 40
0.003
 41
0.003
 10
0.647543
 20
-0.240472
 40
0.003
 41
0.003
  0
LWPOLYLINE
  5
1D9
100
AcDbEntity
  8
0
 62
     9
100
AcDbPolyline
 90
        2
 70
     0
 39
0.003
 10
0.647543
 20
-0.240472
 40
0.003
 41
0.003
 10
-0.008606
 20
-0.624
 40
0.003
 41
0.003
  0
LWPOLYLINE
  5
1DA
100
AcDbEntity
  8
0
 62
     9
100
AcDbPolyline
 90
        2
 70
     0
 39
0.003
 10
-0.008606
 20
-0.624
 40
0.003
 41
0.003
 10
-0.008169
 20
-0.664354
 40
0.003
 41
0.003
  0
LWPOLYLINE
  5
1DB
100
AcDbEntity
  8
0
 62
     9
100
AcDbPolyline
 90
        2
 70
     0
 39
0.003
 10
-0.008606
 20
-0.624
 40
0.003
 41
0.003
 10
0.647543
 20
-0.240472
 40
0.003
 41
0.003
  0
LWPOLYLINE
  5
1DC
100
AcDbEntity
  8
0
 62
     9
100
AcDbPolyline
 90
        2
 70
     0
 39
0.003
 10
0.647543
 20
-0.240472
 40
0.003
 41
0.003
 10
0.647398
 20
-0.200354
 40
0.003
 41
0.003
  0
LWPOLYLINE
  5
1DD
100
AcDbEntity
  8
0
 62
     9
100
AcDbPolyline
 90
        2
 70
     0
 39
0.003
 10
0.647398
 20
-0.200354
 40
0.003
 41
0.003
 10
-0.008752
 20
-0.583882
 40
0.003
 41
0.003
  0
LWPOLYLINE
  5
1DE
100
AcDbEntity
  8
0
 62
     9
100
AcDbPolyline
 90
        2
 70
     0
 39
0.003
 10
-0.008752
 20
-0.583882
 40
0.003
 41
0.003
 10
-0.008606
 20
-0.624
 40
0.003
 41
0.003
  0
LWPOLYLINE
  5
1DF
100
AcDbEntity
  8
0
 62
     9
100
AcDbPolyline
 90
        2
 70
     0
 39
0.003
 10
-0.008752
 20
-0.583882
 40
0.003
 41
0.003
 10
0.647398
 20
-0.200354
 40
0.003
 41
0.003
  0
LWPOLYLINE
  5
1E0
100
AcDbEntity
  8
0
 62
     9
100
AcDbPolyline
 90
        2
 70
     0
 39
0.003
 10
0.647398
 20
-0.200354
 40
0.003
 41
0.003
 10
0.647598
 20
-0.160579
 40
0.003
 41
0.003
  0
LWPOLYLINE
  5
1E1
100
AcDbEntity
  8
0
 62
     9
100
AcDbPolyline
 90
        2
 70
     0
 39
0.003
 10
0.647598
 20
-0.160579
 40
0.003
 41
0.003
 10
-0.008551
 20
-0.544106
 40
0.003
 41
0.003
  0
LWPOLYLINE
  5
1E2
100
AcDbEntity
  8
0
 62
     9
100
AcDbPolyline
 90
        2
 70
     0
 39
0.003
 10
-0.008551
 20
-0.544106
 40
0.003
 41
0.003
 10
-0.008752
 20
-0.583882
 40
0.003
 41
0.003
  0
LWPOLYLINE
  5
1E3
100
AcDbEntity
  8
0
 62
     9
100
AcDbPolyline
 90
        2
 70
     0
 39
0.003
 10
-0.008551
 20
-0.544106
 40
0.003
 41
0.003
 10
0.647598
 20
-0.160579
 40
0.003
 41
0.003
  0
LWPOLYLINE
  5
1E4
100
AcDbEntity
  8
0
 62
     9
100
AcDbPolyline
 90
        2
 70
     0
 39
0.003
 10
0.647598
 20
-0.160579
 40
0.003
 41
0.003
 10
0.648236
 20
-0.121232
 40
0.003
 41
0.003
  0
LWPOLYLINE
  5
1E5
100
AcDbEntity
  8
0
 62
     9
100
AcDbPolyline
 90
        2
 70
     0
 39
0.003
 10
0.648236
 20
-0.121232
 40
0.003
 41
0.003
 10
-0.007913
 20
-0.50476
 40
0.003
 41
0.003
  0
LWPOLYLINE
  5
1E6
100
AcDbEntity
  8
0
 62
     9
100
AcDbPolyline
 90
        2
 70
     0
 39
0.003
 10
-0.007913
 20
-0.50476
 40
0.003
 41
0.003
 10
-0.008551
 20
-0.544106
 40
0.003
 41
0.003
  0
LWPOLYLINE
  5
1E7
100
AcDbEntity
  8
0
 62
     9
100
AcDbPolyline
 90
        2
 70
     0
 39
0.003
 10
-0.007913
 20
-0.50476
 40
0.003
 41
0.003
 10
0.648236
 20
-0.121232
 40
0.003
 41
0.003
  0
LWPOLYLINE
  5
1E8
100
AcDbEntity
  8
0
 62
     9
100
AcDbPolyline
 90
        2
 70
     0
 39
0.003
 10
0.648236
 20
-0.121232
 40
0.003
 41
0.003
 10
0.649382
 20
-0.082421
 40
0.003
 41
0.003
  0
LWPOLYLINE
  5
1E9
100
AcDbEntity
  8
0
 62
     9
100
AcDbPolyline
 90
        2
 70
     0
 39
0.003
 10
0.649382
 20
-0.082421
 40
0.003
 41
0.003
 10
-0.006768
 20
-0.465949
 40
0.003
 41
0.003
  0
LWPOLYLINE
  5
1EA
100
AcDbEntity
  8
0
 62
     9
100
AcDbPolyline
 90
        2
 70
     0
 39
0.003
 10
-0.006768
 20
-0.465949
 40
0.003
 41
0.003
 10
-0.007913
 20
-0.50476
 40
0.003
 41
0.003
  0
LWPOLYLINE
  5
1EB
100
AcDbEntity
  8
0
 62
     9
100
AcDbPolyline
 90
        2
 70
     0
 39
0.003
 10
-0.006768
 20
-0.465949
 40
0.003
 41
0.003
 10
0.649382
 20
-0.082421
 40
0.003
 41
0.003
  0
LWPOLYLINE
  5
1EC
100
AcDbEntity
  8
0
 62
     9
100
AcDbPolyline
 90
        2
 70
     0
 39
0.003
 10
0.649382
 20
-0.082421
 40
0.003
 41
0.003
 10
0.65113
 20
-0.044224
 40
0.003
 41
0.003
  0
LWPOLYLINE
  5
1ED
100
AcDbEntity
  8
0
 62
     9
100
AcDbPolyline
 90
        2
 70
     0
 39
0.003
 10
0.65113
 20
-0.044224
 40
0.003
 41
0.003
 10
-0.00502
 20
-0.427752
 40
0.003
 41
0.003
  0
LWPOLYLINE
  5
1EE
100
AcDbEntity
  8
0
 62
     9
100
AcDbPolyline
 90
        2
 70
     0
 39
0.003
 10
-0.00502
 20
-0.427752
 40
0.003
 41
0.003
 10
-0.006768
 20
-0.465949
 40
0.003
 41
0.003
  0
LWPOLYLINE
  5
1EF
100
AcDbEntity
  8
0
 62
     9
100
AcDbPolyline
 90
        2
 70
     0
 39
0.003
 10
-0.00502
 20
-0.427752
 40
0.003
 41
0.003
 10
0.65113
 20
-0.044224
 40
0.003
 41
0.003
  0
LWPOLYLINE
  5
1F0
100
AcDbEntity
  8
0
 62
     9
100
AcDbPolyline
 90
        2
 70
     0
 39
0.003
 10
0.65113
 20
-0.044224
 40
0.003
 41
0.003
 10
0.653535
 20
-0.00676
 40
0.003
 41
0.003
  0
LWPOLYLINE
  5
1F1
100
AcDbEntity
  8
0
 62
     9
100
AcDbPolyline
 90
        2
 70
     0
 39
0.003
 10
0.653535
 20
-0.00676
 40
0.003
 41
0.003
 10
-0.002614
 20
-0.390287
 40
0.003
 41
0.003
  0
LWPOLYLINE
  5
1F2
100
AcDbEntity
  8
0
 62
     9
100
AcDbPolyline
 90
        2
 70
     0
 39
0.003
 10
-0.002614
 20
-0.390287
 40
0.003
 41
0.003
 10
-0.00502
 20
-0.427752
 40
0.003
 41
0.003
  0
LWPOLYLINE
  5
1F3
100
AcDbEntity
  8
0
 62
     9
100
AcDbPolyline
 90
        2
 70
     0
 39
0.003
 10
-0.002614
 20
-0.390287
 40
0.003
 41
0.003
 10
0.653535
 20
-0.00676
 40
0.003
 41
0.003
  0
LWPOLYLINE
  5
1F4
100
AcDbEntity
  8
0
 62
     9
100
AcDbPolyline
 90
        2
 70
     0
 39
0.003
 10
0.653535
 20
-0.00676
 40
0.003
 41
0.003
 10
0.656697
 20
0.029898
 40
0.003
 41
0.003
  0
LWPOLYLINE
  5
1F5
100
AcDbEntity
  8
0
 62
     9
100
AcDbPolyline
 90
        2
 70
     0
 39
0.003
 10
0.656697
 20
0.029898
 40
0.003
 41
0.003
 10
0.000547
 20
-0.35363
 40
0.003
 41
0.003
  0
LWPOLYLINE
  5
1F6
100
AcDbEntity
  8
0
 62
     9
100
AcDbPolyline
 90
        2
 70
     0
 39
0.003
 10
0.000547
 20
-0.35363
 40
0.003
 41
0.003
 10
-0.002614
 20
-0.390287
 40
0.003
 41
0.003
  0
LWPOLYLINE
  5
1F7
100
AcDbEntity
  8
0
 62
     9
100
AcDbPolyline
 90
        2
 70
     0
 39
0.003
 10
0.000547
 20
-0.35363
 40
0.003
 41
0.003
 10
0.656697
 20
0.029898
 40
0.003
 41
0.003
  0
LWPOLYLINE
  5
1F8
100
AcDbEntity
  8
0
 62
     9
100
AcDbPolyline
 90
        2
 70
     0
 39
0.003
 10
0.656697
 20
0.029898
 40
0.003
 41
0.003
 10
0.660677
 20
0.065654
 40
0.003
 41
0.003
  0
LWPOLYLINE
  5
1F9
100
AcDbEntity
  8
0
 62
     9
100
AcDbPolyline
 90
        2
 70
     0
 39
0.003
 10
0.660677
 20
0.065654
 40
0.003
 41
0.003
 10
0.004528
 20
-0.317874
 40
0.003
 41
0.003
  0
LWPOLYLINE
  5
1FA
100
AcDbEntity
  8
0
 62
     9
100
AcDbPolyline
 90
        2
 70
     0
 39
0.003
 10
0.004528
 20
-0.317874
 40
0.003
 41
0.003
 10
0.000547
 20
-0.35363
 40
0.003
 41
0.003
  0
LWPOLYLINE
  5
1FB
100
AcDbEntity
  8
0
 62
   253
100
AcDbPolyline
 90
        2
 70
     0
 39
0.003
 10
0.004528
 20
-0.317874
 40
0.003
 41
0.003
 10
0.660677
 20
0.065654
 40
0.003
 41
0.003
  0
LWPOLYLINE
  5
1FC
100
AcDbEntity
  8
0
 62
   253
100
AcDbPolyline
 90
        2
 70
     0
 39
0.003
 10
0.660677
 20
0.065654
 40
0.003
 41
0.003
 10
0.665575
 20
0.100398
 40
0.003
 41
0.003
  0
LWPOLYLINE
  5
1FD
100
AcDbEntity
  8
0
 62
   253
100
AcDbPolyline
 90
        2
 70
     0
 39
0.003
 10
0.665575
 20
0.100398
 40
0.003
 41
0.003
 10
0.009425
 20
-0.28313
 40
0.003
 41
0.003
  0
LWPOLYLINE
  5
1FE
100
AcDbEntity
  8
0
 62
   253
100
AcDbPolyline
 90
        2
 70
     0
 39
0.003
 10
0.009425
 20
-0.28313
 40
0.003
 41
0.003
 10
0.004528
 20
-0.317874
 40
0.003
 41
0.003
  0
LWPOLYLINE
  5
1FF
100
AcDbEntity
  8
0
 62
   253
100
AcDbPolyline
 90
        2
 70
     0
 39
0.003
 10
0.009425
 20
-0.28313
 40
0.003
 41
0.003
 10
0.665575
 20
0.100398
 40
0.003
 41
0.003
  0
LWPOLYLINE
  5
200
100
AcDbEntity
  8
0
 62
   253
100
AcDbPolyline
 90
        2
 70
     0
 39
0.003
 10
0.665575
 20
0.100398
 40
0.003
 41
0.003
 10
0.671457
 20
0.134047
 40
0.003
 41
0.003
  0
LWPOLYLINE
  5
201
100
AcDbEntity
  8
0
 62
   253
100
AcDbPolyline
 90
        2
 70
     0
 39
0.003
 10
0.671457
 20
0.134047
 40
0.003
 41
0.003
 10
0.015307
 20
-0.24948
 40
0.003
 41
0.003
  0
LWPOLYLINE
  5
202
100
AcDbEntity
  8
0
 62
   253
100
AcDbPolyline
 90
        2
 70
     0
 39
0.003
 10
0.015307
 20
-0.24948
 40
0.003
 41
0.003
 10
0.009425
 20
-0.28313
 40
0.003
 41
0.003
  0
LWPOLYLINE
  5
203
100
AcDbEntity
  8
0
 62
   253
100
AcDbPolyline
 90
        2
 70
     0
 39
0.003
 10
0.015307
 20
-0.24948
 40
0.003
 41
0.003
 10
0.671457
 20
0.134047
 40
0.003
 41
0.003
  0
LWPOLYLINE
  5
204
100
AcDbEntity
  8
0
 62
   253
100
AcDbPolyline
 90
        2
 70
     0
 39
0.003
 10
0.671457
 20
0.134047
 40
0.003
 41
0.003
 10
0.678402
 20
0.166504
 40
0.003
 41
0.003
  0
LWPOLYLINE
  5
205
100
AcDbEntity
  8
0
 62
   253
100
AcDbPolyline
 90
        2
 70
     0
 39
0.003
 10
0.678402
 20
0.166504
 40
0.003
 41
0.003
 10
0.022252
 20
-0.217024
 40
0.003
 41
0.003
  0
LWPOLYLINE
  5
206
100
AcDbEntity
  8
0
 62
   253
100
AcDbPolyline
 90
        2
 70
     0
 39
0.003
 10
0.022252
 20
-0.217024
 40
0.003
 41
0.003
 10
0.015307
 20
-0.24948
 40
0.003
 41
0.003
  0
LWPOLYLINE
  5
207
100
AcDbEntity
  8
0
 62
   253
100
AcDbPolyline
 90
        2
 70
     0
 39
0.003
 10
0.022252
 20
-0.217024
 40
0.003
 41
0.003
 10
0.678402
 20
0.166504
 40
0.003
 41
0.003
  0
LWPOLYLINE
  5
208
100
AcDbEntity
  8
0
 62
   253
100
AcDbPolyline
 90
        2
 70
     0
 39
0.003
 10
0.678402
 20
0.166504
 40
0.003
 41
0.003
 10
0.686484
 20
0.197673
 40
0.003
 41
0.003
  0
LWPOLYLINE
  5
209
100
AcDbEntity
  8
0
 62
   253
100
AcDbPolyline
 90
        2
 70
     0
 39
0.003
 10
0.686484
 20
0.197673
 40
0.003
 41
0.003
 10
0.030335
 20
-0.185854
 40
0.003
 41
0.003
  0
LWPOLYLINE
  5
20A
100
AcDbEntity
  8
0
 62
   253
100
AcDbPolyline
 90
        2
 70
     0
 39
0.003
 10
0.030335
 20
-0.185854
 40
0.003
 41
0.003
 10
0.022252
 20
-0.217024
 40
0.003
 41
0.003
  0
LWPOLYLINE
  5
20B
100
AcDbEntity
  8
0
 62
   253
100
AcDbPolyline
 90
        2
 70
     0
 39
0.003
 10
0.030335
 20
-0.185854
 40
0.003
 41
0.003
 10
0.686484
 20
0.197673
 40
0.003
 41
0.003
  0
LWPOLYLINE
  5
20C
100
AcDbEntity
  8
0
 62
   253
100
AcDbPolyline
 90
        2
 70
     0
 39
0.003
 10
0.686484
 20
0.197673
 40
0.003
 41
0.003
 10
0.695791
 20
0.227453
 40
0.003
 41
0.003
  0
LWPOLYLINE
  5
20D
100
AcDbEntity
  8
0
 62
   253
100
AcDbPolyline
 90
        2
 70
     0
 39
0.003
 10
0.695791
 20
0.227453
 40
0.003
 41
0.003
 10
0.039642
 20
-0.156075
 40
0.003
 41
0.003
  0
LWPOLYLINE
  5
20E
100
AcDbEntity
  8
0
 62
   253
100
AcDbPolyline
 90
        2
 70
     0
 39
0.003
 10
0.039642
 20
-0.156075
 40
0.003
 41
0.003
 10
0.030335
 20
-0.185854
 40
0.003
 41
0.003
  0
LWPOLYLINE
  5
20F
100
AcDbEntity
  8
0
 62
   253
100
AcDbPolyline
 90
        2
 70
     0
 39
0.003
 10
0.039642
 20
-0.156075
 40
0.003
 41
0.003
 10
0.695791
 20
0.227453
 40
0.003
 41
0.003
  0
LWPOLYLINE
  5
210
100
AcDbEntity
  8
0
 62
   253
100
AcDbPolyline
 90
        2
 70
     0
 39
0.003
 10
0.695791
 20
0.227453
 40
0.003
 41
0.003
 10
0.706398
 20
0.25576
 40
0.003
 41
0.003
  0
LWPOLYLINE
  5
211
100
AcDbEntity
  8
0
 62
   253
100
AcDbPolyline
 90
        2
 70
     0
 39
0.003
 10
0.706398
 20
0.25576
 40
0.003
 41
0.003
 10
0.050248
 20
-0.127768
 40
0.003
 41
0.003
  0
LWPOLYLINE
  5
212
100
AcDbEntity
  8
0
 62
   253
100
AcDbPolyline
 90
        2
 70
     0
 39
0.003
 10
0.050248
 20
-0.127768
 40
0.003
 41
0.003
 10
0.039642
 20
-0.156075
 40
0.003
 41
0.003
  0
LWPOLYLINE
  5
213
100
AcDbEntity
  8
0
 62
   252
100
AcDbPolyline
 90
        2
 70
     0
 39
0.003
 10
0.050248
 20
-0.127768
 40
0.003
 41
0.003
 10
0.706398
 20
0.25576
 40
0.003
 41
0.003
  0
LWPOLYLINE
  5
214
100
AcDbEntity
  8
0
 62
   252
100
AcDbPolyline
 90
        2
 70
     0
 39
0.003
 10
0.706398
 20
0.25576
 40
0.003
 41
0.003
 10
0.718382
 20
0.282492
 40
0.003
 41
0.003
  0
LWPOLYLINE
  5
215
100
AcDbEntity
  8
0
 62
   252
100
AcDbPolyline
 90
        2
 70
     0
 39
0.003
 10
0.718382
 20
0.282492
 40
0.003
 41
0.003
 10
0.062232
 20
-0.101035
 40
0.003
 41
0.003
  0
LWPOLYLINE
  5
216
100
AcDbEntity
  8
0
 62
   252
100
AcDbPolyline
 90
        2
 70
     0
 39
0.003
 10
0.062232
 20
-0.101035
 40
0.003
 41
0.003
 10
0.050248
 20
-0.127768
 40
0.003
 41
0.003
  0
LWPOLYLINE
  5
217
100
AcDbEntity
  8
0
 62
   252
100
AcDbPolyline
 90
        2
 70
     0
 39
0.003
 10
0.062232
 20
-0.101035
 40
0.003
 41
0.003
 10
0.718382
 20
0.282492
 40
0.003
 41
0.003
  0
LWPOLYLINE
  5
218
100
AcDbEntity
  8
0
 62
   252
100
AcDbPolyline
 90
        2
 70
     0
 39
0.003
 10
0.718382
 20
0.282492
 40
0.003
 41
0.003
 10
0.731823
 20
0.307555
 40
0.003
 41
0.003
  0
LWPOLYLINE
  5
219
100
AcDbEntity
  8
0
 62
   252
100
AcDbPolyline
 90
        2
 70
     0
 39
0.003
 10
0.731823
 20
0.307555
 40
0.003
 41
0.003
 10
0.075673
 20
-0.075972
 40
0.003
 41
0.003
  0
LWPOLYLINE
  5
21A
100
AcDbEntity
  8
0
 62
   252
100
AcDbPolyline
 90
        2
 70
     0
 39
0.003
 10
0.075673
 20
-0.075972
 40
0.003
 41
0.003
 10
0.062232
 20
-0.101035
 40
0.003
 41
0.003
  0
LWPOLYLINE
  5
21B
100
AcDbEntity
  8
0
 62
     8
100
AcDbPolyline
 90
        2
 70
     0
 39
0.003
 10
0.075673
 20
-0.075972
 40
0.003
 41
0.003
 10
0.731823
 20
0.307555
 40
0.003
 41
0.003
  0
LWPOLYLINE
  5
21C
100
AcDbEntity
  8
0
 62
     8
100
AcDbPolyline
 90
        2
 70
     0
 39
0.003
 10
0.731823
 20
0.307555
 40
0.003
 41
0.003
 10
0.746811
 20
0.33085
 40
0.003
 41
0.003
  0
LWPOLYLINE
  5
21D
100
AcDbEntity
  8
0
 62
     8
100
AcDbPolyline
 90
        2
 70
     0
 39
0.003
 10
0.746811
 20
0.33085
 40
0.003
 41
0.003
 10
0.090661
 20
-0.052677
 40
0.003
 41
0.003
  0
LWPOLYLINE
  5
21E
100
AcDbEntity
  8
0
 62
     8
100
AcDbPolyline
 90
        2
 70
     0
 39
0.003
 10
0.090661
 20
-0.052677
 40
0.003
 41
0.003
 10
0.075673
 20
-0.075972
 40
0.003
 41
0.003
  0
LWPOLYLINE
  5
21F
100
AcDbEntity
  8
0
 62
   127
100
AcDbPolyline
 90
        2
 70
     0
 39
0.003
 10
0.090661
 20
-0.052677
 40
0.003
 41
0.003
 10
0.746811
 20
0.33085
 40
0.003
 41
0.003
  0
LWPOLYLINE
  5
220
100
AcDbEntity
  8
0
 62
   127
100
AcDbPolyline
 90
        2
 70
     0
 39
0.003
 10
0.746811
 20
0.33085
 40
0.003
 41
0.003
 10
0.763402
 20
0.352287
 40
0.003
 41
0.003
  0
LWPOLYLINE
  5
221
100
AcDbEntity
  8
0
 62
   127
100
AcDbPolyline
 90
        2
 70
     0
 39
0.003
 10
0.763402
 20
0.352287
 40
0.003
 41
0.003
 10
0.107252
 20
-0.03124
 40
0.003
 41
0.003
  0
LWPOLYLINE
  5
222
100
AcDbEntity
  8
0
 62
   127
100
AcDbPolyline
 90
        2
 70
     0
 39
0.003
 10
0.107252
 20
-0.03124
 40
0.003
 41
0.003
 10
0.090661
 20
-0.052677
 40
0.003
 41
0.003
  0
LWPOLYLINE
  5
223
100
AcDbEntity
  8
0
 62
   251
100
AcDbPolyline
 90
        2
 70
     0
 39
0.003
 10
0.107252
 20
-0.03124
 40
0.003
 41
0.003
 10
0.763402
 20
0.352287
 40
0.003
 41
0.003
  0
LWPOLYLINE
  5
224
100
AcDbEntity
  8
0
 62
   251
100
AcDbPolyline
 90
        2
 70
     0
 39
0.003
 10
0.763402
 20
0.352287
 40
0.003
 41
0.003
 10
0.781693
 20
0.371768
 40
0.003
 41
0.003
  0
LWPOLYLINE
  5
225
100
AcDbEntity
  8
0
 62
   251
100
AcDbPolyline
 90
        2
 70
     0
 39
0.003
 10
0.781693
 20
0.371768
 40
0.003
 41
0.003
 10
0.125543
 20
-0.01176
 40
0.003
 41
0.003
  0
LWPOLYLINE
  5
226
100
AcDbEntity
  8
0
 62
   251
100
AcDbPolyline
 90
        2
 70
     0
 39
0.003
 10
0.125543
 20
-0.01176
 40
0.003
 41
0.003
 10
0.107252
 20
-0.03124
 40
0.003
 41
0.003
  0
LWPOLYLINE
  5
227
100
AcDbEntity
  8
0
 62
   251
100
AcDbPolyline
 90
        2
 70
     0
 39
0.003
 10
0.125543
 20
-0.01176
 40
0.003
 41
0.003
 10
0.781693
 20
0.371768
 40
0.003
 41
0.003
  0
LWPOLYLINE
  5
228
100
AcDbEntity
  8
0
 62
   251
100
AcDbPolyline
 90
        2
 70
     0
 39
0.003
 10
0.781693
 20
0.371768
 40
0.003
 41
0.003
 10
0.801748
 20
0.389209
 40
0.003
 41
0.003
  0
LWPOLYLINE
  5
229
100
AcDbEntity
  8
0
 62
   251
100
AcDbPolyline
 90
        2
 70
     0
 39
0.003
 10
0.801748
 20
0.389209
 40
0.003
 41
0.003
 10
0.145598
 20
0.005681
 40
0.003
 41
0.003
  0
LWPOLYLINE
  5
22A
100
AcDbEntity
  8
0
 62
   251
100
AcDbPolyline
 90
        2
 70
     0
 39
0.003
 10
0.145598
 20
0.005681
 40
0.003
 41
0.003
 10
0.125543
 20
-0.01176
 40
0.003
 41
0.003
  0
LWPOLYLINE
  5
22B
100
AcDbEntity
  8
0
 62
   127
100
AcDbPolyline
 90
        2
 70
     0
 39
0.003
 10
0.145598
 20
0.005681
 40
0.003
 41
0.003
 10
0.801748
 20
0.389209
 40
0.003
 41
0.003
  0
LWPOLYLINE
  5
22C
100
AcDbEntity
  8
0
 62
   127
100
AcDbPolyline
 90
        2
 70
     0
 39
0.003
 10
0.801748
 20
0.389209
 40
0.003
 41
0.003
 10
0.823665
 20
0.404496
 40
0.003
 41
0.003
  0
LWPOLYLINE
  5
22D
100
AcDbEntity
  8
0
 62
   127
100
AcDbPolyline
 90
        2
 70
     0
 39
0.003
 10
0.823665
 20
0.404496
 40
0.003
 41
0.003
 10
0.167516
 20
0.020969
 40
0.003
 41
0.003
  0
LWPOLYLINE
  5
22E
100
AcDbEntity
  8
0
 62
   127
100
AcDbPolyline
 90
        2
 70
     0
 39
0.003
 10
0.167516
 20
0.020969
 40
0.003
 41
0.003
 10
0.145598
 20
0.005681
 40
0.003
 41
0.003
  0
LWPOLYLINE
  5
22F
100
AcDbEntity
  8
0
 62
     8
100
AcDbPolyline
 90
        2
 70
     0
 39
0.003
 10
0.167516
 20
0.020969
 40
0.003
 41
0.003
 10
0.823665
 20
0.404496
 40
0.003
 41
0.003
  0
LWPOLYLINE
  5
230
100
AcDbEntity
  8
0
 62
     8
100
AcDbPolyline
 90
        2
 70
     0
 39
0.003
 10
0.823665
 20
0.404496
 40
0.003
 41
0.003
 10
0.847504
 20
0.417547
 40
0.003
 41
0.003
  0
LWPOLYLINE
  5
231
100
AcDbEntity
  8
0
 62
     8
100
AcDbPolyline
 90
        2
 70
     0
 39
0.003
 10
0.847504
 20
0.417547
 40
0.003
 41
0.003
 10
0.191354
 20
0.03402
 40
0.003
 41
0.003
  0
LWPOLYLINE
  5
232
100
AcDbEntity
  8
0
 62
     8
100
AcDbPolyline
 90
        2
 70
     0
 39
0.003
 10
0.191354
 20
0.03402
 40
0.003
 41
0.003
 10
0.167516
 20
0.020969
 40
0.003
 41
0.003
  0
LWPOLYLINE
  5
233
100
AcDbEntity
  8
0
 62
     0
100
AcDbPolyline
 90
        2
 70
     0
 39
0.003
 10
-0.004031
 20
-0.945689
 40
0.003
 41
0.003
 10
0.652118
 20
-0.562161
 40
0.003
 41
0.003
  0
LWPOLYLINE
  5
234
100
AcDbEntity
  8
0
 62
     0
100
AcDbPolyline
 90
        2
 70
     0
 39
0.003
 10
0.652118
 20
-0.562161
 40
0.003
 41
0.003
 10
0.651961
 20
-0.52276
 40
0.003
 41
0.003
  0
LWPOLYLINE
  5
235
100
AcDbEntity
  8
0
 62
     0
100
AcDbPolyline
 90
        2
 70
     0
 39
0.003
 10
0.651961
 20
-0.52276
 40
0.003
 41
0.003
 10
0.65152
 20
-0.482937
 40
0.003
 41
0.003
  0
LWPOLYLINE
  5
236
100
AcDbEntity
  8
0
 62
     0
100
AcDbPolyline
 90
        2
 70
     0
 39
0.003
 10
0.65152
 20
-0.482937
 40
0.003
 41
0.003
 10
0.65089
 20
-0.442791
 40
0.003
 41
0.003
  0
LWPOLYLINE
  5
237
100
AcDbEntity
  8
0
 62
     0
100
AcDbPolyline
 90
        2
 70
     0
 39
0.003
 10
0.65089
 20
-0.442791
 40
0.003
 41
0.003
 10
0.650138
 20
-0.402413
 40
0.003
 41
0.003
  0
LWPOLYLINE
  5
238
100
AcDbEntity
  8
0
 62
     0
100
AcDbPolyline
 90
        2
 70
     0
 39
0.003
 10
0.650138
 20
-0.402413
 40
0.003
 41
0.003
 10
0.649354
 20
-0.361894
 40
0.003
 41
0.003
  0
LWPOLYLINE
  5
239
100
AcDbEntity
  8
0
 62
     0
100
AcDbPolyline
 90
        2
 70
     0
 39
0.003
 10
0.649354
 20
-0.361894
 40
0.003
 41
0.003
 10
0.648606
 20
-0.321335
 40
0.003
 41
0.003
  0
LWPOLYLINE
  5
23A
100
AcDbEntity
  8
0
 62
     0
100
AcDbPolyline
 90
        2
 70
     0
 39
0.003
 10
0.648606
 20
-0.321335
 40
0.003
 41
0.003
 10
0.64798
 20
-0.280827
 40
0.003
 41
0.003
  0
LWPOLYLINE
  5
23B
100
AcDbEntity
  8
0
 62
     0
100
AcDbPolyline
 90
        2
 70
     0
 39
0.003
 10
0.64798
 20
-0.280827
 40
0.003
 41
0.003
 10
0.647543
 20
-0.240472
 40
0.003
 41
0.003
  0
LWPOLYLINE
  5
23C
100
AcDbEntity
  8
0
 62
     0
100
AcDbPolyline
 90
        2
 70
     0
 39
0.003
 10
0.647543
 20
-0.240472
 40
0.003
 41
0.003
 10
0.647398
 20
-0.200354
 40
0.003
 41
0.003
  0
LWPOLYLINE
  5
23D
100
AcDbEntity
  8
0
 62
     0
100
AcDbPolyline
 90
        2
 70
     0
 39
0.003
 10
0.647398
 20
-0.200354
 40
0.003
 41
0.003
 10
0.647598
 20
-0.160579
 40
0.003
 41
0.003
  0
LWPOLYLINE
  5
23E
100
AcDbEntity
  8
0
 62
     0
100
AcDbPolyline
 90
        2
 70
     0
 39
0.003
 10
0.647598
 20
-0.160579
 40
0.003
 41
0.003
 10
0.648236
 20
-0.121232
 40
0.003
 41
0.003
  0
LWPOLYLINE
  5
23F
100
AcDbEntity
  8
0
 62
     0
100
AcDbPolyline
 90
        2
 70
     0
 39
0.003
 10
0.648236
 20
-0.121232
 40
0.003
 41
0.003
 10
0.649382
 20
-0.082421
 40
0.003
 41
0.003
  0
LWPOLYLINE
  5
240
100
AcDbEntity
  8
0
 62
     0
100
AcDbPolyline
 90
        2
 70
     0
 39
0.003
 10
0.649382
 20
-0.082421
 40
0.003
 41
0.003
 10
0.65113
 20
-0.044224
 40
0.003
 41
0.003
  0
LWPOLYLINE
  5
241
100
AcDbEntity
  8
0
 62
     0
100
AcDbPolyline
 90
        2
 70
     0
 39
0.003
 10
0.65113
 20
-0.044224
 40
0.003
 41
0.003
 10
0.653535
 20
-0.00676
 40
0.003
 41
0.003
  0
LWPOLYLINE
  5
242
100
AcDbEntity
  8
0
 62
     0
100
AcDbPolyline
 90
        2
 70
     0
 39
0.003
 10
0.653535
 20
-0.00676
 40
0.003
 41
0.003
 10
0.656697
 20
0.029898
 40
0.003
 41
0.003
  0
LWPOLYLINE
  5
243
100
AcDbEntity
  8
0
 62
     0
100
AcDbPolyline
 90
        2
 70
     0
 39
0.003
 10
0.656697
 20
0.029898
 40
0.003
 41
0.003
 10
0.660677
 20
0.065654
 40
0.003
 41
0.003
  0
LWPOLYLINE
  5
244
100
AcDbEntity
  8
0
 62
     0
100
AcDbPolyline
 90
        2
 70
     0
 39
0.003
 10
0.660677
 20
0.065654
 40
0.003
 41
0.003
 10
0.665575
 20
0.100398
 40
0.003
 41
0.003
  0
LWPOLYLINE
  5
245
100
AcDbEntity
  8
0
 62
     0
100
AcDbPolyline
 90
        2
 70
     0
 39
0.003
 10
0.665575
 20
0.100398
 40
0.003
 41
0.003
 10
0.671457
 20
0.134047
 40
0.003
 41
0.003
  0
LWPOLYLINE
  5
246
100
AcDbEntity
  8
0
 62
     0
100
AcDbPolyline
 90
        2
 70
     0
 39
0.003
 10
0.671457
 20
0.134047
 40
0.003
 41
0.003
 10
0.678402
 20
0.166504
 40
0.003
 41
0.003
  0
LWPOLYLINE
  5
247
100
AcDbEntity
  8
0
 62
     0
100
AcDbPolyline
 90
        2
 70
     0
 39
0.003
 10
0.678402
 20
0.166504
 40
0.003
 41
0.003
 10
0.686484
 20
0.197673
 40
0.003
 41
0.003
  0
LWPOLYLINE
  5
248
100
AcDbEntity
  8
0
 62
     0
100
AcDbPolyline
 90
        2
 70
     0
 39
0.003
 10
0.686484
 20
0.197673
 40
0.003
 41
0.003
 10
0.695791
 20
0.227453
 40
0.003
 41
0.003
  0
LWPOLYLINE
  5
249
100
AcDbEntity
  8
0
 62
     0
100
AcDbPolyline
 90
        2
 70
     0
 39
0.003
 10
0.695791
 20
0.227453
 40
0.003
 41
0.003
 10
0.706398
 20
0.25576
 40
0.003
 41
0.003
  0
LWPOLYLINE
  5
24A
100
AcDbEntity
  8
0
 62
     0
100
AcDbPolyline
 90
        2
 70
     0
 39
0.003
 10
0.706398
 20
0.25576
 40
0.003
 41
0.003
 10
0.718382
 20
0.282492
 40
0.003
 41
0.003
  0
LWPOLYLINE
  5
24B
100
AcDbEntity
  8
0
 62
     0
100
AcDbPolyline
 90
        2
 70
     0
 39
0.003
 10
0.718382
 20
0.282492
 40
0.003
 41
0.003
 10
0.731823
 20
0.307555
 40
0.003
 41
0.003
  0
LWPOLYLINE
  5
24C
100
AcDbEntity
  8
0
 62
     0
100
AcDbPolyline
 90
        2
 70
     0
 39
0.003
 10
0.731823
 20
0.307555
 40
0.003
 41
0.003
 10
0.746811
 20
0.33085
 40
0.003
 41
0.003
  0
LWPOLYLINE
  5
24D
100
AcDbEntity
  8
0
 62
     0
100
AcDbPolyline
 90
        2
 70
     0
 39
0.003
 10
0.746811
 20
0.33085
 40
0.003
 41
0.003
 10
0.763402
 20
0.352287
 40
0.003
 41
0.003
  0
LWPOLYLINE
  5
24E
100
AcDbEntity
  8
0
 62
     0
100
AcDbPolyline
 90
        2
 70
     0
 39
0.003
 10
0.763402
 20
0.352287
 40
0.003
 41
0.003
 10
0.781693
 20
0.371768
 40
0.003
 41
0.003
  0
LWPOLYLINE
  5
24F
100
AcDbEntity
  8
0
 62
     0
100
AcDbPolyline
 90
        2
 70
     0
 39
0.003
 10
0.781693
 20
0.371768
 40
0.003
 41
0.003
 10
0.801748
 20
0.389209
 40
0.003
 41
0.003
  0
LWPOLYLINE
  5
250
100
AcDbEntity
  8
0
 62
     0
100
AcDbPolyline
 90
        2
 70
     0
 39
0.003
 10
0.801748
 20
0.389209
 40
0.003
 41
0.003
 10
0.823665
 20
0.404496
 40
0.003
 41
0.003
  0
LWPOLYLINE
  5
251
100
AcDbEntity
  8
0
 62
     0
100
AcDbPolyline
 90
        2
 70
     0
 39
0.003
 10
0.823665
 20
0.404496
 40
0.003
 41
0.003
 10
0.847504
 20
0.417547
 40
0.003
 41
0.003
  0
LWPOLYLINE
  5
252
100
AcDbEntity
  8
0
 62
     0
100
AcDbPolyline
 90
        2
 70
     0
 39
0.003
 10
0.847504
 20
0.417547
 40
0.003
 41
0.003
 10
0.191354
 20
0.03402
 40
0.003
 41
0.003
  0
LWPOLYLINE
  5
253
100
AcDbEntity
  8
0
 62
     0
100
AcDbPolyline
 90
        2
 70
     0
 39
0.003
 10
0.191354
 20
0.03402
 40
0.003
 41
0.003
 10
0.167516
 20
0.020969
 40
0.003
 41
0.003
  0
LWPOLYLINE
  5
254
100
AcDbEntity
  8
0
 62
     0
100
AcDbPolyline
 90
        2
 70
     0
 39
0.003
 10
0.167516
 20
0.020969
 40
0.003
 41
0.003
 10
0.145598
 20
0.005681
 40
0.003
 41
0.003
  0
LWPOLYLINE
  5
255
100
AcDbEntity
  8
0
 62
     0
100
AcDbPolyline
 90
        2
 70
     0
 39
0.003
 10
0.145598
 20
0.005681
 40
0.003
 41
0.003
 10
0.125543
 20
-0.01176
 40
0.003
 41
0.003
  0
LWPOLYLINE
  5
256
100
AcDbEntity
  8
0
 62
     0
100
AcDbPolyline
 90
        2
 70
     0
 39
0.003
 10
0.125543
 20
-0.01176
 40
0.003
 41
0.003
 10
0.107252
 20
-0.03124
 40
0.003
 41
0.003
  0
LWPOLYLINE
  5
257
100
AcDbEntity
  8
0
 62
     0
100
AcDbPolyline
 90
        2
 70
     0
 39
0.003
 10
0.107252
 20
-0.03124
 40
0.003
 41
0.003
 10
0.090661
 20
-0.052677
 40
0.003
 41
0.003
  0
LWPOLYLINE
  5
258
100
AcDbEntity
  8
0
 62
     0
100
AcDbPolyline
 90
        2
 70
     0
 39
0.003
 10
0.090661
 20
-0.052677
 40
0.003
 41
0.003
 10
0.075673
 20
-0.075972
 40
0.003
 41
0.003
  0
LWPOLYLINE
  5
259
100
AcDbEntity
  8
0
 62
     0
100
AcDbPolyline
 90
        2
 70
     0
 39
0.003
 10
0.075673
 20
-0.075972
 40
0.003
 41
0.003
 10
0.062232
 20
-0.101035
 40
0.003
 41
0.003
  0
LWPOLYLINE
  5
25A
100
AcDbEntity
  8
0
 62
     0
100
AcDbPolyline
 90
        2
 70
     0
 39
0.003
 10
0.062232
 20
-0.101035
 40
0.003
 41
0.003
 10
0.050248
 20
-0.127768
 40
0.003
 41
0.003
  0
LWPOLYLINE
  5
25B
100
AcDbEntity
  8
0
 62
     0
100
AcDbPolyline
 90
        2
 70
     0
 39
0.003
 10
0.050248
 20
-0.127768
 40
0.003
 41
0.003
 10
0.039642
 20
-0.156075
 40
0.003
 41
0.003
  0
LWPOLYLINE
  5
25C
100
AcDbEntity
  8
0
 62
     0
100
AcDbPolyline
 90
        2
 70
     0
 39
0.003
 10
0.039642
 20
-0.156075
 40
0.003
 41
0.003
 10
0.030335
 20
-0.185854
 40
0.003
 41
0.003
  0
LWPOLYLINE
  5
25D
100
AcDbEntity
  8
0
 62
     0
100
AcDbPolyline
 90
        2
 70
     0
 39
0.003
 10
0.030335
 20
-0.185854
 40
0.003
 41
0.003
 10
0.022252
 20
-0.217024
 40
0.003
 41
0.003
  0
LWPOLYLINE
  5
25E
100
AcDbEntity
  8
0
 62
     0
100
AcDbPolyline
 90
        2
 70
     0
 39
0.003
 10
0.022252
 20
-0.217024
 40
0.003
 41
0.003
 10
0.015307
 20
-0.24948
 40
0.003
 41
0.003
  0
LWPOLYLINE
  5
25F
100
AcDbEntity
  8
0
 62
     0
100
AcDbPolyline
 90
        2
 70
     0
 39
0.003
 10
0.015307
 20
-0.24948
 40
0.003
 41
0.003
 10
0.009425
 20
-0.28313
 40
0.003
 41
0.003
  0
LWPOLYLINE
  5
260
100
AcDbEntity
  8
0
 62
     0
100
AcDbPolyline
 90
        2
 70
     0
 39
0.003
 10
0.009425
 20
-0.28313
 40
0.003
 41
0.003
 10
0.004528
 20
-0.317874
 40
0.003
 41
0.003
  0
LWPOLYLINE
  5
261
100
AcDbEntity
  8
0
 62
     0
100
AcDbPolyline
 90
        2
 70
     0
 39
0.003
 10
0.004528
 20
-0.317874
 40
0.003
 41
0.003
 10
0.000547
 20
-0.35363
 40
0.003
 41
0.003
  0
LWPOLYLINE
  5
262
100
AcDbEntity
  8
0
 62
     0
100
AcDbPolyline
 90
        2
 70
     0
 39
0.003
 10
0.000547
 20
-0.35363
 40
0.003
 41
0.003
 10
-0.002614
 20
-0.390287
 40
0.003
 41
0.003
  0
LWPOLYLINE
  5
263
100
AcDbEntity
  8
0
 62
     0
100
AcDbPolyline
 90
        2
 70
     0
 39
0.003
 10
-0.002614
 20
-0.390287
 40
0.003
 41
0.003
 10
-0.00502
 20
-0.427752
 40
0.003
 41
0.003
  0
LWPOLYLINE
  5
264
100
AcDbEntity
  8
0
 62
     0
100
AcDbPolyline
 90
        2
 70
     0
 39
0.003
 10
-0.00502
 20
-0.427752
 40
0.003
 41
0.003
 10
-0.006768
 20
-0.465949
 40
0.003
 41
0.003
  0
LWPOLYLINE
  5
265
100
AcDbEntity
  8
0
 62
     0
100
AcDbPolyline
 90
        2
 70
     0
 39
0.003
 10
-0.006768
 20
-0.465949
 40
0.003
 41
0.003
 10
-0.007913
 20
-0.50476
 40
0.003
 41
0.003
  0
LWPOLYLINE
  5
266
100
AcDbEntity
  8
0
 62
     0
100
AcDbPolyline
 90
        2
 70
     0
 39
0.003
 10
-0.007913
 20
-0.50476
 40
0.003
 41
0.003
 10
-0.008551
 20
-0.544106
 40
0.003
 41
0.003
  0
LWPOLYLINE
  5
267
100
AcDbEntity
  8
0
 62
     0
100
AcDbPolyline
 90
        2
 70
     0
 39
0.003
 10
-0.008551
 20
-0.544106
 40
0.003
 41
0.003
 10
-0.008752
 20
-0.583882
 40
0.003
 41
0.003
  0
LWPOLYLINE
  5
268
100
AcDbEntity
  8
0
 62
     0
100
AcDbPolyline
 90
        2
 70
     0
 39
0.003
 10
-0.008752
 20
-0.583882
 40
0.003
 41
0.003
 10
-0.008606
 20
-0.624
 40
0.003
 41
0.003
  0
LWPOLYLINE
  5
269
100
AcDbEntity
  8
0
 62
     0
100
AcDbPolyline
 90
        2
 70
     0
 39
0.003
 10
-0.008606
 20
-0.624
 40
0.003
 41
0.003
 10
-0.008169
 20
-0.664354
 40
0.003
 41
0.003
  0
LWPOLYLINE
  5
26A
100
AcDbEntity
  8
0
 62
     0
100
AcDbPolyline
 90
        2
 70
     0
 39
0.003
 10
-0.008169
 20
-0.664354
 40
0.003
 41
0.003
 10
-0.007543
 20
-0.704862
 40
0.003
 41
0.003
  0
LWPOLYLINE
  5
26B
100
AcDbEntity
  8
0
 62
     0
100
AcDbPolyline
 90
        2
 70
     0
 39
0.003
 10
-0.007543
 20
-0.704862
 40
0.003
 41
0.003
 10
-0.006795
 20
-0.745421
 40
0.003
 41
0.003
  0
LWPOLYLINE
  5
26C
100
AcDbEntity
  8
0
 62
     0
100
AcDbPolyline
 90
        2
 70
     0
 39
0.003
 10
-0.006795
 20
-0.745421
 40
0.003
 41
0.003
 10
-0.006012
 20
-0.785941
 40
0.003
 41
0.003
  0
LWPOLYLINE
  5
26D
100
AcDbEntity
  8
0
 62
     0
100
AcDbPolyline
 90
        2
 70
     0
 39
0.003
 10
-0.006012
 20
-0.785941
 40
0.003
 41
0.003
 10
-0.00526
 20
-0.826319
 40
0.003
 41
0.003
  0
LWPOLYLINE
  5
26E
100
AcDbEntity
  8
0
 62
     0
100
AcDbPolyline
 90
        2
 70
     0
 39
0.003
 10
-0.00526
 20
-0.826319
 40
0.003
 41
0.003
 10
-0.00463
 20
-0.866465
 40
0.003
 41
0.003
  0
LWPOLYLINE
  5
26F
100
AcDbEntity
  8
0
 62
     0
100
AcDbPolyline
 90
        2
 70
     0
 39
0.003
 10
-0.00463
 20
-0.866465
 40
0.003
 41
0.003
 10
-0.004189
 20
-0.906287
 40
0.003
 41
0.003
  0
LWPOLYLINE
  5
270
100
AcDbEntity
  8
0
 62
     0
100
AcDbPolyline
 90
        2
 70
     0
 39
0.003
 10
-0.004189
 20
-0.906287
 40
0.003
 41
0.003
 10
-0.004031
 20
-0.945689
 40
0.003
 41
0.003
  0
LWPOLYLINE
  5
271
100
AcDbEntity
  8
0
 62
     9
100
AcDbPolyline
 90
        2
 70
     0
 39
0.003
 10
0.245134
 20
0.053031
 40
0.003
 41
0.003
 10
0.901283
 20
0.436559
 40
0.003
 41
0.003
  0
LWPOLYLINE
  5
272
100
AcDbEntity
  8
0
 62
     9
100
AcDbPolyline
 90
        2
 70
     0
 39
0.003
 10
0.901283
 20
0.436559
 40
0.003
 41
0.003
 10
0.901283
 20
0.560028
 40
0.003
 41
0.003
  0
LWPOLYLINE
  5
273
100
AcDbEntity
  8
0
 62
     9
100
AcDbPolyline
 90
        2
 70
     0
 39
0.003
 10
0.901283
 20
0.560028
 40
0.003
 41
0.003
 10
0.245134
 20
0.1765
 40
0.003
 41
0.003
  0
LWPOLYLINE
  5
274
100
AcDbEntity
  8
0
 62
     9
100
AcDbPolyline
 90
        2
 70
     0
 39
0.003
 10
0.245134
 20
0.1765
 40
0.003
 41
0.003
 10
0.245134
 20
0.053031
 40
0.003
 41
0.003
  0
LWPOLYLINE
  5
275
100
AcDbEntity
  8
0
 62
     0
100
AcDbPolyline
 90
        2
 70
     0
 39
0.003
 10
0.245134
 20
0.053031
 40
0.003
 41
0.003
 10
0.901283
 20
0.436559
 40
0.003
 41
0.003
  0
LWPOLYLINE
  5
276
100
AcDbEntity
  8
0
 62
     0
100
AcDbPolyline
 90
        2
 70
     0
 39
0.003
 10
0.901283
 20
0.436559
 40
0.003
 41
0.003
 10
0.901283
 20
0.560028
 40
0.003
 41
0.003
  0
LWPOLYLINE
  5
277
100
AcDbEntity
  8
0
 62
     0
100
AcDbPolyline
 90
        2
 70
     0
 39
0.003
 10
0.901283
 20
0.560028
 40
0.003
 41
0.003
 10
0.245134
 20
0.1765
 40
0.003
 41
0.003
  0
LWPOLYLINE
  5
278
100
AcDbEntity
  8
0
 62
     0
100
AcDbPolyline
 90
        2
 70
     0
 39
0.003
 10
0.245134
 20
0.1765
 40
0.003
 41
0.003
 10
0.245134
 20
0.053031
 40
0.003
 41
0.003
  0
LWPOLYLINE
  5
279
100
AcDbEntity
  8
0
 62
     8
100
AcDbPolyline
 90
        2
 70
     0
 39
0.003
 10
0.315413
 20
0.210035
 40
0.003
 41
0.003
 10
0.971563
 20
0.593563
 40
0.003
 41
0.003
  0
LWPOLYLINE
  5
27A
100
AcDbEntity
  8
0
 62
     8
100
AcDbPolyline
 90
        2
 70
     0
 39
0.003
 10
0.971563
 20
0.593563
 40
0.003
 41
0.003
 10
1.002972
 20
0.611213
 40
0.003
 41
0.003
  0
LWPOLYLINE
  5
27B
100
AcDbEntity
  8
0
 62
     8
100
AcDbPolyline
 90
        2
 70
     0
 39
0.003
 10
1.002972
 20
0.611213
 40
0.003
 41
0.003
 10
0.346823
 20
0.227685
 40
0.003
 41
0.003
  0
LWPOLYLINE
  5
27C
100
AcDbEntity
  8
0
 62
     8
100
AcDbPolyline
 90
        2
 70
     0
 39
0.003
 10
0.346823
 20
0.227685
 40
0.003
 41
0.003
 10
0.315413
 20
0.210035
 40
0.003
 41
0.003
  0
LWPOLYLINE
  5
27D
100
AcDbEntity
  8
0
 62
     8
100
AcDbPolyline
 90
        2
 70
     0
 39
0.003
 10
0.346823
 20
0.227685
 40
0.003
 41
0.003
 10
1.002972
 20
0.611213
 40
0.003
 41
0.003
  0
LWPOLYLINE
  5
27E
100
AcDbEntity
  8
0
 62
     8
100
AcDbPolyline
 90
        2
 70
     0
 39
0.003
 10
1.002972
 20
0.611213
 40
0.003
 41
0.003
 10
1.031976
 20
0.629366
 40
0.003
 41
0.003
  0
LWPOLYLINE
  5
27F
100
AcDbEntity
  8
0
 62
     8
100
AcDbPolyline
 90
        2
 70
     0
 39
0.003
 10
1.031976
 20
0.629366
 40
0.003
 41
0.003
 10
0.375827
 20
0.245839
 40
0.003
 41
0.003
  0
LWPOLYLINE
  5
280
100
AcDbEntity
  8
0
 62
     8
100
AcDbPolyline
 90
        2
 70
     0
 39
0.003
 10
0.375827
 20
0.245839
 40
0.003
 41
0.003
 10
0.346823
 20
0.227685
 40
0.003
 41
0.003
  0
LWPOLYLINE
  5
281
100
AcDbEntity
  8
0
 62
   127
100
AcDbPolyline
 90
        2
 70
     0
 39
0.003
 10
0.375827
 20
0.245839
 40
0.003
 41
0.003
 10
1.031976
 20
0.629366
 40
0.003
 41
0.003
  0
LWPOLYLINE
  5
282
100
AcDbEntity
  8
0
 62
   127
100
AcDbPolyline
 90
        2
 70
     0
 39
0.003
 10
1.031976
 20
0.629366
 40
0.003
 41
0.003
 10
1.058618
 20
0.647945
 40
0.003
 41
0.003
  0
LWPOLYLINE
  5
283
100
AcDbEntity
  8
0
 62
   127
100
AcDbPolyline
 90
        2
 70
     0
 39
0.003
 10
1.058618
 20
0.647945
 40
0.003
 41
0.003
 10
0.402469
 20
0.264417
 40
0.003
 41
0.003
  0
LWPOLYLINE
  5
284
100
AcDbEntity
  8
0
 62
   127
100
AcDbPolyline
 90
        2
 70
     0
 39
0.003
 10
0.402469
 20
0.264417
 40
0.003
 41
0.003
 10
0.375827
 20
0.245839
 40
0.003
 41
0.003
  0
LWPOLYLINE
  5
285
100
AcDbEntity
  8
0
 62
   127
100
AcDbPolyline
 90
        2
 70
     0
 39
0.003
 10
0.402469
 20
0.264417
 40
0.003
 41
0.003
 10
1.058618
 20
0.647945
 40
0.003
 41
0.003
  0
LWPOLYLINE
  5
286
100
AcDbEntity
  8
0
 62
   127
100
AcDbPolyline
 90
        2
 70
     0
 39
0.003
 10
1.058618
 20
0.647945
 40
0.003
 41
0.003
 10
1.082961
 20
0.666886
 40
0.003
 41
0.003
  0
LWPOLYLINE
  5
287
100
AcDbEntity
  8
0
 62
   127
100
AcDbPolyline
 90
        2
 70
     0
 39
0.003
 10
1.082961
 20
0.666886
 40
0.003
 41
0.003
 10
0.426811
 20
0.283358
 40
0.003
 41
0.003
  0
LWPOLYLINE
  5
288
100
AcDbEntity
  8
0
 62
   127
100
AcDbPolyline
 90
        2
 70
     0
 39
0.003
 10
0.426811
 20
0.283358
 40
0.003
 41
0.003
 10
0.402469
 20
0.264417
 40
0.003
 41
0.003
  0
LWPOLYLINE
  5
289
100
AcDbEntity
  8
0
 62
   251
100
AcDbPolyline
 90
        2
 70
     0
 39
0.003
 10
0.426811
 20
0.283358
 40
0.003
 41
0.003
 10
1.082961
 20
0.666886
 40
0.003
 41
0.003
  0
LWPOLYLINE
  5
28A
100
AcDbEntity
  8
0
 62
   251
100
AcDbPolyline
 90
        2
 70
     0
 39
0.003
 10
1.082961
 20
0.666886
 40
0.003
 41
0.003
 10
1.105055
 20
0.686118
 40
0.003
 41
0.003
  0
LWPOLYLINE
  5
28B
100
AcDbEntity
  8
0
 62
   251
100
AcDbPolyline
 90
        2
 70
     0
 39
0.003
 10
1.105055
 20
0.686118
 40
0.003
 41
0.003
 10
0.448906
 20
0.302591
 40
0.003
 41
0.003
  0
LWPOLYLINE
  5
28C
100
AcDbEntity
  8
0
 62
   251
100
AcDbPolyline
 90
        2
 70
     0
 39
0.003
 10
0.448906
 20
0.302591
 40
0.003
 41
0.003
 10
0.426811
 20
0.283358
 40
0.003
 41
0.003
  0
LWPOLYLINE
  5
28D
100
AcDbEntity
  8
0
 62
   139
100
AcDbPolyline
 90
        2
 70
     0
 39
0.003
 10
0.448906
 20
0.302591
 40
0.003
 41
0.003
 10
1.105055
 20
0.686118
 40
0.003
 41
0.003
  0
LWPOLYLINE
  5
28E
100
AcDbEntity
  8
0
 62
   139
100
AcDbPolyline
 90
        2
 70
     0
 39
0.003
 10
1.105055
 20
0.686118
 40
0.003
 41
0.003
 10
1.124965
 20
0.705579
 40
0.003
 41
0.003
  0
LWPOLYLINE
  5
28F
100
AcDbEntity
  8
0
 62
   139
100
AcDbPolyline
 90
        2
 70
     0
 39
0.003
 10
1.124965
 20
0.705579
 40
0.003
 41
0.003
 10
0.468815
 20
0.322051
 40
0.003
 41
0.003
  0
LWPOLYLINE
  5
290
100
AcDbEntity
  8
0
 62
   139
100
AcDbPolyline
 90
        2
 70
     0
 39
0.003
 10
0.468815
 20
0.322051
 40
0.003
 41
0.003
 10
0.448906
 20
0.302591
 40
0.003
 41
0.003
  0
LWPOLYLINE
  5
291
100
AcDbEntity
  8
0
 62
   251
100
AcDbPolyline
 90
        2
 70
     0
 39
0.003
 10
0.468815
 20
0.322051
 40
0.003
 41
0.003
 10
1.124965
 20
0.705579
 40
0.003
 41
0.003
  0
LWPOLYLINE
  5
292
100
AcDbEntity
  8
0
 62
   251
100
AcDbPolyline
 90
        2
 70
     0
 39
0.003
 10
1.124965
 20
0.705579
 40
0.003
 41
0.003
 10
1.142728
 20
0.725185
 40
0.003
 41
0.003
  0
LWPOLYLINE
  5
293
100
AcDbEntity
  8
0
 62
   251
100
AcDbPolyline
 90
        2
 70
     0
 39
0.003
 10
1.142728
 20
0.725185
 40
0.003
 41
0.003
 10
0.486579
 20
0.341657
 40
0.003
 41
0.003
  0
LWPOLYLINE
  5
294
100
AcDbEntity
  8
0
 62
   251
100
AcDbPolyline
 90
        2
 70
     0
 39
0.003
 10
0.486579
 20
0.341657
 40
0.003
 41
0.003
 10
0.468815
 20
0.322051
 40
0.003
 41
0.003
  0
LWPOLYLINE
  5
295
100
AcDbEntity
  8
0
 62
   127
100
AcDbPolyline
 90
        2
 70
     0
 39
0.003
 10
0.486579
 20
0.341657
 40
0.003
 41
0.003
 10
1.142728
 20
0.725185
 40
0.003
 41
0.003
  0
LWPOLYLINE
  5
296
100
AcDbEntity
  8
0
 62
   127
100
AcDbPolyline
 90
        2
 70
     0
 39
0.003
 10
1.142728
 20
0.725185
 40
0.003
 41
0.003
 10
1.158417
 20
0.744886
 40
0.003
 41
0.003
  0
LWPOLYLINE
  5
297
100
AcDbEntity
  8
0
 62
   127
100
AcDbPolyline
 90
        2
 70
     0
 39
0.003
 10
1.158417
 20
0.744886
 40
0.003
 41
0.003
 10
0.502268
 20
0.361358
 40
0.003
 41
0.003
  0
LWPOLYLINE
  5
298
100
AcDbEntity
  8
0
 62
   127
100
AcDbPolyline
 90
        2
 70
     0
 39
0.003
 10
0.502268
 20
0.361358
 40
0.003
 41
0.003
 10
0.486579
 20
0.341657
 40
0.003
 41
0.003
  0
LWPOLYLINE
  5
299
100
AcDbEntity
  8
0
 62
     8
100
AcDbPolyline
 90
        2
 70
     0
 39
0.003
 10
0.502268
 20
0.361358
 40
0.003
 41
0.003
 10
1.158417
 20
0.744886
 40
0.003
 41
0.003
  0
LWPOLYLINE
  5
29A
100
AcDbEntity
  8
0
 62
     8
100
AcDbPolyline
 90
        2
 70
     0
 39
0.003
 10
1.158417
 20
0.744886
 40
0.003
 41
0.003
 10
1.172079
 20
0.764598
 40
0.003
 41
0.003
  0
LWPOLYLINE
  5
29B
100
AcDbEntity
  8
0
 62
     8
100
AcDbPolyline
 90
        2
 70
     0
 39
0.003
 10
1.172079
 20
0.764598
 40
0.003
 41
0.003
 10
0.515929
 20
0.381071
 40
0.003
 41
0.003
  0
LWPOLYLINE
  5
29C
100
AcDbEntity
  8
0
 62
     8
100
AcDbPolyline
 90
        2
 70
     0
 39
0.003
 10
0.515929
 20
0.381071
 40
0.003
 41
0.003
 10
0.502268
 20
0.361358
 40
0.003
 41
0.003
  0
LWPOLYLINE
  5
29D
100
AcDbEntity
  8
0
 62
     8
100
AcDbPolyline
 90
        2
 70
     0
 39
0.003
 10
0.515929
 20
0.381071
 40
0.003
 41
0.003
 10
1.172079
 20
0.764598
 40
0.003
 41
0.003
  0
LWPOLYLINE
  5
29E
100
AcDbEntity
  8
0
 62
     8
100
AcDbPolyline
 90
        2
 70
     0
 39
0.003
 10
1.172079
 20
0.764598
 40
0.003
 41
0.003
 10
1.183776
 20
0.784272
 40
0.003
 41
0.003
  0
LWPOLYLINE
  5
29F
100
AcDbEntity
  8
0
 62
     8
100
AcDbPolyline
 90
        2
 70
     0
 39
0.003
 10
1.183776
 20
0.784272
 40
0.003
 41
0.003
 10
0.527626
 20
0.400744
 40
0.003
 41
0.003
  0
LWPOLYLINE
  5
2A0
100
AcDbEntity
  8
0
 62
     8
100
AcDbPolyline
 90
        2
 70
     0
 39
0.003
 10
0.527626
 20
0.400744
 40
0.003
 41
0.003
 10
0.515929
 20
0.381071
 40
0.003
 41
0.003
  0
LWPOLYLINE
  5
2A1
100
AcDbEntity
  8
0
 62
   252
100
AcDbPolyline
 90
        2
 70
     0
 39
0.003
 10
0.527626
 20
0.400744
 40
0.003
 41
0.003
 10
1.183776
 20
0.784272
 40
0.003
 41
0.003
  0
LWPOLYLINE
  5
2A2
100
AcDbEntity
  8
0
 62
   252
100
AcDbPolyline
 90
        2
 70
     0
 39
0.003
 10
1.183776
 20
0.784272
 40
0.003
 41
0.003
 10
1.193551
 20
0.803819
 40
0.003
 41
0.003
  0
LWPOLYLINE
  5
2A3
100
AcDbEntity
  8
0
 62
   252
100
AcDbPolyline
 90
        2
 70
     0
 39
0.003
 10
1.193551
 20
0.803819
 40
0.003
 41
0.003
 10
0.537402
 20
0.420291
 40
0.003
 41
0.003
  0
LWPOLYLINE
  5
2A4
100
AcDbEntity
  8
0
 62
   252
100
AcDbPolyline
 90
        2
 70
     0
 39
0.003
 10
0.537402
 20
0.420291
 40
0.003
 41
0.003
 10
0.527626
 20
0.400744
 40
0.003
 41
0.003
  0
LWPOLYLINE
  5
2A5
100
AcDbEntity
  8
0
 62
   253
100
AcDbPolyline
 90
        2
 70
     0
 39
0.003
 10
0.537402
 20
0.420291
 40
0.003
 41
0.003
 10
1.193551
 20
0.803819
 40
0.003
 41
0.003
  0
LWPOLYLINE
  5
2A6
100
AcDbEntity
  8
0
 62
   253
100
AcDbPolyline
 90
        2
 70
     0
 39
0.003
 10
1.193551
 20
0.803819
 40
0.003
 41
0.003
 10
1.201472
 20
0.823181
 40
0.003
 41
0.003
  0
LWPOLYLINE
  5
2A7
100
AcDbEntity
  8
0
 62
   253
100
AcDbPolyline
 90
        2
 70
     0
 39
0.003
 10
1.201472
 20
0.823181
 40
0.003
 41
0.003
 10
0.545323
 20
0.439654
 40
0.003
 41
0.003
  0
LWPOLYLINE
  5
2A8
100
AcDbEntity
  8
0
 62
   253
100
AcDbPolyline
 90
        2
 70
     0
 39
0.003
 10
0.545323
 20
0.439654
 40
0.003
 41
0.003
 10
0.537402
 20
0.420291
 40
0.003
 41
0.003
  0
LWPOLYLINE
  5
2A9
100
AcDbEntity
  8
0
 62
   253
100
AcDbPolyline
 90
        2
 70
     0
 39
0.003
 10
0.545323
 20
0.439654
 40
0.003
 41
0.003
 10
1.201472
 20
0.823181
 40
0.003
 41
0.003
  0
LWPOLYLINE
  5
2AA
100
AcDbEntity
  8
0
 62
   253
100
AcDbPolyline
 90
        2
 70
     0
 39
0.003
 10
1.201472
 20
0.823181
 40
0.003
 41
0.003
 10
1.207587
 20
0.842291
 40
0.003
 41
0.003
  0
LWPOLYLINE
  5
2AB
100
AcDbEntity
  8
0
 62
   253
100
AcDbPolyline
 90
        2
 70
     0
 39
0.003
 10
1.207587
 20
0.842291
 40
0.003
 41
0.003
 10
0.551437
 20
0.458764
 40
0.003
 41
0.003
  0
LWPOLYLINE
  5
2AC
100
AcDbEntity
  8
0
 62
   253
100
AcDbPolyline
 90
        2
 70
     0
 39
0.003
 10
0.551437
 20
0.458764
 40
0.003
 41
0.003
 10
0.545323
 20
0.439654
 40
0.003
 41
0.003
  0
LWPOLYLINE
  5
2AD
100
AcDbEntity
  8
0
 62
   253
100
AcDbPolyline
 90
        2
 70
     0
 39
0.003
 10
0.551437
 20
0.458764
 40
0.003
 41
0.003
 10
1.207587
 20
0.842291
 40
0.003
 41
0.003
  0
LWPOLYLINE
  5
2AE
100
AcDbEntity
  8
0
 62
   253
100
AcDbPolyline
 90
        2
 70
     0
 39
0.003
 10
1.207587
 20
0.842291
 40
0.003
 41
0.003
 10
1.211957
 20
0.861079
 40
0.003
 41
0.003
  0
LWPOLYLINE
  5
2AF
100
AcDbEntity
  8
0
 62
   253
100
AcDbPolyline
 90
        2
 70
     0
 39
0.003
 10
1.211957
 20
0.861079
 40
0.003
 41
0.003
 10
0.555807
 20
0.477551
 40
0.003
 41
0.003
  0
LWPOLYLINE
  5
2B0
100
AcDbEntity
  8
0
 62
   253
100
AcDbPolyline
 90
        2
 70
     0
 39
0.003
 10
0.555807
 20
0.477551
 40
0.003
 41
0.003
 10
0.551437
 20
0.458764
 40
0.003
 41
0.003
  0
LWPOLYLINE
  5
2B1
100
AcDbEntity
  8
0
 62
   253
100
AcDbPolyline
 90
        2
 70
     0
 39
0.003
 10
0.555807
 20
0.477551
 40
0.003
 41
0.003
 10
1.211957
 20
0.861079
 40
0.003
 41
0.003
  0
LWPOLYLINE
  5
2B2
100
AcDbEntity
  8
0
 62
   253
100
AcDbPolyline
 90
        2
 70
     0
 39
0.003
 10
1.211957
 20
0.861079
 40
0.003
 41
0.003
 10
1.214622
 20
0.879465
 40
0.003
 41
0.003
  0
LWPOLYLINE
  5
2B3
100
AcDbEntity
  8
0
 62
   253
100
AcDbPolyline
 90
        2
 70
     0
 39
0.003
 10
1.214622
 20
0.879465
 40
0.003
 41
0.003
 10
0.558472
 20
0.495937
 40
0.003
 41
0.003
  0
LWPOLYLINE
  5
2B4
100
AcDbEntity
  8
0
 62
   253
100
AcDbPolyline
 90
        2
 70
     0
 39
0.003
 10
0.558472
 20
0.495937
 40
0.003
 41
0.003
 10
0.555807
 20
0.477551
 40
0.003
 41
0.003
  0
LWPOLYLINE
  5
2B5
100
AcDbEntity
  8
0
 62
     9
100
AcDbPolyline
 90
        2
 70
     0
 39
0.003
 10
0.558472
 20
0.495937
 40
0.003
 41
0.003
 10
1.214622
 20
0.879465
 40
0.003
 41
0.003
  0
LWPOLYLINE
  5
2B6
100
AcDbEntity
  8
0
 62
     9
100
AcDbPolyline
 90
        2
 70
     0
 39
0.003
 10
1.214622
 20
0.879465
 40
0.003
 41
0.003
 10
1.215657
 20
0.897398
 40
0.003
 41
0.003
  0
LWPOLYLINE
  5
2B7
100
AcDbEntity
  8
0
 62
     9
100
AcDbPolyline
 90
        2
 70
     0
 39
0.003
 10
1.215657
 20
0.897398
 40
0.003
 41
0.003
 10
0.559508
 20
0.51387
 40
0.003
 41
0.003
  0
LWPOLYLINE
  5
2B8
100
AcDbEntity
  8
0
 62
     9
100
AcDbPolyline
 90
        2
 70
     0
 39
0.003
 10
0.559508
 20
0.51387
 40
0.003
 41
0.003
 10
0.558472
 20
0.495937
 40
0.003
 41
0.003
  0
LWPOLYLINE
  5
2B9
100
AcDbEntity
  8
0
 62
     9
100
AcDbPolyline
 90
        2
 70
     0
 39
0.003
 10
0.559508
 20
0.51387
 40
0.003
 41
0.003
 10
1.215657
 20
0.897398
 40
0.003
 41
0.003
  0
LWPOLYLINE
  5
2BA
100
AcDbEntity
  8
0
 62
     9
100
AcDbPolyline
 90
        2
 70
     0
 39
0.003
 10
1.215657
 20
0.897398
 40
0.003
 41
0.003
 10
1.215102
 20
0.914799
 40
0.003
 41
0.003
  0
LWPOLYLINE
  5
2BB
100
AcDbEntity
  8
0
 62
     9
100
AcDbPolyline
 90
        2
 70
     0
 39
0.003
 10
1.215102
 20
0.914799
 40
0.003
 41
0.003
 10
0.558953
 20
0.531272
 40
0.003
 41
0.003
  0
LWPOLYLINE
  5
2BC
100
AcDbEntity
  8
0
 62
     9
100
AcDbPolyline
 90
        2
 70
     0
 39
0.003
 10
0.558953
 20
0.531272
 40
0.003
 41
0.003
 10
0.559508
 20
0.51387
 40
0.003
 41
0.003
  0
LWPOLYLINE
  5
2BD
100
AcDbEntity
  8
0
 62
     9
100
AcDbPolyline
 90
        2
 70
     0
 39
0.003
 10
0.558953
 20
0.531272
 40
0.003
 41
0.003
 10
1.215102
 20
0.914799
 40
0.003
 41
0.003
  0
LWPOLYLINE
  5
2BE
100
AcDbEntity
  8
0
 62
     9
100
AcDbPolyline
 90
        2
 70
     0
 39
0.003
 10
1.215102
 20
0.914799
 40
0.003
 41
0.003
 10
1.213028
 20
0.931606
 40
0.003
 41
0.003
  0
LWPOLYLINE
  5
2BF
100
AcDbEntity
  8
0
 62
     9
100
AcDbPolyline
 90
        2
 70
     0
 39
0.003
 10
1.213028
 20
0.931606
 40
0.003
 41
0.003
 10
0.556878
 20
0.548079
 40
0.003
 41
0.003
  0
LWPOLYLINE
  5
2C0
100
AcDbEntity
  8
0
 62
     9
100
AcDbPolyline
 90
        2
 70
     0
 39
0.003
 10
0.556878
 20
0.548079
 40
0.003
 41
0.003
 10
0.558953
 20
0.531272
 40
0.003
 41
0.003
  0
LWPOLYLINE
  5
2C1
100
AcDbEntity
  8
0
 62
     9
100
AcDbPolyline
 90
        2
 70
     0
 39
0.003
 10
0.556878
 20
0.548079
 40
0.003
 41
0.003
 10
1.213028
 20
0.931606
 40
0.003
 41
0.003
  0
LWPOLYLINE
  5
2C2
100
AcDbEntity
  8
0
 62
     9
100
AcDbPolyline
 90
        2
 70
     0
 39
0.003
 10
1.213028
 20
0.931606
 40
0.003
 41
0.003
 10
1.209472
 20
0.94774
 40
0.003
 41
0.003
  0
LWPOLYLINE
  5
2C3
100
AcDbEntity
  8
0
 62
     9
100
AcDbPolyline
 90
        2
 70
     0
 39
0.003
 10
1.209472
 20
0.94774
 40
0.003
 41
0.003
 10
0.553323
 20
0.564213
 40
0.003
 41
0.003
  0
LWPOLYLINE
  5
2C4
100
AcDbEntity
  8
0
 62
     9
100
AcDbPolyline
 90
        2
 70
     0
 39
0.003
 10
0.553323
 20
0.564213
 40
0.003
 41
0.003
 10
0.556878
 20
0.548079
 40
0.003
 41
0.003
  0
LWPOLYLINE
  5
2C5
100
AcDbEntity
  8
0
 62
     9
100
AcDbPolyline
 90
        2
 70
     0
 39
0.003
 10
0.553323
 20
0.564213
 40
0.003
 41
0.003
 10
1.209472
 20
0.94774
 40
0.003
 41
0.003
  0
LWPOLYLINE
  5
2C6
100
AcDbEntity
  8
0
 62
     9
100
AcDbPolyline
 90
        2
 70
     0
 39
0.003
 10
1.209472
 20
0.94774
 40
0.003
 41
0.003
 10
1.204508
 20
0.963146
 40
0.003
 41
0.003
  0
LWPOLYLINE
  5
2C7
100
AcDbEntity
  8
0
 62
     9
100
AcDbPolyline
 90
        2
 70
     0
 39
0.003
 10
1.204508
 20
0.963146
 40
0.003
 41
0.003
 10
0.548358
 20
0.579618
 40
0.003
 41
0.003
  0
LWPOLYLINE
  5
2C8
100
AcDbEntity
  8
0
 62
     9
100
AcDbPolyline
 90
        2
 70
     0
 39
0.003
 10
0.548358
 20
0.579618
 40
0.003
 41
0.003
 10
0.553323
 20
0.564213
 40
0.003
 41
0.003
  0
LWPOLYLINE
  5
2C9
100
AcDbEntity
  8
0
 62
     9
100
AcDbPolyline
 90
        2
 70
     0
 39
0.003
 10
0.548358
 20
0.579618
 40
0.003
 41
0.003
 10
1.204508
 20
0.963146
 40
0.003
 41
0.003
  0
LWPOLYLINE
  5
2CA
100
AcDbEntity
  8
0
 62
     9
100
AcDbPolyline
 90
        2
 70
     0
 39
0.003
 10
1.204508
 20
0.963146
 40
0.003
 41
0.003
 10
1.198173
 20
0.977748
 40
0.003
 41
0.003
  0
LWPOLYLINE
  5
2CB
100
AcDbEntity
  8
0
 62
     9
100
AcDbPolyline
 90
        2
 70
     0
 39
0.003
 10
1.198173
 20
0.977748
 40
0.003
 41
0.003
 10
0.542024
 20
0.59422
 40
0.003
 41
0.003
  0
LWPOLYLINE
  5
2CC
100
AcDbEntity
  8
0
 62
     9
100
AcDbPolyline
 90
        2
 70
     0
 39
0.003
 10
0.542024
 20
0.59422
 40
0.003
 41
0.003
 10
0.548358
 20
0.579618
 40
0.003
 41
0.003
  0
LWPOLYLINE
  5
2CD
100
AcDbEntity
  8
0
 62
     9
100
AcDbPolyline
 90
        2
 70
     0
 39
0.003
 10
0.542024
 20
0.59422
 40
0.003
 41
0.003
 10
1.198173
 20
0.977748
 40
0.003
 41
0.003
  0
LWPOLYLINE
  5
2CE
100
AcDbEntity
  8
0
 62
     9
100
AcDbPolyline
 90
        2
 70
     0
 39
0.003
 10
1.198173
 20
0.977748
 40
0.003
 41
0.003
 10
1.190539
 20
0.991484
 40
0.003
 41
0.003
  0
LWPOLYLINE
  5
2CF
100
AcDbEntity
  8
0
 62
     9
100
AcDbPolyline
 90
        2
 70
     0
 39
0.003
 10
1.190539
 20
0.991484
 40
0.003
 41
0.003
 10
0.53439
 20
0.607957
 40
0.003
 41
0.003
  0
LWPOLYLINE
  5
2D0
100
AcDbEntity
  8
0
 62
     9
100
AcDbPolyline
 90
        2
 70
     0
 39
0.003
 10
0.53439
 20
0.607957
 40
0.003
 41
0.003
 10
0.542024
 20
0.59422
 40
0.003
 41
0.003
  0
LWPOLYLINE
  5
2D1
100
AcDbEntity
  8
0
 62
     9
100
AcDbPolyline
 90
        2
 70
     0
 39
0.003
 10
0.53439
 20
0.607957
 40
0.003
 41
0.003
 10
1.190539
 20
0.991484
 40
0.003
 41
0.003
  0
LWPOLYLINE
  5
2D2
100
AcDbEntity
  8
0
 62
     9
100
AcDbPolyline
 90
        2
 70
     0
 39
0.003
 10
1.190539
 20
0.991484
 40
0.003
 41
0.003
 10
1.181646
 20
1.004272
 40
0.003
 41
0.003
  0
LWPOLYLINE
  5
2D3
100
AcDbEntity
  8
0
 62
     9
100
AcDbPolyline
 90
        2
 70
     0
 39
0.003
 10
1.181646
 20
1.004272
 40
0.003
 41
0.003
 10
0.525496
 20
0.620744
 40
0.003
 41
0.003
  0
LWPOLYLINE
  5
2D4
100
AcDbEntity
  8
0
 62
     9
100
AcDbPolyline
 90
        2
 70
     0
 39
0.003
 10
0.525496
 20
0.620744
 40
0.003
 41
0.003
 10
0.53439
 20
0.607957
 40
0.003
 41
0.003
  0
LWPOLYLINE
  5
2D5
100
AcDbEntity
  8
0
 62
     9
100
AcDbPolyline
 90
        2
 70
     0
 39
0.003
 10
0.525496
 20
0.620744
 40
0.003
 41
0.003
 10
1.181646
 20
1.004272
 40
0.003
 41
0.003
  0
LWPOLYLINE
  5
2D6
100
AcDbEntity
  8
0
 62
     9
100
AcDbPolyline
 90
        2
 70
     0
 39
0.003
 10
1.181646
 20
1.004272
 40
0.003
 41
0.003
 10
1.171559
 20
1.016055
 40
0.003
 41
0.003
  0
LWPOLYLINE
  5
2D7
100
AcDbEntity
  8
0
 62
     9
100
AcDbPolyline
 90
        2
 70
     0
 39
0.003
 10
1.171559
 20
1.016055
 40
0.003
 41
0.003
 10
0.515409
 20
0.632528
 40
0.003
 41
0.003
  0
LWPOLYLINE
  5
2D8
100
AcDbEntity
  8
0
 62
     9
100
AcDbPolyline
 90
        2
 70
     0
 39
0.003
 10
0.515409
 20
0.632528
 40
0.003
 41
0.003
 10
0.525496
 20
0.620744
 40
0.003
 41
0.003
  0
LWPOLYLINE
  5
2D9
100
AcDbEntity
  8
0
 62
     9
100
AcDbPolyline
 90
        2
 70
     0
 39
0.003
 10
0.515409
 20
0.632528
 40
0.003
 41
0.003
 10
1.171559
 20
1.016055
 40
0.003
 41
0.003
  0
LWPOLYLINE
  5
2DA
100
AcDbEntity
  8
0
 62
     9
100
AcDbPolyline
 90
        2
 70
     0
 39
0.003
 10
1.171559
 20
1.016055
 40
0.003
 41
0.003
 10
1.160331
 20
1.026764
 40
0.003
 41
0.003
  0
LWPOLYLINE
  5
2DB
100
AcDbEntity
  8
0
 62
     9
100
AcDbPolyline
 90
        2
 70
     0
 39
0.003
 10
1.160331
 20
1.026764
 40
0.003
 41
0.003
 10
0.504181
 20
0.643236
 40
0.003
 41
0.003
  0
LWPOLYLINE
  5
2DC
100
AcDbEntity
  8
0
 62
     9
100
AcDbPolyline
 90
        2
 70
     0
 39
0.003
 10
0.504181
 20
0.643236
 40
0.003
 41
0.003
 10
0.515409
 20
0.632528
 40
0.003
 41
0.003
  0
LWPOLYLINE
  5
2DD
100
AcDbEntity
  8
0
 62
     9
100
AcDbPolyline
 90
        2
 70
     0
 39
0.003
 10
0.504181
 20
0.643236
 40
0.003
 41
0.003
 10
1.160331
 20
1.026764
 40
0.003
 41
0.003
  0
LWPOLYLINE
  5
2DE
100
AcDbEntity
  8
0
 62
     9
100
AcDbPolyline
 90
        2
 70
     0
 39
0.003
 10
1.160331
 20
1.026764
 40
0.003
 41
0.003
 10
1.14802
 20
1.036331
 40
0.003
 41
0.003
  0
LWPOLYLINE
  5
2DF
100
AcDbEntity
  8
0
 62
     9
100
AcDbPolyline
 90
        2
 70
     0
 39
0.003
 10
1.14802
 20
1.036331
 40
0.003
 41
0.003
 10
0.49187
 20
0.652803
 40
0.003
 41
0.003
  0
LWPOLYLINE
  5
2E0
100
AcDbEntity
  8
0
 62
     9
100
AcDbPolyline
 90
        2
 70
     0
 39
0.003
 10
0.49187
 20
0.652803
 40
0.003
 41
0.003
 10
0.504181
 20
0.643236
 40
0.003
 41
0.003
  0
LWPOLYLINE
  5
2E1
100
AcDbEntity
  8
0
 62
     9
100
AcDbPolyline
 90
        2
 70
     0
 39
0.003
 10
0.49187
 20
0.652803
 40
0.003
 41
0.003
 10
1.14802
 20
1.036331
 40
0.003
 41
0.003
  0
LWPOLYLINE
  5
2E2
100
AcDbEntity
  8
0
 62
     9
100
AcDbPolyline
 90
        2
 70
     0
 39
0.003
 10
1.14802
 20
1.036331
 40
0.003
 41
0.003
 10
1.134673
 20
1.044673
 40
0.003
 41
0.003
  0
LWPOLYLINE
  5
2E3
100
AcDbEntity
  8
0
 62
     9
100
AcDbPolyline
 90
        2
 70
     0
 39
0.003
 10
1.134673
 20
1.044673
 40
0.003
 41
0.003
 10
0.478524
 20
0.661146
 40
0.003
 41
0.003
  0
LWPOLYLINE
  5
2E4
100
AcDbEntity
  8
0
 62
     9
100
AcDbPolyline
 90
        2
 70
     0
 39
0.003
 10
0.478524
 20
0.661146
 40
0.003
 41
0.003
 10
0.49187
 20
0.652803
 40
0.003
 41
0.003
  0
LWPOLYLINE
  5
2E5
100
AcDbEntity
  8
0
 62
     9
100
AcDbPolyline
 90
        2
 70
     0
 39
0.003
 10
0.478524
 20
0.661146
 40
0.003
 41
0.003
 10
1.134673
 20
1.044673
 40
0.003
 41
0.003
  0
LWPOLYLINE
  5
2E6
100
AcDbEntity
  8
0
 62
     9
100
AcDbPolyline
 90
        2
 70
     0
 39
0.003
 10
1.134673
 20
1.044673
 40
0.003
 41
0.003
 10
1.120354
 20
1.051748
 40
0.003
 41
0.003
  0
LWPOLYLINE
  5
2E7
100
AcDbEntity
  8
0
 62
     9
100
AcDbPolyline
 90
        2
 70
     0
 39
0.003
 10
1.120354
 20
1.051748
 40
0.003
 41
0.003
 10
0.464205
 20
0.66822
 40
0.003
 41
0.003
  0
LWPOLYLINE
  5
2E8
100
AcDbEntity
  8
0
 62
     9
100
AcDbPolyline
 90
        2
 70
     0
 39
0.003
 10
0.464205
 20
0.66822
 40
0.003
 41
0.003
 10
0.478524
 20
0.661146
 40
0.003
 41
0.003
  0
LWPOLYLINE
  5
2E9
100
AcDbEntity
  8
0
 62
     9
100
AcDbPolyline
 90
        2
 70
     0
 39
0.003
 10
0.464205
 20
0.66822
 40
0.003
 41
0.003
 10
1.120354
 20
1.051748
 40
0.003
 41
0.003
  0
LWPOLYLINE
  5
2EA
100
AcDbEntity
  8
0
 62
     9
100
AcDbPolyline
 90
        2
 70
     0
 39
0.003
 10
1.120354
 20
1.051748
 40
0.003
 41
0.003
 10
1.105114
 20
1.057465
 40
0.003
 41
0.003
  0
LWPOLYLINE
  5
2EB
100
AcDbEntity
  8
0
 62
     9
100
AcDbPolyline
 90
        2
 70
     0
 39
0.003
 10
1.105114
 20
1.057465
 40
0.003
 41
0.003
 10
0.448965
 20
0.673937
 40
0.003
 41
0.003
  0
LWPOLYLINE
  5
2EC
100
AcDbEntity
  8
0
 62
     9
100
AcDbPolyline
 90
        2
 70
     0
 39
0.003
 10
0.448965
 20
0.673937
 40
0.003
 41
0.003
 10
0.464205
 20
0.66822
 40
0.003
 41
0.003
  0
LWPOLYLINE
  5
2ED
100
AcDbEntity
  8
0
 62
     9
100
AcDbPolyline
 90
        2
 70
     0
 39
0.003
 10
0.448965
 20
0.673937
 40
0.003
 41
0.003
 10
1.105114
 20
1.057465
 40
0.003
 41
0.003
  0
LWPOLYLINE
  5
2EE
100
AcDbEntity
  8
0
 62
     9
100
AcDbPolyline
 90
        2
 70
     0
 39
0.003
 10
1.105114
 20
1.057465
 40
0.003
 41
0.003
 10
1.089012
 20
1.061768
 40
0.003
 41
0.003
  0
LWPOLYLINE
  5
2EF
100
AcDbEntity
  8
0
 62
     9
100
AcDbPolyline
 90
        2
 70
     0
 39
0.003
 10
1.089012
 20
1.061768
 40
0.003
 41
0.003
 10
0.432862
 20
0.67824
 40
0.003
 41
0.003
  0
LWPOLYLINE
  5
2F0
100
AcDbEntity
  8
0
 62
     9
100
AcDbPolyline
 90
        2
 70
     0
 39
0.003
 10
0.432862
 20
0.67824
 40
0.003
 41
0.003
 10
0.448965
 20
0.673937
 40
0.003
 41
0.003
  0
LWPOLYLINE
  5
2F1
100
AcDbEntity
  8
0
 62
     0
100
AcDbPolyline
 90
        2
 70
     0
 39
0.003
 10
0.315413
 20
0.210035
 40
0.003
 41
0.003
 10
0.971563
 20
0.593563
 40
0.003
 41
0.003
  0
LWPOLYLINE
  5
2F2
100
AcDbEntity
  8
0
 62
     0
100
AcDbPolyline
 90
        2
 70
     0
 39
0.003
 10
0.971563
 20
0.593563
 40
0.003
 41
0.003
 10
1.002972
 20
0.611213
 40
0.003
 41
0.003
  0
LWPOLYLINE
  5
2F3
100
AcDbEntity
  8
0
 62
     0
100
AcDbPolyline
 90
        2
 70
     0
 39
0.003
 10
1.002972
 20
0.611213
 40
0.003
 41
0.003
 10
1.031976
 20
0.629366
 40
0.003
 41
0.003
  0
LWPOLYLINE
  5
2F4
100
AcDbEntity
  8
0
 62
     0
100
AcDbPolyline
 90
        2
 70
     0
 39
0.003
 10
1.031976
 20
0.629366
 40
0.003
 41
0.003
 10
1.058618
 20
0.647945
 40
0.003
 41
0.003
  0
LWPOLYLINE
  5
2F5
100
AcDbEntity
  8
0
 62
     0
100
AcDbPolyline
 90
        2
 70
     0
 39
0.003
 10
1.058618
 20
0.647945
 40
0.003
 41
0.003
 10
1.082961
 20
0.666886
 40
0.003
 41
0.003
  0
LWPOLYLINE
  5
2F6
100
AcDbEntity
  8
0
 62
     0
100
AcDbPolyline
 90
        2
 70
     0
 39
0.003
 10
1.082961
 20
0.666886
 40
0.003
 41
0.003
 10
1.105055
 20
0.686118
 40
0.003
 41
0.003
  0
LWPOLYLINE
  5
2F7
100
AcDbEntity
  8
0
 62
     0
100
AcDbPolyline
 90
        2
 70
     0
 39
0.003
 10
1.105055
 20
0.686118
 40
0.003
 41
0.003
 10
1.124965
 20
0.705579
 40
0.003
 41
0.003
  0
LWPOLYLINE
  5
2F8
100
AcDbEntity
  8
0
 62
     0
100
AcDbPolyline
 90
        2
 70
     0
 39
0.003
 10
1.124965
 20
0.705579
 40
0.003
 41
0.003
 10
1.142728
 20
0.725185
 40
0.003
 41
0.003
  0
LWPOLYLINE
  5
2F9
100
AcDbEntity
  8
0
 62
     0
100
AcDbPolyline
 90
        2
 70
     0
 39
0.003
 10
1.142728
 20
0.725185
 40
0.003
 41
0.003
 10
1.158417
 20
0.744886
 40
0.003
 41
0.003
  0
LWPOLYLINE
  5
2FA
100
AcDbEntity
  8
0
 62
     0
100
AcDbPolyline
 90
        2
 70
     0
 39
0.003
 10
1.158417
 20
0.744886
 40
0.003
 41
0.003
 10
1.172079
 20
0.764598
 40
0.003
 41
0.003
  0
LWPOLYLINE
  5
2FB
100
AcDbEntity
  8
0
 62
     0
100
AcDbPolyline
 90
        2
 70
     0
 39
0.003
 10
1.172079
 20
0.764598
 40
0.003
 41
0.003
 10
1.183776
 20
0.784272
 40
0.003
 41
0.003
  0
LWPOLYLINE
  5
2FC
100
AcDbEntity
  8
0
 62
     0
100
AcDbPolyline
 90
        2
 70
     0
 39
0.003
 10
1.183776
 20
0.784272
 40
0.003
 41
0.003
 10
1.193551
 20
0.803819
 40
0.003
 41
0.003
  0
LWPOLYLINE
  5
2FD
100
AcDbEntity
  8
0
 62
     0
100
AcDbPolyline
 90
        2
 70
     0
 39
0.003
 10
1.193551
 20
0.803819
 40
0.003
 41
0.003
 10
1.201472
 20
0.823181
 40
0.003
 41
0.003
  0
LWPOLYLINE
  5
2FE
100
AcDbEntity
  8
0
 62
     0
100
AcDbPolyline
 90
        2
 70
     0
 39
0.003
 10
1.201472
 20
0.823181
 40
0.003
 41
0.003
 10
1.207587
 20
0.842291
 40
0.003
 41
0.003
  0
LWPOLYLINE
  5
2FF
100
AcDbEntity
  8
0
 62
     0
100
AcDbPolyline
 90
        2
 70
     0
 39
0.003
 10
1.207587
 20
0.842291
 40
0.003
 41
0.003
 10
1.211957
 20
0.861079
 40
0.003
 41
0.003
  0
LWPOLYLINE
  5
300
100
AcDbEntity
  8
0
 62
     0
100
AcDbPolyline
 90
        2
 70
     0
 39
0.003
 10
1.211957
 20
0.861079
 40
0.003
 41
0.003
 10
1.214622
 20
0.879465
 40
0.003
 41
0.003
  0
LWPOLYLINE
  5
301
100
AcDbEntity
  8
0
 62
     0
100
AcDbPolyline
 90
        2
 70
     0
 39
0.003
 10
1.214622
 20
0.879465
 40
0.003
 41
0.003
 10
1.215657
 20
0.897398
 40
0.003
 41
0.003
  0
LWPOLYLINE
  5
302
100
AcDbEntity
  8
0
 62
     0
100
AcDbPolyline
 90
        2
 70
     0
 39
0.003
 10
1.215657
 20
0.897398
 40
0.003
 41
0.003
 10
1.215102
 20
0.914799
 40
0.003
 41
0.003
  0
LWPOLYLINE
  5
303
100
AcDbEntity
  8
0
 62
     0
100
AcDbPolyline
 90
        2
 70
     0
 39
0.003
 10
1.215102
 20
0.914799
 40
0.003
 41
0.003
 10
1.213028
 20
0.931606
 40
0.003
 41
0.003
  0
LWPOLYLINE
  5
304
100
AcDbEntity
  8
0
 62
     0
100
AcDbPolyline
 90
        2
 70
     0
 39
0.003
 10
1.213028
 20
0.931606
 40
0.003
 41
0.003
 10
1.209472
 20
0.94774
 40
0.003
 41
0.003
  0
LWPOLYLINE
  5
305
100
AcDbEntity
  8
0
 62
     0
100
AcDbPolyline
 90
        2
 70
     0
 39
0.003
 10
1.209472
 20
0.94774
 40
0.003
 41
0.003
 10
1.204508
 20
0.963146
 40
0.003
 41
0.003
  0
LWPOLYLINE
  5
306
100
AcDbEntity
  8
0
 62
     0
100
AcDbPolyline
 90
        2
 70
     0
 39
0.003
 10
1.204508
 20
0.963146
 40
0.003
 41
0.003
 10
1.198173
 20
0.977748
 40
0.003
 41
0.003
  0
LWPOLYLINE
  5
307
100
AcDbEntity
  8
0
 62
     0
100
AcDbPolyline
 90
        2
 70
     0
 39
0.003
 10
1.198173
 20
0.977748
 40
0.003
 41
0.003
 10
1.190539
 20
0.991484
 40
0.003
 41
0.003
  0
LWPOLYLINE
  5
308
100
AcDbEntity
  8
0
 62
     0
100
AcDbPolyline
 90
        2
 70
     0
 39
0.003
 10
1.190539
 20
0.991484
 40
0.003
 41
0.003
 10
1.181646
 20
1.004272
 40
0.003
 41
0.003
  0
LWPOLYLINE
  5
309
100
AcDbEntity
  8
0
 62
     0
100
AcDbPolyline
 90
        2
 70
     0
 39
0.003
 10
1.181646
 20
1.004272
 40
0.003
 41
0.003
 10
1.171559
 20
1.016055
 40
0.003
 41
0.003
  0
LWPOLYLINE
  5
30A
100
AcDbEntity
  8
0
 62
     0
100
AcDbPolyline
 90
        2
 70
     0
 39
0.003
 10
1.171559
 20
1.016055
 40
0.003
 41
0.003
 10
1.160331
 20
1.026764
 40
0.003
 41
0.003
  0
LWPOLYLINE
  5
30B
100
AcDbEntity
  8
0
 62
     0
100
AcDbPolyline
 90
        2
 70
     0
 39
0.003
 10
1.160331
 20
1.026764
 40
0.003
 41
0.003
 10
1.14802
 20
1.036331
 40
0.003
 41
0.003
  0
LWPOLYLINE
  5
30C
100
AcDbEntity
  8
0
 62
     0
100
AcDbPolyline
 90
        2
 70
     0
 39
0.003
 10
1.14802
 20
1.036331
 40
0.003
 41
0.003
 10
1.134673
 20
1.044673
 40
0.003
 41
0.003
  0
LWPOLYLINE
  5
30D
100
AcDbEntity
  8
0
 62
     0
100
AcDbPolyline
 90
        2
 70
     0
 39
0.003
 10
1.134673
 20
1.044673
 40
0.003
 41
0.003
 10
1.120354
 20
1.051748
 40
0.003
 41
0.003
  0
LWPOLYLINE
  5
30E
100
AcDbEntity
  8
0
 62
     0
100
AcDbPolyline
 90
        2
 70
     0
 39
0.003
 10
1.120354
 20
1.051748
 40
0.003
 41
0.003
 10
1.105114
 20
1.057465
 40
0.003
 41
0.003
  0
LWPOLYLINE
  5
30F
100
AcDbEntity
  8
0
 62
     0
100
AcDbPolyline
 90
        2
 70
     0
 39
0.003
 10
1.105114
 20
1.057465
 40
0.003
 41
0.003
 10
1.089012
 20
1.061768
 40
0.003
 41
0.003
  0
LWPOLYLINE
  5
310
100
AcDbEntity
  8
0
 62
     0
100
AcDbPolyline
 90
        2
 70
     0
 39
0.003
 10
1.089012
 20
1.061768
 40
0.003
 41
0.003
 10
0.432862
 20
0.67824
 40
0.003
 41
0.003
  0
LWPOLYLINE
  5
311
100
AcDbEntity
  8
0
 62
     0
100
AcDbPolyline
 90
        2
 70
     0
 39
0.003
 10
0.432862
 20
0.67824
 40
0.003
 41
0.003
 10
0.448965
 20
0.673937
 40
0.003
 41
0.003
  0
LWPOLYLINE
  5
312
100
AcDbEntity
  8
0
 62
     0
100
AcDbPolyline
 90
        2
 70
     0
 39
0.003
 10
0.448965
 20
0.673937
 40
0.003
 41
0.003
 10
0.464205
 20
0.66822
 40
0.003
 41
0.003
  0
LWPOLYLINE
  5
313
100
AcDbEntity
  8
0
 62
     0
100
AcDbPolyline
 90
        2
 70
     0
 39
0.003
 10
0.464205
 20
0.66822
 40
0.003
 41
0.003
 10
0.478524
 20
0.661146
 40
0.003
 41
0.003
  0
LWPOLYLINE
  5
314
100
AcDbEntity
  8
0
 62
     0
100
AcDbPolyline
 90
        2
 70
     0
 39
0.003
 10
0.478524
 20
0.661146
 40
0.003
 41
0.003
 10
0.49187
 20
0.652803
 40
0.003
 41
0.003
  0
LWPOLYLINE
  5
315
100
AcDbEntity
  8
0
 62
     0
100
AcDbPolyline
 90
        2
 70
     0
 39
0.003
 10
0.49187
 20
0.652803
 40
0.003
 41
0.003
 10
0.504181
 20
0.643236
 40
0.003
 41
0.003
  0
LWPOLYLINE
  5
316
100
AcDbEntity
  8
0
 62
     0
100
AcDbPolyline
 90
        2
 70
     0
 39
0.003
 10
0.504181
 20
0.643236
 40
0.003
 41
0.003
 10
0.515409
 20
0.632528
 40
0.003
 41
0.003
  0
LWPOLYLINE
  5
317
100
AcDbEntity
  8
0
 62
     0
100
AcDbPolyline
 90
        2
 70
     0
 39
0.003
 10
0.515409
 20
0.632528
 40
0.003
 41
0.003
 10
0.525496
 20
0.620744
 40
0.003
 41
0.003
  0
LWPOLYLINE
  5
318
100
AcDbEntity
  8
0
 62
     0
100
AcDbPolyline
 90
        2
 70
     0
 39
0.003
 10
0.525496
 20
0.620744
 40
0.003
 41
0.003
 10
0.53439
 20
0.607957
 40
0.003
 41
0.003
  0
LWPOLYLINE
  5
319
100
AcDbEntity
  8
0
 62
     0
100
AcDbPolyline
 90
        2
 70
     0
 39
0.003
 10
0.53439
 20
0.607957
 40
0.003
 41
0.003
 10
0.542024
 20
0.59422
 40
0.003
 41
0.003
  0
LWPOLYLINE
  5
31A
100
AcDbEntity
  8
0
 62
     0
100
AcDbPolyline
 90
        2
 70
     0
 39
0.003
 10
0.542024
 20
0.59422
 40
0.003
 41
0.003
 10
0.548358
 20
0.579618
 40
0.003
 41
0.003
  0
LWPOLYLINE
  5
31B
100
AcDbEntity
  8
0
 62
     0
100
AcDbPolyline
 90
        2
 70
     0
 39
0.003
 10
0.548358
 20
0.579618
 40
0.003
 41
0.003
 10
0.553323
 20
0.564213
 40
0.003
 41
0.003
  0
LWPOLYLINE
  5
31C
100
AcDbEntity
  8
0
 62
     0
100
AcDbPolyline
 90
        2
 70
     0
 39
0.003
 10
0.553323
 20
0.564213
 40
0.003
 41
0.003
 10
0.556878
 20
0.548079
 40
0.003
 41
0.003
  0
LWPOLYLINE
  5
31D
100
AcDbEntity
  8
0
 62
     0
100
AcDbPolyline
 90
        2
 70
     0
 39
0.003
 10
0.556878
 20
0.548079
 40
0.003
 41
0.003
 10
0.558953
 20
0.531272
 40
0.003
 41
0.003
  0
LWPOLYLINE
  5
31E
100
AcDbEntity
  8
0
 62
     0
100
AcDbPolyline
 90
        2
 70
     0
 39
0.003
 10
0.558953
 20
0.531272
 40
0.003
 41
0.003
 10
0.559508
 20
0.51387
 40
0.003
 41
0.003
  0
LWPOLYLINE
  5
31F
100
AcDbEntity
  8
0
 62
     0
100
AcDbPolyline
 90
        2
 70
     0
 39
0.003
 10
0.559508
 20
0.51387
 40
0.003
 41
0.003
 10
0.558472
 20
0.495937
 40
0.003
 41
0.003
  0
LWPOLYLINE
  5
320
100
AcDbEntity
  8
0
 62
     0
100
AcDbPolyline
 90
        2
 70
     0
 39
0.003
 10
0.558472
 20
0.495937
 40
0.003
 41
0.003
 10
0.555807
 20
0.477551
 40
0.003
 41
0.003
  0
LWPOLYLINE
  5
321
100
AcDbEntity
  8
0
 62
     0
100
AcDbPolyline
 90
        2
 70
     0
 39
0.003
 10
0.555807
 20
0.477551
 40
0.003
 41
0.003
 10
0.551437
 20
0.458764
 40
0.003
 41
0.003
  0
LWPOLYLINE
  5
322
100
AcDbEntity
  8
0
 62
     0
100
AcDbPolyline
 90
        2
 70
     0
 39
0.003
 10
0.551437
 20
0.458764
 40
0.003
 41
0.003
 10
0.545323
 20
0.439654
 40
0.003
 41
0.003
  0
LWPOLYLINE
  5
323
100
AcDbEntity
  8
0
 62
     0
100
AcDbPolyline
 90
        2
 70
     0
 39
0.003
 10
0.545323
 20
0.439654
 40
0.003
 41
0.003
 10
0.537402
 20
0.420291
 40
0.003
 41
0.003
  0
LWPOLYLINE
  5
324
100
AcDbEntity
  8
0
 62
     0
100
AcDbPolyline
 90
        2
 70
     0
 39
0.003
 10
0.537402
 20
0.420291
 40
0.003
 41
0.003
 10
0.527626
 20
0.400744
 40
0.003
 41
0.003
  0
LWPOLYLINE
  5
325
100
AcDbEntity
  8
0
 62
     0
100
AcDbPolyline
 90
        2
 70
     0
 39
0.003
 10
0.527626
 20
0.400744
 40
0.003
 41
0.003
 10
0.515929
 20
0.381071
 40
0.003
 41
0.003
  0
LWPOLYLINE
  5
326
100
AcDbEntity
  8
0
 62
     0
100
AcDbPolyline
 90
        2
 70
     0
 39
0.003
 10
0.515929
 20
0.381071
 40
0.003
 41
0.003
 10
0.502268
 20
0.361358
 40
0.003
 41
0.003
  0
LWPOLYLINE
  5
327
100
AcDbEntity
  8
0
 62
     0
100
AcDbPolyline
 90
        2
 70
     0
 39
0.003
 10
0.502268
 20
0.361358
 40
0.003
 41
0.003
 10
0.486579
 20
0.341657
 40
0.003
 41
0.003
  0
LWPOLYLINE
  5
328
100
AcDbEntity
  8
0
 62
     0
100
AcDbPolyline
 90
        2
 70
     0
 39
0.003
 10
0.486579
 20
0.341657
 40
0.003
 41
0.003
 10
0.468815
 20
0.322051
 40
0.003
 41
0.003
  0
LWPOLYLINE
  5
329
100
AcDbEntity
  8
0
 62
     0
100
AcDbPolyline
 90
        2
 70
     0
 39
0.003
 10
0.468815
 20
0.322051
 40
0.003
 41
0.003
 10
0.448906
 20
0.302591
 40
0.003
 41
0.003
  0
LWPOLYLINE
  5
32A
100
AcDbEntity
  8
0
 62
     0
100
AcDbPolyline
 90
        2
 70
     0
 39
0.003
 10
0.448906
 20
0.302591
 40
0.003
 41
0.003
 10
0.426811
 20
0.283358
 40
0.003
 41
0.003
  0
LWPOLYLINE
  5
32B
100
AcDbEntity
  8
0
 62
     0
100
AcDbPolyline
 90
        2
 70
     0
 39
0.003
 10
0.426811
 20
0.283358
 40
0.003
 41
0.003
 10
0.402469
 20
0.264417
 40
0.003
 41
0.003
  0
LWPOLYLINE
  5
32C
100
AcDbEntity
  8
0
 62
     0
100
AcDbPolyline
 90
        2
 70
     0
 39
0.003
 10
0.402469
 20
0.264417
 40
0.003
 41
0.003
 10
0.375827
 20
0.245839
 40
0.003
 41
0.003
  0
LWPOLYLINE
  5
32D
100
AcDbEntity
  8
0
 62
     0
100
AcDbPolyline
 90
        2
 70
     0
 39
0.003
 10
0.375827
 20
0.245839
 40
0.003
 41
0.003
 10
0.346823
 20
0.227685
 40
0.003
 41
0.003
  0
LWPOLYLINE
  5
32E
100
AcDbEntity
  8
0
 62
     0
100
AcDbPolyline
 90
        2
 70
     0
 39
0.003
 10
0.346823
 20
0.227685
 40
0.003
 41
0.003
 10
0.315413
 20
0.210035
 40
0.003
 41
0.003
  0
LWPOLYLINE
  5
32F
100
AcDbEntity
  8
0
 62
     9
100
AcDbPolyline
 90
        2
 70
     0
 39
0.003
 10
0.432862
 20
0.67824
 40
0.003
 41
0.003
 10
1.089012
 20
1.061768
 40
0.003
 41
0.003
  0
LWPOLYLINE
  5
330
100
AcDbEntity
  8
0
 62
     9
100
AcDbPolyline
 90
        2
 70
     0
 39
0.003
 10
1.089012
 20
1.061768
 40
0.003
 41
0.003
 10
1.089012
 20
1.124874
 40
0.003
 41
0.003
  0
LWPOLYLINE
  5
331
100
AcDbEntity
  8
0
 62
     9
100
AcDbPolyline
 90
        2
 70
     0
 39
0.003
 10
1.089012
 20
1.124874
 40
0.003
 41
0.003
 10
0.432862
 20
0.741346
 40
0.003
 41
0.003
  0
LWPOLYLINE
  5
332
100
AcDbEntity
  8
0
 62
     9
100
AcDbPolyline
 90
        2
 70
     0
 39
0.003
 10
0.432862
 20
0.741346
 40
0.003
 41
0.003
 10
0.432862
 20
0.67824
 40
0.003
 41
0.003
  0
LWPOLYLINE
  5
333
100
AcDbEntity
  8
0
 62
     0
100
AcDbPolyline
 90
        2
 70
     0
 39
0.003
 10
0.432862
 20
0.67824
 40
0.003
 41
0.003
 10
1.089012
 20
1.061768
 40
0.003
 41
0.003
  0
LWPOLYLINE
  5
334
100
AcDbEntity
  8
0
 62
     0
100
AcDbPolyline
 90
        2
 70
     0
 39
0.003
 10
1.089012
 20
1.061768
 40
0.003
 41
0.003
 10
1.089012
 20
1.124874
 40
0.003
 41
0.003
  0
LWPOLYLINE
  5
335
100
AcDbEntity
  8
0
 62
     0
100
AcDbPolyline
 90
        2
 70
     0
 39
0.003
 10
1.089012
 20
1.124874
 40
0.003
 41
0.003
 10
0.432862
 20
0.741346
 40
0.003
 41
0.003
  0
LWPOLYLINE
  5
336
100
AcDbEntity
  8
0
 62
     0
100
AcDbPolyline
 90
        2
 70
     0
 39
0.003
 10
0.432862
 20
0.741346
 40
0.003
 41
0.003
 10
0.432862
 20
0.67824
 40
0.003
 41
0.003
  0
LWPOLYLINE
  5
337
100
AcDbEntity
  8
0
 62
     9
100
AcDbPolyline
 90
        2
 70
     0
 39
0.003
 10
0.556118
 20
0.741346
 40
0.003
 41
0.003
 10
1.212268
 20
1.124874
 40
0.003
 41
0.003
  0
LWPOLYLINE
  5
338
100
AcDbEntity
  8
0
 62
     9
100
AcDbPolyline
 90
        2
 70
     0
 39
0.003
 10
1.212268
 20
1.124874
 40
0.003
 41
0.003
 10
1.212268
 20
1.499626
 40
0.003
 41
0.003
  0
LWPOLYLINE
  5
339
100
AcDbEntity
  8
0
 62
     9
100
AcDbPolyline
 90
        2
 70
     0
 39
0.003
 10
1.212268
 20
1.499626
 40
0.003
 41
0.003
 10
0.556118
 20
1.116098
 40
0.003
 41
0.003
  0
LWPOLYLINE
  5
33A
100
AcDbEntity
  8
0
 62
     9
100
AcDbPolyline
 90
        2
 70
     0
 39
0.003
 10
0.556118
 20
1.116098
 40
0.003
 41
0.003
 10
0.556118
 20
0.741346
 40
0.003
 41
0.003
  0
LWPOLYLINE
  5
33B
100
AcDbEntity
  8
0
 62
     0
100
AcDbPolyline
 90
        2
 70
     0
 39
0.003
 10
0.556118
 20
0.741346
 40
0.003
 41
0.003
 10
1.212268
 20
1.124874
 40
0.003
 41
0.003
  0
LWPOLYLINE
  5
33C
100
AcDbEntity
  8
0
 62
     0
100
AcDbPolyline
 90
        2
 70
     0
 39
0.003
 10
1.212268
 20
1.124874
 40
0.003
 41
0.003
 10
1.212268
 20
1.499626
 40
0.003
 41
0.003
  0
LWPOLYLINE
  5
33D
100
AcDbEntity
  8
0
 62
     0
100
AcDbPolyline
 90
        2
 70
     0
 39
0.003
 10
1.212268
 20
1.499626
 40
0.003
 41
0.003
 10
0.556118
 20
1.116098
 40
0.003
 41
0.003
  0
LWPOLYLINE
  5
33E
100
AcDbEntity
  8
0
 62
     0
100
AcDbPolyline
 90
        2
 70
     0
 39
0.003
 10
0.556118
 20
1.116098
 40
0.003
 41
0.003
 10
0.556118
 20
0.741346
 40
0.003
 41
0.003
  0
LWPOLYLINE
  5
33F
100
AcDbEntity
  8
0
 62
   253
100
AcDbPolyline
 90
        2
 70
     0
 39
0.003
 10
0.556118
 20
1.116098
 40
0.003
 41
0.003
 10
1.212268
 20
1.499626
 40
0.003
 41
0.003
  0
LWPOLYLINE
  5
340
100
AcDbEntity
  8
0
 62
   253
100
AcDbPolyline
 90
        2
 70
     0
 39
0.003
 10
1.212268
 20
1.499626
 40
0.003
 41
0.003
 10
-0.537732
 20
1.499626
 40
0.003
 41
0.003
  0
LWPOLYLINE
  5
341
100
AcDbEntity
  8
0
 62
   253
100
AcDbPolyline
 90
        2
 70
     0
 39
0.003
 10
-0.537732
 20
1.499626
 40
0.003
 41
0.003
 10
-1.193882
 20
1.116098
 40
0.003
 41
0.003
  0
LWPOLYLINE
  5
342
100
AcDbEntity
  8
0
 62
   253
100
AcDbPolyline
 90
        2
 70
     0
 39
0.003
 10
-1.193882
 20
1.116098
 40
0.003
 41
0.003
 10
0.556118
 20
1.116098
 40
0.003
 41
0.003
  0
LWPOLYLINE
  5
343
100
AcDbEntity
  8
0
 62
     0
100
AcDbPolyline
 90
        2
 70
     0
 39
0.003
 10
0.556118
 20
1.116098
 40
0.003
 41
0.003
 10
1.212268
 20
1.499626
 40
0.003
 41
0.003
  0
LWPOLYLINE
  5
344
100
AcDbEntity
  8
0
 62
     0
100
AcDbPolyline
 90
        2
 70
     0
 39
0.003
 10
1.212268
 20
1.499626
 40
0.003
 41
0.003
 10
-0.537732
 20
1.499626
 40
0.003
 41
0.003
  0
LWPOLYLINE
  5
345
100
AcDbEntity
  8
0
 62
     0
100
AcDbPolyline
 90
        2
 70
     0
 39
0.003
 10
-0.537732
 20
1.499626
 40
0.003
 41
0.003
 10
-1.193882
 20
1.116098
 40
0.003
 41
0.003
  0
LWPOLYLINE
  5
346
100
AcDbEntity
  8
0
 62
     0
100
AcDbPolyline
 90
        2
 70
     0
 39
0.003
 10
-1.193882
 20
1.116098
 40
0.003
 41
0.003
 10
0.556118
 20
1.116098
 40
0.003
 41
0.003
  0
LWPOLYLINE
  5
347
100
AcDbEntity
  8
0
 62
     9
100
AcDbPolyline
 90
        2
 70
     0
 39
0.003
 10
-0.309228
 20
-3.756732
 40
0.003
 41
0.003
 10
0.346921
 20
-3.373205
 40
0.003
 41
0.003
  0
LWPOLYLINE
  5
348
100
AcDbEntity
  8
0
 62
     9
100
AcDbPolyline
 90
        2
 70
     0
 39
0.003
 10
0.346921
 20
-3.373205
 40
0.003
 41
0.003
 10
0.346921
 20
-1.642398
 40
0.003
 41
0.003
  0
LWPOLYLINE
  5
349
100
AcDbEntity
  8
0
 62
     9
100
AcDbPolyline
 90
        2
 70
     0
 39
0.003
 10
0.346921
 20
-1.642398
 40
0.003
 41
0.003
 10
-0.309228
 20
-2.025925
 40
0.003
 41
0.003
  0
LWPOLYLINE
  5
34A
100
AcDbEntity
  8
0
 62
     9
100
AcDbPolyline
 90
        2
 70
     0
 39
0.003
 10
-0.309228
 20
-2.025925
 40
0.003
 41
0.003
 10
-0.309228
 20
-3.756732
 40
0.003
 41
0.003
  0
LWPOLYLINE
  5
34B
100
AcDbEntity
  8
0
 62
     0
100
AcDbPolyline
 90
        2
 70
     0
 39
0.003
 10
-0.309228
 20
-3.756732
 40
0.003
 41
0.003
 10
0.346921
 20
-3.373205
 40
0.003
 41
0.003
  0
LWPOLYLINE
  5
34C
100
AcDbEntity
  8
0
 62
     0
100
AcDbPolyline
 90
        2
 70
     0
 39
0.003
 10
0.346921
 20
-3.373205
 40
0.003
 41
0.003
 10
0.346921
 20
-1.642398
 40
0.003
 41
0.003
  0
LWPOLYLINE
  5
34D
100
AcDbEntity
  8
0
 62
     0
100
AcDbPolyline
 90
        2
 70
     0
 39
0.003
 10
0.346921
 20
-1.642398
 40
0.003
 41
0.003
 10
-0.309228
 20
-2.025925
 40
0.003
 41
0.003
  0
LWPOLYLINE
  5
34E
100
AcDbEntity
  8
0
 62
     0
100
AcDbPolyline
 90
        2
 70
     0
 39
0.003
 10
-0.309228
 20
-2.025925
 40
0.003
 41
0.003
 10
-0.309228
 20
-3.756732
 40
0.003
 41
0.003
  0
LWPOLYLINE
  5
34F
100
AcDbEntity
  8
0
 62
     9
100
AcDbPolyline
 90
        2
 70
     0
 39
0.003
 10
-0.309228
 20
-2.025925
 40
0.003
 41
0.003
 10
0.346921
 20
-1.642398
 40
0.003
 41
0.003
  0
LWPOLYLINE
  5
350
100
AcDbEntity
  8
0
 62
     9
100
AcDbPolyline
 90
        2
 70
     0
 39
0.003
 10
0.346921
 20
-1.642398
 40
0.003
 41
0.003
 10
0.346886
 20
-1.624681
 40
0.003
 41
0.003
  0
LWPOLYLINE
  5
351
100
AcDbEntity
  8
0
 62
     9
100
AcDbPolyline
 90
        2
 70
     0
 39
0.003
 10
0.346886
 20
-1.624681
 40
0.003
 41
0.003
 10
-0.309264
 20
-2.008209
 40
0.003
 41
0.003
  0
LWPOLYLINE
  5
352
100
AcDbEntity
  8
0
 62
     9
100
AcDbPolyline
 90
        2
 70
     0
 39
0.003
 10
-0.309264
 20
-2.008209
 40
0.003
 41
0.003
 10
-0.309228
 20
-2.025925
 40
0.003
 41
0.003
  0
LWPOLYLINE
  5
353
100
AcDbEntity
  8
0
 62
     9
100
AcDbPolyline
 90
        2
 70
     0
 39
0.003
 10
-0.309264
 20
-2.008209
 40
0.003
 41
0.003
 10
0.346886
 20
-1.624681
 40
0.003
 41
0.003
  0
LWPOLYLINE
  5
354
100
AcDbEntity
  8
0
 62
     9
100
AcDbPolyline
 90
        2
 70
     0
 39
0.003
 10
0.346886
 20
-1.624681
 40
0.003
 41
0.003
 10
0.346795
 20
-1.606244
 40
0.003
 41
0.003
  0
LWPOLYLINE
  5
355
100
AcDbEntity
  8
0
 62
     9
100
AcDbPolyline
 90
        2
 70
     0
 39
0.003
 10
0.346795
 20
-1.606244
 40
0.003
 41
0.003
 10
-0.309354
 20
-1.989772
 40
0.003
 41
0.003
  0
LWPOLYLINE
  5
356
100
AcDbEntity
  8
0
 62
     9
100
AcDbPolyline
 90
        2
 70
     0
 39
0.003
 10
-0.309354
 20
-1.989772
 40
0.003
 41
0.003
 10
-0.309264
 20
-2.008209
 40
0.003
 41
0.003
  0
LWPOLYLINE
  5
357
100
AcDbEntity
  8
0
 62
     9
100
AcDbPolyline
 90
        2
 70
     0
 39
0.003
 10
-0.309354
 20
-1.989772
 40
0.003
 41
0.003
 10
0.346795
 20
-1.606244
 40
0.003
 41
0.003
  0
LWPOLYLINE
  5
358
100
AcDbEntity
  8
0
 62
     9
100
AcDbPolyline
 90
        2
 70
     0
 39
0.003
 10
0.346795
 20
-1.606244
 40
0.003
 41
0.003
 10
0.346701
 20
-1.587146
 40
0.003
 41
0.003
  0
LWPOLYLINE
  5
359
100
AcDbEntity
  8
0
 62
     9
100
AcDbPolyline
 90
        2
 70
     0
 39
0.003
 10
0.346701
 20
-1.587146
 40
0.003
 41
0.003
 10
-0.309449
 20
-1.970673
 40
0.003
 41
0.003
  0
LWPOLYLINE
  5
35A
100
AcDbEntity
  8
0
 62
     9
100
AcDbPolyline
 90
        2
 70
     0
 39
0.003
 10
-0.309449
 20
-1.970673
 40
0.003
 41
0.003
 10
-0.309354
 20
-1.989772
 40
0.003
 41
0.003
  0
LWPOLYLINE
  5
35B
100
AcDbEntity
  8
0
 62
     9
100
AcDbPolyline
 90
        2
 70
     0
 39
0.003
 10
-0.309449
 20
-1.970673
 40
0.003
 41
0.003
 10
0.346701
 20
-1.587146
 40
0.003
 41
0.003
  0
LWPOLYLINE
  5
35C
100
AcDbEntity
  8
0
 62
     9
100
AcDbPolyline
 90
        2
 70
     0
 39
0.003
 10
0.346701
 20
-1.587146
 40
0.003
 41
0.003
 10
0.346634
 20
-1.567457
 40
0.003
 41
0.003
  0
LWPOLYLINE
  5
35D
100
AcDbEntity
  8
0
 62
     9
100
AcDbPolyline
 90
        2
 70
     0
 39
0.003
 10
0.346634
 20
-1.567457
 40
0.003
 41
0.003
 10
-0.309516
 20
-1.950984
 40
0.003
 41
0.003
  0
LWPOLYLINE
  5
35E
100
AcDbEntity
  8
0
 62
     9
100
AcDbPolyline
 90
        2
 70
     0
 39
0.003
 10
-0.309516
 20
-1.950984
 40
0.003
 41
0.003
 10
-0.309449
 20
-1.970673
 40
0.003
 41
0.003
  0
LWPOLYLINE
  5
35F
100
AcDbEntity
  8
0
 62
     9
100
AcDbPolyline
 90
        2
 70
     0
 39
0.003
 10
-0.309516
 20
-1.950984
 40
0.003
 41
0.003
 10
0.346634
 20
-1.567457
 40
0.003
 41
0.003
  0
LWPOLYLINE
  5
360
100
AcDbEntity
  8
0
 62
     9
100
AcDbPolyline
 90
        2
 70
     0
 39
0.003
 10
0.346634
 20
-1.567457
 40
0.003
 41
0.003
 10
0.346657
 20
-1.547248
 40
0.003
 41
0.003
  0
LWPOLYLINE
  5
361
100
AcDbEntity
  8
0
 62
     9
100
AcDbPolyline
 90
        2
 70
     0
 39
0.003
 10
0.346657
 20
-1.547248
 40
0.003
 41
0.003
 10
-0.309492
 20
-1.930776
 40
0.003
 41
0.003
  0
LWPOLYLINE
  5
362
100
AcDbEntity
  8
0
 62
     9
100
AcDbPolyline
 90
        2
 70
     0
 39
0.003
 10
-0.309492
 20
-1.930776
 40
0.003
 41
0.003
 10
-0.309516
 20
-1.950984
 40
0.003
 41
0.003
  0
LWPOLYLINE
  5
363
100
AcDbEntity
  8
0
 62
     9
100
AcDbPolyline
 90
        2
 70
     0
 39
0.003
 10
-0.309492
 20
-1.930776
 40
0.003
 41
0.003
 10
0.346657
 20
-1.547248
 40
0.003
 41
0.003
  0
LWPOLYLINE
  5
364
100
AcDbEntity
  8
0
 62
     9
100
AcDbPolyline
 90
        2
 70
     0
 39
0.003
 10
0.346657
 20
-1.547248
 40
0.003
 41
0.003
 10
0.346795
 20
-1.526591
 40
0.003
 41
0.003
  0
LWPOLYLINE
  5
365
100
AcDbEntity
  8
0
 62
     9
100
AcDbPolyline
 90
        2
 70
     0
 39
0.003
 10
0.346795
 20
-1.526591
 40
0.003
 41
0.003
 10
-0.309354
 20
-1.910118
 40
0.003
 41
0.003
  0
LWPOLYLINE
  5
366
100
AcDbEntity
  8
0
 62
     9
100
AcDbPolyline
 90
        2
 70
     0
 39
0.003
 10
-0.309354
 20
-1.910118
 40
0.003
 41
0.003
 10
-0.309492
 20
-1.930776
 40
0.003
 41
0.003
  0
LWPOLYLINE
  5
367
100
AcDbEntity
  8
0
 62
     9
100
AcDbPolyline
 90
        2
 70
     0
 39
0.003
 10
-0.309354
 20
-1.910118
 40
0.003
 41
0.003
 10
0.346795
 20
-1.526591
 40
0.003
 41
0.003
  0
LWPOLYLINE
  5
368
100
AcDbEntity
  8
0
 62
     9
100
AcDbPolyline
 90
        2
 70
     0
 39
0.003
 10
0.346795
 20
-1.526591
 40
0.003
 41
0.003
 10
0.347098
 20
-1.505555
 40
0.003
 41
0.003
  0
LWPOLYLINE
  5
369
100
AcDbEntity
  8
0
 62
     9
100
AcDbPolyline
 90
        2
 70
     0
 39
0.003
 10
0.347098
 20
-1.505555
 40
0.003
 41
0.003
 10
-0.309051
 20
-1.889083
 40
0.003
 41
0.003
  0
LWPOLYLINE
  5
36A
100
AcDbEntity
  8
0
 62
     9
100
AcDbPolyline
 90
        2
 70
     0
 39
0.003
 10
-0.309051
 20
-1.889083
 40
0.003
 41
0.003
 10
-0.309354
 20
-1.910118
 40
0.003
 41
0.003
  0
LWPOLYLINE
  5
36B
100
AcDbEntity
  8
0
 62
     9
100
AcDbPolyline
 90
        2
 70
     0
 39
0.003
 10
-0.309051
 20
-1.889083
 40
0.003
 41
0.003
 10
0.347098
 20
-1.505555
 40
0.003
 41
0.003
  0
LWPOLYLINE
  5
36C
100
AcDbEntity
  8
0
 62
     9
100
AcDbPolyline
 90
        2
 70
     0
 39
0.003
 10
0.347098
 20
-1.505555
 40
0.003
 41
0.003
 10
0.34761
 20
-1.484213
 40
0.003
 41
0.003
  0
LWPOLYLINE
  5
36D
100
AcDbEntity
  8
0
 62
     9
100
AcDbPolyline
 90
        2
 70
     0
 39
0.003
 10
0.34761
 20
-1.484213
 40
0.003
 41
0.003
 10
-0.308539
 20
-1.86774
 40
0.003
 41
0.003
  0
LWPOLYLINE
  5
36E
100
AcDbEntity
  8
0
 62
     9
100
AcDbPolyline
 90
        2
 70
     0
 39
0.003
 10
-0.308539
 20
-1.86774
 40
0.003
 41
0.003
 10
-0.309051
 20
-1.889083
 40
0.003
 41
0.003
  0
LWPOLYLINE
  5
36F
100
AcDbEntity
  8
0
 62
     9
100
AcDbPolyline
 90
        2
 70
     0
 39
0.003
 10
-0.308539
 20
-1.86774
 40
0.003
 41
0.003
 10
0.34761
 20
-1.484213
 40
0.003
 41
0.003
  0
LWPOLYLINE
  5
370
100
AcDbEntity
  8
0
 62
     9
100
AcDbPolyline
 90
        2
 70
     0
 39
0.003
 10
0.34761
 20
-1.484213
 40
0.003
 41
0.003
 10
0.348386
 20
-1.462622
 40
0.003
 41
0.003
  0
LWPOLYLINE
  5
371
100
AcDbEntity
  8
0
 62
     9
100
AcDbPolyline
 90
        2
 70
     0
 39
0.003
 10
0.348386
 20
-1.462622
 40
0.003
 41
0.003
 10
-0.307764
 20
-1.84615
 40
0.003
 41
0.003
  0
LWPOLYLINE
  5
372
100
AcDbEntity
  8
0
 62
     9
100
AcDbPolyline
 90
        2
 70
     0
 39
0.003
 10
-0.307764
 20
-1.84615
 40
0.003
 41
0.003
 10
-0.308539
 20
-1.86774
 40
0.003
 41
0.003
  0
LWPOLYLINE
  5
373
100
AcDbEntity
  8
0
 62
     9
100
AcDbPolyline
 90
        2
 70
     0
 39
0.003
 10
-0.307764
 20
-1.84615
 40
0.003
 41
0.003
 10
0.348386
 20
-1.462622
 40
0.003
 41
0.003
  0
LWPOLYLINE
  5
374
100
AcDbEntity
  8
0
 62
     9
100
AcDbPolyline
 90
        2
 70
     0
 39
0.003
 10
0.348386
 20
-1.462622
 40
0.003
 41
0.003
 10
0.349449
 20
-1.44087
 40
0.003
 41
0.003
  0
LWPOLYLINE
  5
375
100
AcDbEntity
  8
0
 62
     9
100
AcDbPolyline
 90
        2
 70
     0
 39
0.003
 10
0.349449
 20
-1.44087
 40
0.003
 41
0.003
 10
-0.306701
 20
-1.824398
 40
0.003
 41
0.003
  0
LWPOLYLINE
  5
376
100
AcDbEntity
  8
0
 62
     9
100
AcDbPolyline
 90
        2
 70
     0
 39
0.003
 10
-0.306701
 20
-1.824398
 40
0.003
 41
0.003
 10
-0.307764
 20
-1.84615
 40
0.003
 41
0.003
  0
LWPOLYLINE
  5
377
100
AcDbEntity
  8
0
 62
     9
100
AcDbPolyline
 90
        2
 70
     0
 39
0.003
 10
-0.306701
 20
-1.824398
 40
0.003
 41
0.003
 10
0.349449
 20
-1.44087
 40
0.003
 41
0.003
  0
LWPOLYLINE
  5
378
100
AcDbEntity
  8
0
 62
     9
100
AcDbPolyline
 90
        2
 70
     0
 39
0.003
 10
0.349449
 20
-1.44087
 40
0.003
 41
0.003
 10
0.350858
 20
-1.419016
 40
0.003
 41
0.003
  0
LWPOLYLINE
  5
379
100
AcDbEntity
  8
0
 62
     9
100
AcDbPolyline
 90
        2
 70
     0
 39
0.003
 10
0.350858
 20
-1.419016
 40
0.003
 41
0.003
 10
-0.305291
 20
-1.802543
 40
0.003
 41
0.003
  0
LWPOLYLINE
  5
37A
100
AcDbEntity
  8
0
 62
     9
100
AcDbPolyline
 90
        2
 70
     0
 39
0.003
 10
-0.305291
 20
-1.802543
 40
0.003
 41
0.003
 10
-0.306701
 20
-1.824398
 40
0.003
 41
0.003
  0
LWPOLYLINE
  5
37B
100
AcDbEntity
  8
0
 62
     9
100
AcDbPolyline
 90
        2
 70
     0
 39
0.003
 10
-0.305291
 20
-1.802543
 40
0.003
 41
0.003
 10
0.350858
 20
-1.419016
 40
0.003
 41
0.003
  0
LWPOLYLINE
  5
37C
100
AcDbEntity
  8
0
 62
     9
100
AcDbPolyline
 90
        2
 70
     0
 39
0.003
 10
0.350858
 20
-1.419016
 40
0.003
 41
0.003
 10
0.352638
 20
-1.397138
 40
0.003
 41
0.003
  0
LWPOLYLINE
  5
37D
100
AcDbEntity
  8
0
 62
     9
100
AcDbPolyline
 90
        2
 70
     0
 39
0.003
 10
0.352638
 20
-1.397138
 40
0.003
 41
0.003
 10
-0.303512
 20
-1.780665
 40
0.003
 41
0.003
  0
LWPOLYLINE
  5
37E
100
AcDbEntity
  8
0
 62
     9
100
AcDbPolyline
 90
        2
 70
     0
 39
0.003
 10
-0.303512
 20
-1.780665
 40
0.003
 41
0.003
 10
-0.305291
 20
-1.802543
 40
0.003
 41
0.003
  0
LWPOLYLINE
  5
37F
100
AcDbEntity
  8
0
 62
     9
100
AcDbPolyline
 90
        2
 70
     0
 39
0.003
 10
-0.303512
 20
-1.780665
 40
0.003
 41
0.003
 10
0.352638
 20
-1.397138
 40
0.003
 41
0.003
  0
LWPOLYLINE
  5
380
100
AcDbEntity
  8
0
 62
     9
100
AcDbPolyline
 90
        2
 70
     0
 39
0.003
 10
0.352638
 20
-1.397138
 40
0.003
 41
0.003
 10
0.354854
 20
-1.375291
 40
0.003
 41
0.003
  0
LWPOLYLINE
  5
381
100
AcDbEntity
  8
0
 62
     9
100
AcDbPolyline
 90
        2
 70
     0
 39
0.003
 10
0.354854
 20
-1.375291
 40
0.003
 41
0.003
 10
-0.301295
 20
-1.758819
 40
0.003
 41
0.003
  0
LWPOLYLINE
  5
382
100
AcDbEntity
  8
0
 62
     9
100
AcDbPolyline
 90
        2
 70
     0
 39
0.003
 10
-0.301295
 20
-1.758819
 40
0.003
 41
0.003
 10
-0.303512
 20
-1.780665
 40
0.003
 41
0.003
  0
LWPOLYLINE
  5
383
100
AcDbEntity
  8
0
 62
   253
100
AcDbPolyline
 90
        2
 70
     0
 39
0.003
 10
-0.301295
 20
-1.758819
 40
0.003
 41
0.003
 10
0.354854
 20
-1.375291
 40
0.003
 41
0.003
  0
LWPOLYLINE
  5
384
100
AcDbEntity
  8
0
 62
   253
100
AcDbPolyline
 90
        2
 70
     0
 39
0.003
 10
0.354854
 20
-1.375291
 40
0.003
 41
0.003
 10
0.357535
 20
-1.353567
 40
0.003
 41
0.003
  0
LWPOLYLINE
  5
385
100
AcDbEntity
  8
0
 62
   253
100
AcDbPolyline
 90
        2
 70
     0
 39
0.003
 10
0.357535
 20
-1.353567
 40
0.003
 41
0.003
 10
-0.298614
 20
-1.737094
 40
0.003
 41
0.003
  0
LWPOLYLINE
  5
386
100
AcDbEntity
  8
0
 62
   253
100
AcDbPolyline
 90
        2
 70
     0
 39
0.003
 10
-0.298614
 20
-1.737094
 40
0.003
 41
0.003
 10
-0.301295
 20
-1.758819
 40
0.003
 41
0.003
  0
LWPOLYLINE
  5
387
100
AcDbEntity
  8
0
 62
   253
100
AcDbPolyline
 90
        2
 70
     0
 39
0.003
 10
-0.298614
 20
-1.737094
 40
0.003
 41
0.003
 10
0.357535
 20
-1.353567
 40
0.003
 41
0.003
  0
LWPOLYLINE
  5
388
100
AcDbEntity
  8
0
 62
   253
100
AcDbPolyline
 90
        2
 70
     0
 39
0.003
 10
0.357535
 20
-1.353567
 40
0.003
 41
0.003
 10
0.360732
 20
-1.33202
 40
0.003
 41
0.003
  0
LWPOLYLINE
  5
389
100
AcDbEntity
  8
0
 62
   253
100
AcDbPolyline
 90
        2
 70
     0
 39
0.003
 10
0.360732
 20
-1.33202
 40
0.003
 41
0.003
 10
-0.295417
 20
-1.715547
 40
0.003
 41
0.003
  0
LWPOLYLINE
  5
38A
100
AcDbEntity
  8
0
 62
   253
100
AcDbPolyline
 90
        2
 70
     0
 39
0.003
 10
-0.295417
 20
-1.715547
 40
0.003
 41
0.003
 10
-0.298614
 20
-1.737094
 40
0.003
 41
0.003
  0
LWPOLYLINE
  5
38B
100
AcDbEntity
  8
0
 62
   253
100
AcDbPolyline
 90
        2
 70
     0
 39
0.003
 10
-0.295417
 20
-1.715547
 40
0.003
 41
0.003
 10
0.360732
 20
-1.33202
 40
0.003
 41
0.003
  0
LWPOLYLINE
  5
38C
100
AcDbEntity
  8
0
 62
   253
100
AcDbPolyline
 90
        2
 70
     0
 39
0.003
 10
0.360732
 20
-1.33202
 40
0.003
 41
0.003
 10
0.364476
 20
-1.310728
 40
0.003
 41
0.003
  0
LWPOLYLINE
  5
38D
100
AcDbEntity
  8
0
 62
   253
100
AcDbPolyline
 90
        2
 70
     0
 39
0.003
 10
0.364476
 20
-1.310728
 40
0.003
 41
0.003
 10
-0.291673
 20
-1.694256
 40
0.003
 41
0.003
  0
LWPOLYLINE
  5
38E
100
AcDbEntity
  8
0
 62
   253
100
AcDbPolyline
 90
        2
 70
     0
 39
0.003
 10
-0.291673
 20
-1.694256
 40
0.003
 41
0.003
 10
-0.295417
 20
-1.715547
 40
0.003
 41
0.003
  0
LWPOLYLINE
  5
38F
100
AcDbEntity
  8
0
 62
   253
100
AcDbPolyline
 90
        2
 70
     0
 39
0.003
 10
-0.291673
 20
-1.694256
 40
0.003
 41
0.003
 10
0.364476
 20
-1.310728
 40
0.003
 41
0.003
  0
LWPOLYLINE
  5
390
100
AcDbEntity
  8
0
 62
   253
100
AcDbPolyline
 90
        2
 70
     0
 39
0.003
 10
0.364476
 20
-1.310728
 40
0.003
 41
0.003
 10
0.368835
 20
-1.289748
 40
0.003
 41
0.003
  0
LWPOLYLINE
  5
391
100
AcDbEntity
  8
0
 62
   253
100
AcDbPolyline
 90
        2
 70
     0
 39
0.003
 10
0.368835
 20
-1.289748
 40
0.003
 41
0.003
 10
-0.287315
 20
-1.673276
 40
0.003
 41
0.003
  0
LWPOLYLINE
  5
392
100
AcDbEntity
  8
0
 62
   253
100
AcDbPolyline
 90
        2
 70
     0
 39
0.003
 10
-0.287315
 20
-1.673276
 40
0.003
 41
0.003
 10
-0.291673
 20
-1.694256
 40
0.003
 41
0.003
  0
LWPOLYLINE
  5
393
100
AcDbEntity
  8
0
 62
   253
100
AcDbPolyline
 90
        2
 70
     0
 39
0.003
 10
-0.287315
 20
-1.673276
 40
0.003
 41
0.003
 10
0.368835
 20
-1.289748
 40
0.003
 41
0.003
  0
LWPOLYLINE
  5
394
100
AcDbEntity
  8
0
 62
   253
100
AcDbPolyline
 90
        2
 70
     0
 39
0.003
 10
0.368835
 20
-1.289748
 40
0.003
 41
0.003
 10
0.373827
 20
-1.269165
 40
0.003
 41
0.003
  0
LWPOLYLINE
  5
395
100
AcDbEntity
  8
0
 62
   253
100
AcDbPolyline
 90
        2
 70
     0
 39
0.003
 10
0.373827
 20
-1.269165
 40
0.003
 41
0.003
 10
-0.282323
 20
-1.652693
 40
0.003
 41
0.003
  0
LWPOLYLINE
  5
396
100
AcDbEntity
  8
0
 62
   253
100
AcDbPolyline
 90
        2
 70
     0
 39
0.003
 10
-0.282323
 20
-1.652693
 40
0.003
 41
0.003
 10
-0.287315
 20
-1.673276
 40
0.003
 41
0.003
  0
LWPOLYLINE
  5
397
100
AcDbEntity
  8
0
 62
   253
100
AcDbPolyline
 90
        2
 70
     0
 39
0.003
 10
-0.282323
 20
-1.652693
 40
0.003
 41
0.003
 10
0.373827
 20
-1.269165
 40
0.003
 41
0.003
  0
LWPOLYLINE
  5
398
100
AcDbEntity
  8
0
 62
   253
100
AcDbPolyline
 90
        2
 70
     0
 39
0.003
 10
0.373827
 20
-1.269165
 40
0.003
 41
0.003
 10
0.379508
 20
-1.249039
 40
0.003
 41
0.003
  0
LWPOLYLINE
  5
399
100
AcDbEntity
  8
0
 62
   253
100
AcDbPolyline
 90
        2
 70
     0
 39
0.003
 10
0.379508
 20
-1.249039
 40
0.003
 41
0.003
 10
-0.276642
 20
-1.632567
 40
0.003
 41
0.003
  0
LWPOLYLINE
  5
39A
100
AcDbEntity
  8
0
 62
   253
100
AcDbPolyline
 90
        2
 70
     0
 39
0.003
 10
-0.276642
 20
-1.632567
 40
0.003
 41
0.003
 10
-0.282323
 20
-1.652693
 40
0.003
 41
0.003
  0
LWPOLYLINE
  5
39B
100
AcDbEntity
  8
0
 62
   253
100
AcDbPolyline
 90
        2
 70
     0
 39
0.003
 10
-0.276642
 20
-1.632567
 40
0.003
 41
0.003
 10
0.379508
 20
-1.249039
 40
0.003
 41
0.003
  0
LWPOLYLINE
  5
39C
100
AcDbEntity
  8
0
 62
   253
100
AcDbPolyline
 90
        2
 70
     0
 39
0.003
 10
0.379508
 20
-1.249039
 40
0.003
 41
0.003
 10
0.385917
 20
-1.229453
 40
0.003
 41
0.003
  0
LWPOLYLINE
  5
39D
100
AcDbEntity
  8
0
 62
   253
100
AcDbPolyline
 90
        2
 70
     0
 39
0.003
 10
0.385917
 20
-1.229453
 40
0.003
 41
0.003
 10
-0.270232
 20
-1.61298
 40
0.003
 41
0.003
  0
LWPOLYLINE
  5
39E
100
AcDbEntity
  8
0
 62
   253
100
AcDbPolyline
 90
        2
 70
     0
 39
0.003
 10
-0.270232
 20
-1.61298
 40
0.003
 41
0.003
 10
-0.276642
 20
-1.632567
 40
0.003
 41
0.003
  0
LWPOLYLINE
  5
39F
100
AcDbEntity
  8
0
 62
   253
100
AcDbPolyline
 90
        2
 70
     0
 39
0.003
 10
-0.270232
 20
-1.61298
 40
0.003
 41
0.003
 10
0.385917
 20
-1.229453
 40
0.003
 41
0.003
  0
LWPOLYLINE
  5
3A0
100
AcDbEntity
  8
0
 62
   253
100
AcDbPolyline
 90
        2
 70
     0
 39
0.003
 10
0.385917
 20
-1.229453
 40
0.003
 41
0.003
 10
0.393106
 20
-1.210461
 40
0.003
 41
0.003
  0
LWPOLYLINE
  5
3A1
100
AcDbEntity
  8
0
 62
   253
100
AcDbPolyline
 90
        2
 70
     0
 39
0.003
 10
0.393106
 20
-1.210461
 40
0.003
 41
0.003
 10
-0.263043
 20
-1.593988
 40
0.003
 41
0.003
  0
LWPOLYLINE
  5
3A2
100
AcDbEntity
  8
0
 62
   253
100
AcDbPolyline
 90
        2
 70
     0
 39
0.003
 10
-0.263043
 20
-1.593988
 40
0.003
 41
0.003
 10
-0.270232
 20
-1.61298
 40
0.003
 41
0.003
  0
LWPOLYLINE
  5
3A3
100
AcDbEntity
  8
0
 62
   253
100
AcDbPolyline
 90
        2
 70
     0
 39
0.003
 10
-0.263043
 20
-1.593988
 40
0.003
 41
0.003
 10
0.393106
 20
-1.210461
 40
0.003
 41
0.003
  0
LWPOLYLINE
  5
3A4
100
AcDbEntity
  8
0
 62
   253
100
AcDbPolyline
 90
        2
 70
     0
 39
0.003
 10
0.393106
 20
-1.210461
 40
0.003
 41
0.003
 10
0.401106
 20
-1.192146
 40
0.003
 41
0.003
  0
LWPOLYLINE
  5
3A5
100
AcDbEntity
  8
0
 62
   253
100
AcDbPolyline
 90
        2
 70
     0
 39
0.003
 10
0.401106
 20
-1.192146
 40
0.003
 41
0.003
 10
-0.255043
 20
-1.575673
 40
0.003
 41
0.003
  0
LWPOLYLINE
  5
3A6
100
AcDbEntity
  8
0
 62
   253
100
AcDbPolyline
 90
        2
 70
     0
 39
0.003
 10
-0.255043
 20
-1.575673
 40
0.003
 41
0.003
 10
-0.263043
 20
-1.593988
 40
0.003
 41
0.003
  0
LWPOLYLINE
  5
3A7
100
AcDbEntity
  8
0
 62
   252
100
AcDbPolyline
 90
        2
 70
     0
 39
0.003
 10
-0.255043
 20
-1.575673
 40
0.003
 41
0.003
 10
0.401106
 20
-1.192146
 40
0.003
 41
0.003
  0
LWPOLYLINE
  5
3A8
100
AcDbEntity
  8
0
 62
   252
100
AcDbPolyline
 90
        2
 70
     0
 39
0.003
 10
0.401106
 20
-1.192146
 40
0.003
 41
0.003
 10
0.409969
 20
-1.174571
 40
0.003
 41
0.003
  0
LWPOLYLINE
  5
3A9
100
AcDbEntity
  8
0
 62
   252
100
AcDbPolyline
 90
        2
 70
     0
 39
0.003
 10
0.409969
 20
-1.174571
 40
0.003
 41
0.003
 10
-0.246181
 20
-1.558098
 40
0.003
 41
0.003
  0
LWPOLYLINE
  5
3AA
100
AcDbEntity
  8
0
 62
   252
100
AcDbPolyline
 90
        2
 70
     0
 39
0.003
 10
-0.246181
 20
-1.558098
 40
0.003
 41
0.003
 10
-0.255043
 20
-1.575673
 40
0.003
 41
0.003
  0
LWPOLYLINE
  5
3AB
100
AcDbEntity
  8
0
 62
     8
100
AcDbPolyline
 90
        2
 70
     0
 39
0.003
 10
-0.246181
 20
-1.558098
 40
0.003
 41
0.003
 10
0.409969
 20
-1.174571
 40
0.003
 41
0.003
  0
LWPOLYLINE
  5
3AC
100
AcDbEntity
  8
0
 62
     8
100
AcDbPolyline
 90
        2
 70
     0
 39
0.003
 10
0.409969
 20
-1.174571
 40
0.003
 41
0.003
 10
0.419724
 20
-1.157811
 40
0.003
 41
0.003
  0
LWPOLYLINE
  5
3AD
100
AcDbEntity
  8
0
 62
     8
100
AcDbPolyline
 90
        2
 70
     0
 39
0.003
 10
0.419724
 20
-1.157811
 40
0.003
 41
0.003
 10
-0.236425
 20
-1.541339
 40
0.003
 41
0.003
  0
LWPOLYLINE
  5
3AE
100
AcDbEntity
  8
0
 62
     8
100
AcDbPolyline
 90
        2
 70
     0
 39
0.003
 10
-0.236425
 20
-1.541339
 40
0.003
 41
0.003
 10
-0.246181
 20
-1.558098
 40
0.003
 41
0.003
  0
LWPOLYLINE
  5
3AF
100
AcDbEntity
  8
0
 62
     8
100
AcDbPolyline
 90
        2
 70
     0
 39
0.003
 10
-0.236425
 20
-1.541339
 40
0.003
 41
0.003
 10
0.419724
 20
-1.157811
 40
0.003
 41
0.003
  0
LWPOLYLINE
  5
3B0
100
AcDbEntity
  8
0
 62
     8
100
AcDbPolyline
 90
        2
 70
     0
 39
0.003
 10
0.419724
 20
-1.157811
 40
0.003
 41
0.003
 10
0.430437
 20
-1.141925
 40
0.003
 41
0.003
  0
LWPOLYLINE
  5
3B1
100
AcDbEntity
  8
0
 62
     8
100
AcDbPolyline
 90
        2
 70
     0
 39
0.003
 10
0.430437
 20
-1.141925
 40
0.003
 41
0.003
 10
-0.225713
 20
-1.525453
 40
0.003
 41
0.003
  0
LWPOLYLINE
  5
3B2
100
AcDbEntity
  8
0
 62
     8
100
AcDbPolyline
 90
        2
 70
     0
 39
0.003
 10
-0.225713
 20
-1.525453
 40
0.003
 41
0.003
 10
-0.236425
 20
-1.541339
 40
0.003
 41
0.003
  0
LWPOLYLINE
  5
3B3
100
AcDbEntity
  8
0
 62
   127
100
AcDbPolyline
 90
        2
 70
     0
 39
0.003
 10
-0.225713
 20
-1.525453
 40
0.003
 41
0.003
 10
0.430437
 20
-1.141925
 40
0.003
 41
0.003
  0
LWPOLYLINE
  5
3B4
100
AcDbEntity
  8
0
 62
   127
100
AcDbPolyline
 90
        2
 70
     0
 39
0.003
 10
0.430437
 20
-1.141925
 40
0.003
 41
0.003
 10
0.442138
 20
-1.126996
 40
0.003
 41
0.003
  0
LWPOLYLINE
  5
3B5
100
AcDbEntity
  8
0
 62
   127
100
AcDbPolyline
 90
        2
 70
     0
 39
0.003
 10
0.442138
 20
-1.126996
 40
0.003
 41
0.003
 10
-0.214012
 20
-1.510524
 40
0.003
 41
0.003
  0
LWPOLYLINE
  5
3B6
100
AcDbEntity
  8
0
 62
   127
100
AcDbPolyline
 90
        2
 70
     0
 39
0.003
 10
-0.214012
 20
-1.510524
 40
0.003
 41
0.003
 10
-0.225713
 20
-1.525453
 40
0.003
 41
0.003
  0
LWPOLYLINE
  5
3B7
100
AcDbEntity
  8
0
 62
   251
100
AcDbPolyline
 90
        2
 70
     0
 39
0.003
 10
-0.214012
 20
-1.510524
 40
0.003
 41
0.003
 10
0.442138
 20
-1.126996
 40
0.003
 41
0.003
  0
LWPOLYLINE
  5
3B8
100
AcDbEntity
  8
0
 62
   251
100
AcDbPolyline
 90
        2
 70
     0
 39
0.003
 10
0.442138
 20
-1.126996
 40
0.003
 41
0.003
 10
0.45487
 20
-1.113087
 40
0.003
 41
0.003
  0
LWPOLYLINE
  5
3B9
100
AcDbEntity
  8
0
 62
   251
100
AcDbPolyline
 90
        2
 70
     0
 39
0.003
 10
0.45487
 20
-1.113087
 40
0.003
 41
0.003
 10
-0.20128
 20
-1.496614
 40
0.003
 41
0.003
  0
LWPOLYLINE
  5
3BA
100
AcDbEntity
  8
0
 62
   251
100
AcDbPolyline
 90
        2
 70
     0
 39
0.003
 10
-0.20128
 20
-1.496614
 40
0.003
 41
0.003
 10
-0.214012
 20
-1.510524
 40
0.003
 41
0.003
  0
LWPOLYLINE
  5
3BB
100
AcDbEntity
  8
0
 62
   251
100
AcDbPolyline
 90
        2
 70
     0
 39
0.003
 10
-0.20128
 20
-1.496614
 40
0.003
 41
0.003
 10
0.45487
 20
-1.113087
 40
0.003
 41
0.003
  0
LWPOLYLINE
  5
3BC
100
AcDbEntity
  8
0
 62
   251
100
AcDbPolyline
 90
        2
 70
     0
 39
0.003
 10
0.45487
 20
-1.113087
 40
0.003
 41
0.003
 10
0.468677
 20
-1.100272
 40
0.003
 41
0.003
  0
LWPOLYLINE
  5
3BD
100
AcDbEntity
  8
0
 62
   251
100
AcDbPolyline
 90
        2
 70
     0
 39
0.003
 10
0.468677
 20
-1.100272
 40
0.003
 41
0.003
 10
-0.187472
 20
-1.483799
 40
0.003
 41
0.003
  0
LWPOLYLINE
  5
3BE
100
AcDbEntity
  8
0
 62
   251
100
AcDbPolyline
 90
        2
 70
     0
 39
0.003
 10
-0.187472
 20
-1.483799
 40
0.003
 41
0.003
 10
-0.20128
 20
-1.496614
 40
0.003
 41
0.003
  0
LWPOLYLINE
  5
3BF
100
AcDbEntity
  8
0
 62
   127
100
AcDbPolyline
 90
        2
 70
     0
 39
0.003
 10
-0.187472
 20
-1.483799
 40
0.003
 41
0.003
 10
0.468677
 20
-1.100272
 40
0.003
 41
0.003
  0
LWPOLYLINE
  5
3C0
100
AcDbEntity
  8
0
 62
   127
100
AcDbPolyline
 90
        2
 70
     0
 39
0.003
 10
0.468677
 20
-1.100272
 40
0.003
 41
0.003
 10
0.48361
 20
-1.088614
 40
0.003
 41
0.003
  0
LWPOLYLINE
  5
3C1
100
AcDbEntity
  8
0
 62
   127
100
AcDbPolyline
 90
        2
 70
     0
 39
0.003
 10
0.48361
 20
-1.088614
 40
0.003
 41
0.003
 10
-0.172539
 20
-1.472142
 40
0.003
 41
0.003
  0
LWPOLYLINE
  5
3C2
100
AcDbEntity
  8
0
 62
   127
100
AcDbPolyline
 90
        2
 70
     0
 39
0.003
 10
-0.172539
 20
-1.472142
 40
0.003
 41
0.003
 10
-0.187472
 20
-1.483799
 40
0.003
 41
0.003
  0
LWPOLYLINE
  5
3C3
100
AcDbEntity
  8
0
 62
     8
100
AcDbPolyline
 90
        2
 70
     0
 39
0.003
 10
-0.172539
 20
-1.472142
 40
0.003
 41
0.003
 10
0.48361
 20
-1.088614
 40
0.003
 41
0.003
  0
LWPOLYLINE
  5
3C4
100
AcDbEntity
  8
0
 62
     8
100
AcDbPolyline
 90
        2
 70
     0
 39
0.003
 10
0.48361
 20
-1.088614
 40
0.003
 41
0.003
 10
0.499701
 20
-1.078193
 40
0.003
 41
0.003
  0
LWPOLYLINE
  5
3C5
100
AcDbEntity
  8
0
 62
     8
100
AcDbPolyline
 90
        2
 70
     0
 39
0.003
 10
0.499701
 20
-1.078193
 40
0.003
 41
0.003
 10
-0.156449
 20
-1.46172
 40
0.003
 41
0.003
  0
LWPOLYLINE
  5
3C6
100
AcDbEntity
  8
0
 62
     8
100
AcDbPolyline
 90
        2
 70
     0
 39
0.003
 10
-0.156449
 20
-1.46172
 40
0.003
 41
0.003
 10
-0.172539
 20
-1.472142
 40
0.003
 41
0.003
  0
LWPOLYLINE
  5
3C7
100
AcDbEntity
  8
0
 62
     0
100
AcDbPolyline
 90
        2
 70
     0
 39
0.003
 10
-0.309228
 20
-2.025925
 40
0.003
 41
0.003
 10
0.346921
 20
-1.642398
 40
0.003
 41
0.003
  0
LWPOLYLINE
  5
3C8
100
AcDbEntity
  8
0
 62
     0
100
AcDbPolyline
 90
        2
 70
     0
 39
0.003
 10
0.346921
 20
-1.642398
 40
0.003
 41
0.003
 10
0.346886
 20
-1.624681
 40
0.003
 41
0.003
  0
LWPOLYLINE
  5
3C9
100
AcDbEntity
  8
0
 62
     0
100
AcDbPolyline
 90
        2
 70
     0
 39
0.003
 10
0.346886
 20
-1.624681
 40
0.003
 41
0.003
 10
0.346795
 20
-1.606244
 40
0.003
 41
0.003
  0
LWPOLYLINE
  5
3CA
100
AcDbEntity
  8
0
 62
     0
100
AcDbPolyline
 90
        2
 70
     0
 39
0.003
 10
0.346795
 20
-1.606244
 40
0.003
 41
0.003
 10
0.346701
 20
-1.587146
 40
0.003
 41
0.003
  0
LWPOLYLINE
  5
3CB
100
AcDbEntity
  8
0
 62
     0
100
AcDbPolyline
 90
        2
 70
     0
 39
0.003
 10
0.346701
 20
-1.587146
 40
0.003
 41
0.003
 10
0.346634
 20
-1.567457
 40
0.003
 41
0.003
  0
LWPOLYLINE
  5
3CC
100
AcDbEntity
  8
0
 62
     0
100
AcDbPolyline
 90
        2
 70
     0
 39
0.003
 10
0.346634
 20
-1.567457
 40
0.003
 41
0.003
 10
0.346657
 20
-1.547248
 40
0.003
 41
0.003
  0
LWPOLYLINE
  5
3CD
100
AcDbEntity
  8
0
 62
     0
100
AcDbPolyline
 90
        2
 70
     0
 39
0.003
 10
0.346657
 20
-1.547248
 40
0.003
 41
0.003
 10
0.346795
 20
-1.526591
 40
0.003
 41
0.003
  0
LWPOLYLINE
  5
3CE
100
AcDbEntity
  8
0
 62
     0
100
AcDbPolyline
 90
        2
 70
     0
 39
0.003
 10
0.346795
 20
-1.526591
 40
0.003
 41
0.003
 10
0.347098
 20
-1.505555
 40
0.003
 41
0.003
  0
LWPOLYLINE
  5
3CF
100
AcDbEntity
  8
0
 62
     0
100
AcDbPolyline
 90
        2
 70
     0
 39
0.003
 10
0.347098
 20
-1.505555
 40
0.003
 41
0.003
 10
0.34761
 20
-1.484213
 40
0.003
 41
0.003
  0
LWPOLYLINE
  5
3D0
100
AcDbEntity
  8
0
 62
     0
100
AcDbPolyline
 90
        2
 70
     0
 39
0.003
 10
0.34761
 20
-1.484213
 40
0.003
 41
0.003
 10
0.348386
 20
-1.462622
 40
0.003
 41
0.003
  0
LWPOLYLINE
  5
3D1
100
AcDbEntity
  8
0
 62
     0
100
AcDbPolyline
 90
        2
 70
     0
 39
0.003
 10
0.348386
 20
-1.462622
 40
0.003
 41
0.003
 10
0.349449
 20
-1.44087
 40
0.003
 41
0.003
  0
LWPOLYLINE
  5
3D2
100
AcDbEntity
  8
0
 62
     0
100
AcDbPolyline
 90
        2
 70
     0
 39
0.003
 10
0.349449
 20
-1.44087
 40
0.003
 41
0.003
 10
0.350858
 20
-1.419016
 40
0.003
 41
0.003
  0
LWPOLYLINE
  5
3D3
100
AcDbEntity
  8
0
 62
     0
100
AcDbPolyline
 90
        2
 70
     0
 39
0.003
 10
0.350858
 20
-1.419016
 40
0.003
 41
0.003
 10
0.352638
 20
-1.397138
 40
0.003
 41
0.003
  0
LWPOLYLINE
  5
3D4
100
AcDbEntity
  8
0
 62
     0
100
AcDbPolyline
 90
        2
 70
     0
 39
0.003
 10
0.352638
 20
-1.397138
 40
0.003
 41
0.003
 10
0.354854
 20
-1.375291
 40
0.003
 41
0.003
  0
LWPOLYLINE
  5
3D5
100
AcDbEntity
  8
0
 62
     0
100
AcDbPolyline
 90
        2
 70
     0
 39
0.003
 10
0.354854
 20
-1.375291
 40
0.003
 41
0.003
 10
0.357535
 20
-1.353567
 40
0.003
 41
0.003
  0
LWPOLYLINE
  5
3D6
100
AcDbEntity
  8
0
 62
     0
100
AcDbPolyline
 90
        2
 70
     0
 39
0.003
 10
0.357535
 20
-1.353567
 40
0.003
 41
0.003
 10
0.360732
 20
-1.33202
 40
0.003
 41
0.003
  0
LWPOLYLINE
  5
3D7
100
AcDbEntity
  8
0
 62
     0
100
AcDbPolyline
 90
        2
 70
     0
 39
0.003
 10
0.360732
 20
-1.33202
 40
0.003
 41
0.003
 10
0.364476
 20
-1.310728
 40
0.003
 41
0.003
  0
LWPOLYLINE
  5
3D8
100
AcDbEntity
  8
0
 62
     0
100
AcDbPolyline
 90
        2
 70
     0
 39
0.003
 10
0.364476
 20
-1.310728
 40
0.003
 41
0.003
 10
0.368835
 20
-1.289748
 40
0.003
 41
0.003
  0
LWPOLYLINE
  5
3D9
100
AcDbEntity
  8
0
 62
     0
100
AcDbPolyline
 90
        2
 70
     0
 39
0.003
 10
0.368835
 20
-1.289748
 40
0.003
 41
0.003
 10
0.373827
 20
-1.269165
 40
0.003
 41
0.003
  0
LWPOLYLINE
  5
3DA
100
AcDbEntity
  8
0
 62
     0
100
AcDbPolyline
 90
        2
 70
     0
 39
0.003
 10
0.373827
 20
-1.269165
 40
0.003
 41
0.003
 10
0.379508
 20
-1.249039
 40
0.003
 41
0.003
  0
LWPOLYLINE
  5
3DB
100
AcDbEntity
  8
0
 62
     0
100
AcDbPolyline
 90
        2
 70
     0
 39
0.003
 10
0.379508
 20
-1.249039
 40
0.003
 41
0.003
 10
0.385917
 20
-1.229453
 40
0.003
 41
0.003
  0
LWPOLYLINE
  5
3DC
100
AcDbEntity
  8
0
 62
     0
100
AcDbPolyline
 90
        2
 70
     0
 39
0.003
 10
0.385917
 20
-1.229453
 40
0.003
 41
0.003
 10
0.393106
 20
-1.210461
 40
0.003
 41
0.003
  0
LWPOLYLINE
  5
3DD
100
AcDbEntity
  8
0
 62
     0
100
AcDbPolyline
 90
        2
 70
     0
 39
0.003
 10
0.393106
 20
-1.210461
 40
0.003
 41
0.003
 10
0.401106
 20
-1.192146
 40
0.003
 41
0.003
  0
LWPOLYLINE
  5
3DE
100
AcDbEntity
  8
0
 62
     0
100
AcDbPolyline
 90
        2
 70
     0
 39
0.003
 10
0.401106
 20
-1.192146
 40
0.003
 41
0.003
 10
0.409969
 20
-1.174571
 40
0.003
 41
0.003
  0
LWPOLYLINE
  5
3DF
100
AcDbEntity
  8
0
 62
     0
100
AcDbPolyline
 90
        2
 70
     0
 39
0.003
 10
0.409969
 20
-1.174571
 40
0.003
 41
0.003
 10
0.419724
 20
-1.157811
 40
0.003
 41
0.003
  0
LWPOLYLINE
  5
3E0
100
AcDbEntity
  8
0
 62
     0
100
AcDbPolyline
 90
        2
 70
     0
 39
0.003
 10
0.419724
 20
-1.157811
 40
0.003
 41
0.003
 10
0.430437
 20
-1.141925
 40
0.003
 41
0.003
  0
LWPOLYLINE
  5
3E1
100
AcDbEntity
  8
0
 62
     0
100
AcDbPolyline
 90
        2
 70
     0
 39
0.003
 10
0.430437
 20
-1.141925
 40
0.003
 41
0.003
 10
0.442138
 20
-1.126996
 40
0.003
 41
0.003
  0
LWPOLYLINE
  5
3E2
100
AcDbEntity
  8
0
 62
     0
100
AcDbPolyline
 90
        2
 70
     0
 39
0.003
 10
0.442138
 20
-1.126996
 40
0.003
 41
0.003
 10
0.45487
 20
-1.113087
 40
0.003
 41
0.003
  0
LWPOLYLINE
  5
3E3
100
AcDbEntity
  8
0
 62
     0
100
AcDbPolyline
 90
        2
 70
     0
 39
0.003
 10
0.45487
 20
-1.113087
 40
0.003
 41
0.003
 10
0.468677
 20
-1.100272
 40
0.003
 41
0.003
  0
LWPOLYLINE
  5
3E4
100
AcDbEntity
  8
0
 62
     0
100
AcDbPolyline
 90
        2
 70
     0
 39
0.003
 10
0.468677
 20
-1.100272
 40
0.003
 41
0.003
 10
0.48361
 20
-1.088614
 40
0.003
 41
0.003
  0
LWPOLYLINE
  5
3E5
100
AcDbEntity
  8
0
 62
     0
100
AcDbPolyline
 90
        2
 70
     0
 39
0.003
 10
0.48361
 20
-1.088614
 40
0.003
 41
0.003
 10
0.499701
 20
-1.078193
 40
0.003
 41
0.003
  0
LWPOLYLINE
  5
3E6
100
AcDbEntity
  8
0
 62
     0
100
AcDbPolyline
 90
        2
 70
     0
 39
0.003
 10
0.499701
 20
-1.078193
 40
0.003
 41
0.003
 10
-0.156449
 20
-1.46172
 40
0.003
 41
0.003
  0
LWPOLYLINE
  5
3E7
100
AcDbEntity
  8
0
 62
     0
100
AcDbPolyline
 90
        2
 70
     0
 39
0.003
 10
-0.156449
 20
-1.46172
 40
0.003
 41
0.003
 10
-0.172539
 20
-1.472142
 40
0.003
 41
0.003
  0
LWPOLYLINE
  5
3E8
100
AcDbEntity
  8
0
 62
     0
100
AcDbPolyline
 90
        2
 70
     0
 39
0.003
 10
-0.172539
 20
-1.472142
 40
0.003
 41
0.003
 10
-0.187472
 20
-1.483799
 40
0.003
 41
0.003
  0
LWPOLYLINE
  5
3E9
100
AcDbEntity
  8
0
 62
     0
100
AcDbPolyline
 90
        2
 70
     0
 39
0.003
 10
-0.187472
 20
-1.483799
 40
0.003
 41
0.003
 10
-0.20128
 20
-1.496614
 40
0.003
 41
0.003
  0
LWPOLYLINE
  5
3EA
100
AcDbEntity
  8
0
 62
     0
100
AcDbPolyline
 90
        2
 70
     0
 39
0.003
 10
-0.20128
 20
-1.496614
 40
0.003
 41
0.003
 10
-0.214012
 20
-1.510524
 40
0.003
 41
0.003
  0
LWPOLYLINE
  5
3EB
100
AcDbEntity
  8
0
 62
     0
100
AcDbPolyline
 90
        2
 70
     0
 39
0.003
 10
-0.214012
 20
-1.510524
 40
0.003
 41
0.003
 10
-0.225713
 20
-1.525453
 40
0.003
 41
0.003
  0
LWPOLYLINE
  5
3EC
100
AcDbEntity
  8
0
 62
     0
100
AcDbPolyline
 90
        2
 70
     0
 39
0.003
 10
-0.225713
 20
-1.525453
 40
0.003
 41
0.003
 10
-0.236425
 20
-1.541339
 40
0.003
 41
0.003
  0
LWPOLYLINE
  5
3ED
100
AcDbEntity
  8
0
 62
     0
100
AcDbPolyline
 90
        2
 70
     0
 39
0.003
 10
-0.236425
 20
-1.541339
 40
0.003
 41
0.003
 10
-0.246181
 20
-1.558098
 40
0.003
 41
0.003
  0
LWPOLYLINE
  5
3EE
100
AcDbEntity
  8
0
 62
     0
100
AcDbPolyline
 90
        2
 70
     0
 39
0.003
 10
-0.246181
 20
-1.558098
 40
0.003
 41
0.003
 10
-0.255043
 20
-1.575673
 40
0.003
 41
0.003
  0
LWPOLYLINE
  5
3EF
100
AcDbEntity
  8
0
 62
     0
100
AcDbPolyline
 90
        2
 70
     0
 39
0.003
 10
-0.255043
 20
-1.575673
 40
0.003
 41
0.003
 10
-0.263043
 20
-1.593988
 40
0.003
 41
0.003
  0
LWPOLYLINE
  5
3F0
100
AcDbEntity
  8
0
 62
     0
100
AcDbPolyline
 90
        2
 70
     0
 39
0.003
 10
-0.263043
 20
-1.593988
 40
0.003
 41
0.003
 10
-0.270232
 20
-1.61298
 40
0.003
 41
0.003
  0
LWPOLYLINE
  5
3F1
100
AcDbEntity
  8
0
 62
     0
100
AcDbPolyline
 90
        2
 70
     0
 39
0.003
 10
-0.270232
 20
-1.61298
 40
0.003
 41
0.003
 10
-0.276642
 20
-1.632567
 40
0.003
 41
0.003
  0
LWPOLYLINE
  5
3F2
100
AcDbEntity
  8
0
 62
     0
100
AcDbPolyline
 90
        2
 70
     0
 39
0.003
 10
-0.276642
 20
-1.632567
 40
0.003
 41
0.003
 10
-0.282323
 20
-1.652693
 40
0.003
 41
0.003
  0
LWPOLYLINE
  5
3F3
100
AcDbEntity
  8
0
 62
     0
100
AcDbPolyline
 90
        2
 70
     0
 39
0.003
 10
-0.282323
 20
-1.652693
 40
0.003
 41
0.003
 10
-0.287315
 20
-1.673276
 40
0.003
 41
0.003
  0
LWPOLYLINE
  5
3F4
100
AcDbEntity
  8
0
 62
     0
100
AcDbPolyline
 90
        2
 70
     0
 39
0.003
 10
-0.287315
 20
-1.673276
 40
0.003
 41
0.003
 10
-0.291673
 20
-1.694256
 40
0.003
 41
0.003
  0
LWPOLYLINE
  5
3F5
100
AcDbEntity
  8
0
 62
     0
100
AcDbPolyline
 90
        2
 70
     0
 39
0.003
 10
-0.291673
 20
-1.694256
 40
0.003
 41
0.003
 10
-0.295417
 20
-1.715547
 40
0.003
 41
0.003
  0
LWPOLYLINE
  5
3F6
100
AcDbEntity
  8
0
 62
     0
100
AcDbPolyline
 90
        2
 70
     0
 39
0.003
 10
-0.295417
 20
-1.715547
 40
0.003
 41
0.003
 10
-0.298614
 20
-1.737094
 40
0.003
 41
0.003
  0
LWPOLYLINE
  5
3F7
100
AcDbEntity
  8
0
 62
     0
100
AcDbPolyline
 90
        2
 70
     0
 39
0.003
 10
-0.298614
 20
-1.737094
 40
0.003
 41
0.003
 10
-0.301295
 20
-1.758819
 40
0.003
 41
0.003
  0
LWPOLYLINE
  5
3F8
100
AcDbEntity
  8
0
 62
     0
100
AcDbPolyline
 90
        2
 70
     0
 39
0.003
 10
-0.301295
 20
-1.758819
 40
0.003
 41
0.003
 10
-0.303512
 20
-1.780665
 40
0.003
 41
0.003
  0
LWPOLYLINE
  5
3F9
100
AcDbEntity
  8
0
 62
     0
100
AcDbPolyline
 90
        2
 70
     0
 39
0.003
 10
-0.303512
 20
-1.780665
 40
0.003
 41
0.003
 10
-0.305291
 20
-1.802543
 40
0.003
 41
0.003
  0
LWPOLYLINE
  5
3FA
100
AcDbEntity
  8
0
 62
     0
100
AcDbPolyline
 90
        2
 70
     0
 39
0.003
 10
-0.305291
 20
-1.802543
 40
0.003
 41
0.003
 10
-0.306701
 20
-1.824398
 40
0.003
 41
0.003
  0
LWPOLYLINE
  5
3FB
100
AcDbEntity
  8
0
 62
     0
100
AcDbPolyline
 90
        2
 70
     0
 39
0.003
 10
-0.306701
 20
-1.824398
 40
0.003
 41
0.003
 10
-0.307764
 20
-1.84615
 40
0.003
 41
0.003
  0
LWPOLYLINE
  5
3FC
100
AcDbEntity
  8
0
 62
     0
100
AcDbPolyline
 90
        2
 70
     0
 39
0.003
 10
-0.307764
 20
-1.84615
 40
0.003
 41
0.003
 10
-0.308539
 20
-1.86774
 40
0.003
 41
0.003
  0
LWPOLYLINE
  5
3FD
100
AcDbEntity
  8
0
 62
     0
100
AcDbPolyline
 90
        2
 70
     0
 39
0.003
 10
-0.308539
 20
-1.86774
 40
0.003
 41
0.003
 10
-0.309051
 20
-1.889083
 40
0.003
 41
0.003
  0
LWPOLYLINE
  5
3FE
100
AcDbEntity
  8
0
 62
     0
100
AcDbPolyline
 90
        2
 70
     0
 39
0.003
 10
-0.309051
 20
-1.889083
 40
0.003
 41
0.003
 10
-0.309354
 20
-1.910118
 40
0.003
 41
0.003
  0
LWPOLYLINE
  5
3FF
100
AcDbEntity
  8
0
 62
     0
100
AcDbPolyline
 90
        2
 70
     0
 39
0.003
 10
-0.309354
 20
-1.910118
 40
0.003
 41
0.003
 10
-0.309492
 20
-1.930776
 40
0.003
 41
0.003
  0
LWPOLYLINE
  5
400
100
AcDbEntity
  8
0
 62
     0
100
AcDbPolyline
 90
        2
 70
     0
 39
0.003
 10
-0.309492
 20
-1.930776
 40
0.003
 41
0.003
 10
-0.309516
 20
-1.950984
 40
0.003
 41
0.003
  0
LWPOLYLINE
  5
401
100
AcDbEntity
  8
0
 62
     0
100
AcDbPolyline
 90
        2
 70
     0
 39
0.003
 10
-0.309516
 20
-1.950984
 40
0.003
 41
0.003
 10
-0.309449
 20
-1.970673
 40
0.003
 41
0.003
  0
LWPOLYLINE
  5
402
100
AcDbEntity
  8
0
 62
     0
100
AcDbPolyline
 90
        2
 70
     0
 39
0.003
 10
-0.309449
 20
-1.970673
 40
0.003
 41
0.003
 10
-0.309354
 20
-1.989772
 40
0.003
 41
0.003
  0
LWPOLYLINE
  5
403
100
AcDbEntity
  8
0
 62
     0
100
AcDbPolyline
 90
        2
 70
     0
 39
0.003
 10
-0.309354
 20
-1.989772
 40
0.003
 41
0.003
 10
-0.309264
 20
-2.008209
 40
0.003
 41
0.003
  0
LWPOLYLINE
  5
404
100
AcDbEntity
  8
0
 62
     0
100
AcDbPolyline
 90
        2
 70
     0
 39
0.003
 10
-0.309264
 20
-2.008209
 40
0.003
 41
0.003
 10
-0.309228
 20
-2.025925
 40
0.003
 41
0.003
  0
LWPOLYLINE
  5
405
100
AcDbEntity
  8
0
 62
     9
100
AcDbPolyline
 90
        2
 70
     0
 39
0.003
 10
-0.120606
 20
-1.444858
 40
0.003
 41
0.003
 10
0.535543
 20
-1.061331
 40
0.003
 41
0.003
  0
LWPOLYLINE
  5
406
100
AcDbEntity
  8
0
 62
     9
100
AcDbPolyline
 90
        2
 70
     0
 39
0.003
 10
0.535543
 20
-1.061331
 40
0.003
 41
0.003
 10
0.535543
 20
-0.936445
 40
0.003
 41
0.003
  0
LWPOLYLINE
  5
407
100
AcDbEntity
  8
0
 62
     9
100
AcDbPolyline
 90
        2
 70
     0
 39
0.003
 10
0.535543
 20
-0.936445
 40
0.003
 41
0.003
 10
-0.120606
 20
-1.319972
 40
0.003
 41
0.003
  0
LWPOLYLINE
  5
408
100
AcDbEntity
  8
0
 62
     9
100
AcDbPolyline
 90
        2
 70
     0
 39
0.003
 10
-0.120606
 20
-1.319972
 40
0.003
 41
0.003
 10
-0.120606
 20
-1.444858
 40
0.003
 41
0.003
  0
LWPOLYLINE
  5
409
100
AcDbEntity
  8
0
 62
     0
100
AcDbPolyline
 90
        2
 70
     0
 39
0.003
 10
-0.120606
 20
-1.444858
 40
0.003
 41
0.003
 10
0.535543
 20
-1.061331
 40
0.003
 41
0.003
  0
LWPOLYLINE
  5
40A
100
AcDbEntity
  8
0
 62
     0
100
AcDbPolyline
 90
        2
 70
     0
 39
0.003
 10
0.535543
 20
-1.061331
 40
0.003
 41
0.003
 10
0.535543
 20
-0.936445
 40
0.003
 41
0.003
  0
LWPOLYLINE
  5
40B
100
AcDbEntity
  8
0
 62
     0
100
AcDbPolyline
 90
        2
 70
     0
 39
0.003
 10
0.535543
 20
-0.936445
 40
0.003
 41
0.003
 10
-0.120606
 20
-1.319972
 40
0.003
 41
0.003
  0
LWPOLYLINE
  5
40C
100
AcDbEntity
  8
0
 62
     0
100
AcDbPolyline
 90
        2
 70
     0
 39
0.003
 10
-0.120606
 20
-1.319972
 40
0.003
 41
0.003
 10
-0.120606
 20
-1.444858
 40
0.003
 41
0.003
  0
LWPOLYLINE
  5
40D
100
AcDbEntity
  8
0
 62
   127
100
AcDbPolyline
 90
        2
 70
     0
 39
0.003
 10
-0.101681
 20
-1.310622
 40
0.003
 41
0.003
 10
0.554469
 20
-0.927094
 40
0.003
 41
0.003
  0
LWPOLYLINE
  5
40E
100
AcDbEntity
  8
0
 62
   127
100
AcDbPolyline
 90
        2
 70
     0
 39
0.003
 10
0.554469
 20
-0.927094
 40
0.003
 41
0.003
 10
0.563654
 20
-0.920803
 40
0.003
 41
0.003
  0
LWPOLYLINE
  5
40F
100
AcDbEntity
  8
0
 62
   127
100
AcDbPolyline
 90
        2
 70
     0
 39
0.003
 10
0.563654
 20
-0.920803
 40
0.003
 41
0.003
 10
-0.092496
 20
-1.304331
 40
0.003
 41
0.003
  0
LWPOLYLINE
  5
410
100
AcDbEntity
  8
0
 62
   127
100
AcDbPolyline
 90
        2
 70
     0
 39
0.003
 10
-0.092496
 20
-1.304331
 40
0.003
 41
0.003
 10
-0.101681
 20
-1.310622
 40
0.003
 41
0.003
  0
LWPOLYLINE
  5
411
100
AcDbEntity
  8
0
 62
   251
100
AcDbPolyline
 90
        2
 70
     0
 39
0.003
 10
-0.092496
 20
-1.304331
 40
0.003
 41
0.003
 10
0.563654
 20
-0.920803
 40
0.003
 41
0.003
  0
LWPOLYLINE
  5
412
100
AcDbEntity
  8
0
 62
   251
100
AcDbPolyline
 90
        2
 70
     0
 39
0.003
 10
0.563654
 20
-0.920803
 40
0.003
 41
0.003
 10
0.572583
 20
-0.913551
 40
0.003
 41
0.003
  0
LWPOLYLINE
  5
413
100
AcDbEntity
  8
0
 62
   251
100
AcDbPolyline
 90
        2
 70
     0
 39
0.003
 10
0.572583
 20
-0.913551
 40
0.003
 41
0.003
 10
-0.083567
 20
-1.297079
 40
0.003
 41
0.003
  0
LWPOLYLINE
  5
414
100
AcDbEntity
  8
0
 62
   251
100
AcDbPolyline
 90
        2
 70
     0
 39
0.003
 10
-0.083567
 20
-1.297079
 40
0.003
 41
0.003
 10
-0.092496
 20
-1.304331
 40
0.003
 41
0.003
  0
LWPOLYLINE
  5
415
100
AcDbEntity
  8
0
 62
   251
100
AcDbPolyline
 90
        2
 70
     0
 39
0.003
 10
-0.083567
 20
-1.297079
 40
0.003
 41
0.003
 10
0.572583
 20
-0.913551
 40
0.003
 41
0.003
  0
LWPOLYLINE
  5
416
100
AcDbEntity
  8
0
 62
   251
100
AcDbPolyline
 90
        2
 70
     0
 39
0.003
 10
0.572583
 20
-0.913551
 40
0.003
 41
0.003
 10
0.581224
 20
-0.905394
 40
0.003
 41
0.003
  0
LWPOLYLINE
  5
417
100
AcDbEntity
  8
0
 62
   251
100
AcDbPolyline
 90
        2
 70
     0
 39
0.003
 10
0.581224
 20
-0.905394
 40
0.003
 41
0.003
 10
-0.074925
 20
-1.288921
 40
0.003
 41
0.003
  0
LWPOLYLINE
  5
418
100
AcDbEntity
  8
0
 62
   251
100
AcDbPolyline
 90
        2
 70
     0
 39
0.003
 10
-0.074925
 20
-1.288921
 40
0.003
 41
0.003
 10
-0.083567
 20
-1.297079
 40
0.003
 41
0.003
  0
LWPOLYLINE
  5
419
100
AcDbEntity
  8
0
 62
   251
100
AcDbPolyline
 90
        2
 70
     0
 39
0.003
 10
-0.074925
 20
-1.288921
 40
0.003
 41
0.003
 10
0.581224
 20
-0.905394
 40
0.003
 41
0.003
  0
LWPOLYLINE
  5
41A
100
AcDbEntity
  8
0
 62
   251
100
AcDbPolyline
 90
        2
 70
     0
 39
0.003
 10
0.581224
 20
-0.905394
 40
0.003
 41
0.003
 10
0.589516
 20
-0.896421
 40
0.003
 41
0.003
  0
LWPOLYLINE
  5
41B
100
AcDbEntity
  8
0
 62
   251
100
AcDbPolyline
 90
        2
 70
     0
 39
0.003
 10
0.589516
 20
-0.896421
 40
0.003
 41
0.003
 10
-0.066634
 20
-1.279949
 40
0.003
 41
0.003
  0
LWPOLYLINE
  5
41C
100
AcDbEntity
  8
0
 62
   251
100
AcDbPolyline
 90
        2
 70
     0
 39
0.003
 10
-0.066634
 20
-1.279949
 40
0.003
 41
0.003
 10
-0.074925
 20
-1.288921
 40
0.003
 41
0.003
  0
LWPOLYLINE
  5
41D
100
AcDbEntity
  8
0
 62
   127
100
AcDbPolyline
 90
        2
 70
     0
 39
0.003
 10
-0.066634
 20
-1.279949
 40
0.003
 41
0.003
 10
0.589516
 20
-0.896421
 40
0.003
 41
0.003
  0
LWPOLYLINE
  5
41E
100
AcDbEntity
  8
0
 62
   127
100
AcDbPolyline
 90
        2
 70
     0
 39
0.003
 10
0.589516
 20
-0.896421
 40
0.003
 41
0.003
 10
0.597417
 20
-0.886697
 40
0.003
 41
0.003
  0
LWPOLYLINE
  5
41F
100
AcDbEntity
  8
0
 62
   127
100
AcDbPolyline
 90
        2
 70
     0
 39
0.003
 10
0.597417
 20
-0.886697
 40
0.003
 41
0.003
 10
-0.058732
 20
-1.270224
 40
0.003
 41
0.003
  0
LWPOLYLINE
  5
420
100
AcDbEntity
  8
0
 62
   127
100
AcDbPolyline
 90
        2
 70
     0
 39
0.003
 10
-0.058732
 20
-1.270224
 40
0.003
 41
0.003
 10
-0.066634
 20
-1.279949
 40
0.003
 41
0.003
  0
LWPOLYLINE
  5
421
100
AcDbEntity
  8
0
 62
   127
100
AcDbPolyline
 90
        2
 70
     0
 39
0.003
 10
-0.058732
 20
-1.270224
 40
0.003
 41
0.003
 10
0.597417
 20
-0.886697
 40
0.003
 41
0.003
  0
LWPOLYLINE
  5
422
100
AcDbEntity
  8
0
 62
   127
100
AcDbPolyline
 90
        2
 70
     0
 39
0.003
 10
0.597417
 20
-0.886697
 40
0.003
 41
0.003
 10
0.604878
 20
-0.876315
 40
0.003
 41
0.003
  0
LWPOLYLINE
  5
423
100
AcDbEntity
  8
0
 62
   127
100
AcDbPolyline
 90
        2
 70
     0
 39
0.003
 10
0.604878
 20
-0.876315
 40
0.003
 41
0.003
 10
-0.051272
 20
-1.259843
 40
0.003
 41
0.003
  0
LWPOLYLINE
  5
424
100
AcDbEntity
  8
0
 62
   127
100
AcDbPolyline
 90
        2
 70
     0
 39
0.003
 10
-0.051272
 20
-1.259843
 40
0.003
 41
0.003
 10
-0.058732
 20
-1.270224
 40
0.003
 41
0.003
  0
LWPOLYLINE
  5
425
100
AcDbEntity
  8
0
 62
     8
100
AcDbPolyline
 90
        2
 70
     0
 39
0.003
 10
-0.051272
 20
-1.259843
 40
0.003
 41
0.003
 10
0.604878
 20
-0.876315
 40
0.003
 41
0.003
  0
LWPOLYLINE
  5
426
100
AcDbEntity
  8
0
 62
     8
100
AcDbPolyline
 90
        2
 70
     0
 39
0.003
 10
0.604878
 20
-0.876315
 40
0.003
 41
0.003
 10
0.611858
 20
-0.865331
 40
0.003
 41
0.003
  0
LWPOLYLINE
  5
427
100
AcDbEntity
  8
0
 62
     8
100
AcDbPolyline
 90
        2
 70
     0
 39
0.003
 10
0.611858
 20
-0.865331
 40
0.003
 41
0.003
 10
-0.044291
 20
-1.248858
 40
0.003
 41
0.003
  0
LWPOLYLINE
  5
428
100
AcDbEntity
  8
0
 62
     8
100
AcDbPolyline
 90
        2
 70
     0
 39
0.003
 10
-0.044291
 20
-1.248858
 40
0.003
 41
0.003
 10
-0.051272
 20
-1.259843
 40
0.003
 41
0.003
  0
LWPOLYLINE
  5
429
100
AcDbEntity
  8
0
 62
     8
100
AcDbPolyline
 90
        2
 70
     0
 39
0.003
 10
-0.044291
 20
-1.248858
 40
0.003
 41
0.003
 10
0.611858
 20
-0.865331
 40
0.003
 41
0.003
  0
LWPOLYLINE
  5
42A
100
AcDbEntity
  8
0
 62
     8
100
AcDbPolyline
 90
        2
 70
     0
 39
0.003
 10
0.611858
 20
-0.865331
 40
0.003
 41
0.003
 10
0.618303
 20
-0.853835
 40
0.003
 41
0.003
  0
LWPOLYLINE
  5
42B
100
AcDbEntity
  8
0
 62
     8
100
AcDbPolyline
 90
        2
 70
     0
 39
0.003
 10
0.618303
 20
-0.853835
 40
0.003
 41
0.003
 10
-0.037846
 20
-1.237362
 40
0.003
 41
0.003
  0
LWPOLYLINE
  5
42C
100
AcDbEntity
  8
0
 62
     8
100
AcDbPolyline
 90
        2
 70
     0
 39
0.003
 10
-0.037846
 20
-1.237362
 40
0.003
 41
0.003
 10
-0.044291
 20
-1.248858
 40
0.003
 41
0.003
  0
LWPOLYLINE
  5
42D
100
AcDbEntity
  8
0
 62
   252
100
AcDbPolyline
 90
        2
 70
     0
 39
0.003
 10
-0.037846
 20
-1.237362
 40
0.003
 41
0.003
 10
0.618303
 20
-0.853835
 40
0.003
 41
0.003
  0
LWPOLYLINE
  5
42E
100
AcDbEntity
  8
0
 62
   252
100
AcDbPolyline
 90
        2
 70
     0
 39
0.003
 10
0.618303
 20
-0.853835
 40
0.003
 41
0.003
 10
0.624169
 20
-0.841898
 40
0.003
 41
0.003
  0
LWPOLYLINE
  5
42F
100
AcDbEntity
  8
0
 62
   252
100
AcDbPolyline
 90
        2
 70
     0
 39
0.003
 10
0.624169
 20
-0.841898
 40
0.003
 41
0.003
 10
-0.03198
 20
-1.225425
 40
0.003
 41
0.003
  0
LWPOLYLINE
  5
430
100
AcDbEntity
  8
0
 62
   252
100
AcDbPolyline
 90
        2
 70
     0
 39
0.003
 10
-0.03198
 20
-1.225425
 40
0.003
 41
0.003
 10
-0.037846
 20
-1.237362
 40
0.003
 41
0.003
  0
LWPOLYLINE
  5
431
100
AcDbEntity
  8
0
 62
   253
100
AcDbPolyline
 90
        2
 70
     0
 39
0.003
 10
-0.03198
 20
-1.225425
 40
0.003
 41
0.003
 10
0.624169
 20
-0.841898
 40
0.003
 41
0.003
  0
LWPOLYLINE
  5
432
100
AcDbEntity
  8
0
 62
   253
100
AcDbPolyline
 90
        2
 70
     0
 39
0.003
 10
0.624169
 20
-0.841898
 40
0.003
 41
0.003
 10
0.629402
 20
-0.829602
 40
0.003
 41
0.003
  0
LWPOLYLINE
  5
433
100
AcDbEntity
  8
0
 62
   253
100
AcDbPolyline
 90
        2
 70
     0
 39
0.003
 10
0.629402
 20
-0.829602
 40
0.003
 41
0.003
 10
-0.026748
 20
-1.21313
 40
0.003
 41
0.003
  0
LWPOLYLINE
  5
434
100
AcDbEntity
  8
0
 62
   253
100
AcDbPolyline
 90
        2
 70
     0
 39
0.003
 10
-0.026748
 20
-1.21313
 40
0.003
 41
0.003
 10
-0.03198
 20
-1.225425
 40
0.003
 41
0.003
  0
LWPOLYLINE
  5
435
100
AcDbEntity
  8
0
 62
   253
100
AcDbPolyline
 90
        2
 70
     0
 39
0.003
 10
-0.026748
 20
-1.21313
 40
0.003
 41
0.003
 10
0.629402
 20
-0.829602
 40
0.003
 41
0.003
  0
LWPOLYLINE
  5
436
100
AcDbEntity
  8
0
 62
   253
100
AcDbPolyline
 90
        2
 70
     0
 39
0.003
 10
0.629402
 20
-0.829602
 40
0.003
 41
0.003
 10
0.633969
 20
-0.817016
 40
0.003
 41
0.003
  0
LWPOLYLINE
  5
437
100
AcDbEntity
  8
0
 62
   253
100
AcDbPolyline
 90
        2
 70
     0
 39
0.003
 10
0.633969
 20
-0.817016
 40
0.003
 41
0.003
 10
-0.022181
 20
-1.200543
 40
0.003
 41
0.003
  0
LWPOLYLINE
  5
438
100
AcDbEntity
  8
0
 62
   253
100
AcDbPolyline
 90
        2
 70
     0
 39
0.003
 10
-0.022181
 20
-1.200543
 40
0.003
 41
0.003
 10
-0.026748
 20
-1.21313
 40
0.003
 41
0.003
  0
LWPOLYLINE
  5
439
100
AcDbEntity
  8
0
 62
   253
100
AcDbPolyline
 90
        2
 70
     0
 39
0.003
 10
-0.022181
 20
-1.200543
 40
0.003
 41
0.003
 10
0.633969
 20
-0.817016
 40
0.003
 41
0.003
  0
LWPOLYLINE
  5
43A
100
AcDbEntity
  8
0
 62
   253
100
AcDbPolyline
 90
        2
 70
     0
 39
0.003
 10
0.633969
 20
-0.817016
 40
0.003
 41
0.003
 10
0.637803
 20
-0.804224
 40
0.003
 41
0.003
  0
LWPOLYLINE
  5
43B
100
AcDbEntity
  8
0
 62
   253
100
AcDbPolyline
 90
        2
 70
     0
 39
0.003
 10
0.637803
 20
-0.804224
 40
0.003
 41
0.003
 10
-0.018346
 20
-1.187752
 40
0.003
 41
0.003
  0
LWPOLYLINE
  5
43C
100
AcDbEntity
  8
0
 62
   253
100
AcDbPolyline
 90
        2
 70
     0
 39
0.003
 10
-0.018346
 20
-1.187752
 40
0.003
 41
0.003
 10
-0.022181
 20
-1.200543
 40
0.003
 41
0.003
  0
LWPOLYLINE
  5
43D
100
AcDbEntity
  8
0
 62
   253
100
AcDbPolyline
 90
        2
 70
     0
 39
0.003
 10
-0.018346
 20
-1.187752
 40
0.003
 41
0.003
 10
0.637803
 20
-0.804224
 40
0.003
 41
0.003
  0
LWPOLYLINE
  5
43E
100
AcDbEntity
  8
0
 62
   253
100
AcDbPolyline
 90
        2
 70
     0
 39
0.003
 10
0.637803
 20
-0.804224
 40
0.003
 41
0.003
 10
0.640874
 20
-0.791291
 40
0.003
 41
0.003
  0
LWPOLYLINE
  5
43F
100
AcDbEntity
  8
0
 62
   253
100
AcDbPolyline
 90
        2
 70
     0
 39
0.003
 10
0.640874
 20
-0.791291
 40
0.003
 41
0.003
 10
-0.015276
 20
-1.174819
 40
0.003
 41
0.003
  0
LWPOLYLINE
  5
440
100
AcDbEntity
  8
0
 62
   253
100
AcDbPolyline
 90
        2
 70
     0
 39
0.003
 10
-0.015276
 20
-1.174819
 40
0.003
 41
0.003
 10
-0.018346
 20
-1.187752
 40
0.003
 41
0.003
  0
LWPOLYLINE
  5
441
100
AcDbEntity
  8
0
 62
   253
100
AcDbPolyline
 90
        2
 70
     0
 39
0.003
 10
-0.015276
 20
-1.174819
 40
0.003
 41
0.003
 10
0.640874
 20
-0.791291
 40
0.003
 41
0.003
  0
LWPOLYLINE
  5
442
100
AcDbEntity
  8
0
 62
   253
100
AcDbPolyline
 90
        2
 70
     0
 39
0.003
 10
0.640874
 20
-0.791291
 40
0.003
 41
0.003
 10
0.643122
 20
-0.778307
 40
0.003
 41
0.003
  0
LWPOLYLINE
  5
443
100
AcDbEntity
  8
0
 62
   253
100
AcDbPolyline
 90
        2
 70
     0
 39
0.003
 10
0.643122
 20
-0.778307
 40
0.003
 41
0.003
 10
-0.013028
 20
-1.161835
 40
0.003
 41
0.003
  0
LWPOLYLINE
  5
444
100
AcDbEntity
  8
0
 62
   253
100
AcDbPolyline
 90
        2
 70
     0
 39
0.003
 10
-0.013028
 20
-1.161835
 40
0.003
 41
0.003
 10
-0.015276
 20
-1.174819
 40
0.003
 41
0.003
  0
LWPOLYLINE
  5
445
100
AcDbEntity
  8
0
 62
     9
100
AcDbPolyline
 90
        2
 70
     0
 39
0.003
 10
-0.013028
 20
-1.161835
 40
0.003
 41
0.003
 10
0.643122
 20
-0.778307
 40
0.003
 41
0.003
  0
LWPOLYLINE
  5
446
100
AcDbEntity
  8
0
 62
     9
100
AcDbPolyline
 90
        2
 70
     0
 39
0.003
 10
0.643122
 20
-0.778307
 40
0.003
 41
0.003
 10
0.644516
 20
-0.765327
 40
0.003
 41
0.003
  0
LWPOLYLINE
  5
447
100
AcDbEntity
  8
0
 62
     9
100
AcDbPolyline
 90
        2
 70
     0
 39
0.003
 10
0.644516
 20
-0.765327
 40
0.003
 41
0.003
 10
-0.011634
 20
-1.148854
 40
0.003
 41
0.003
  0
LWPOLYLINE
  5
448
100
AcDbEntity
  8
0
 62
     9
100
AcDbPolyline
 90
        2
 70
     0
 39
0.003
 10
-0.011634
 20
-1.148854
 40
0.003
 41
0.003
 10
-0.013028
 20
-1.161835
 40
0.003
 41
0.003
  0
LWPOLYLINE
  5
449
100
AcDbEntity
  8
0
 62
     9
100
AcDbPolyline
 90
        2
 70
     0
 39
0.003
 10
-0.011634
 20
-1.148854
 40
0.003
 41
0.003
 10
0.644516
 20
-0.765327
 40
0.003
 41
0.003
  0
LWPOLYLINE
  5
44A
100
AcDbEntity
  8
0
 62
     9
100
AcDbPolyline
 90
        2
 70
     0
 39
0.003
 10
0.644516
 20
-0.765327
 40
0.003
 41
0.003
 10
0.644988
 20
-0.752453
 40
0.003
 41
0.003
  0
LWPOLYLINE
  5
44B
100
AcDbEntity
  8
0
 62
     9
100
AcDbPolyline
 90
        2
 70
     0
 39
0.003
 10
0.644988
 20
-0.752453
 40
0.003
 41
0.003
 10
-0.011161
 20
-1.13598
 40
0.003
 41
0.003
  0
LWPOLYLINE
  5
44C
100
AcDbEntity
  8
0
 62
     9
100
AcDbPolyline
 90
        2
 70
     0
 39
0.003
 10
-0.011161
 20
-1.13598
 40
0.003
 41
0.003
 10
-0.011634
 20
-1.148854
 40
0.003
 41
0.003
  0
LWPOLYLINE
  5
44D
100
AcDbEntity
  8
0
 62
     9
100
AcDbPolyline
 90
        2
 70
     0
 39
0.003
 10
-0.011161
 20
-1.13598
 40
0.003
 41
0.003
 10
0.644988
 20
-0.752453
 40
0.003
 41
0.003
  0
LWPOLYLINE
  5
44E
100
AcDbEntity
  8
0
 62
     9
100
AcDbPolyline
 90
        2
 70
     0
 39
0.003
 10
0.644988
 20
-0.752453
 40
0.003
 41
0.003
 10
0.644508
 20
-0.739744
 40
0.003
 41
0.003
  0
LWPOLYLINE
  5
44F
100
AcDbEntity
  8
0
 62
     9
100
AcDbPolyline
 90
        2
 70
     0
 39
0.003
 10
0.644508
 20
-0.739744
 40
0.003
 41
0.003
 10
-0.011642
 20
-1.123272
 40
0.003
 41
0.003
  0
LWPOLYLINE
  5
450
100
AcDbEntity
  8
0
 62
     9
100
AcDbPolyline
 90
        2
 70
     0
 39
0.003
 10
-0.011642
 20
-1.123272
 40
0.003
 41
0.003
 10
-0.011161
 20
-1.13598
 40
0.003
 41
0.003
  0
LWPOLYLINE
  5
451
100
AcDbEntity
  8
0
 62
     9
100
AcDbPolyline
 90
        2
 70
     0
 39
0.003
 10
-0.011642
 20
-1.123272
 40
0.003
 41
0.003
 10
0.644508
 20
-0.739744
 40
0.003
 41
0.003
  0
LWPOLYLINE
  5
452
100
AcDbEntity
  8
0
 62
     9
100
AcDbPolyline
 90
        2
 70
     0
 39
0.003
 10
0.644508
 20
-0.739744
 40
0.003
 41
0.003
 10
0.643016
 20
-0.727287
 40
0.003
 41
0.003
  0
LWPOLYLINE
  5
453
100
AcDbEntity
  8
0
 62
     9
100
AcDbPolyline
 90
        2
 70
     0
 39
0.003
 10
0.643016
 20
-0.727287
 40
0.003
 41
0.003
 10
-0.013134
 20
-1.110815
 40
0.003
 41
0.003
  0
LWPOLYLINE
  5
454
100
AcDbEntity
  8
0
 62
     9
100
AcDbPolyline
 90
        2
 70
     0
 39
0.003
 10
-0.013134
 20
-1.110815
 40
0.003
 41
0.003
 10
-0.011642
 20
-1.123272
 40
0.003
 41
0.003
  0
LWPOLYLINE
  5
455
100
AcDbEntity
  8
0
 62
     9
100
AcDbPolyline
 90
        2
 70
     0
 39
0.003
 10
-0.013134
 20
-1.110815
 40
0.003
 41
0.003
 10
0.643016
 20
-0.727287
 40
0.003
 41
0.003
  0
LWPOLYLINE
  5
456
100
AcDbEntity
  8
0
 62
     9
100
AcDbPolyline
 90
        2
 70
     0
 39
0.003
 10
0.643016
 20
-0.727287
 40
0.003
 41
0.003
 10
0.640476
 20
-0.715146
 40
0.003
 41
0.003
  0
LWPOLYLINE
  5
457
100
AcDbEntity
  8
0
 62
     9
100
AcDbPolyline
 90
        2
 70
     0
 39
0.003
 10
0.640476
 20
-0.715146
 40
0.003
 41
0.003
 10
-0.015673
 20
-1.098673
 40
0.003
 41
0.003
  0
LWPOLYLINE
  5
458
100
AcDbEntity
  8
0
 62
     9
100
AcDbPolyline
 90
        2
 70
     0
 39
0.003
 10
-0.015673
 20
-1.098673
 40
0.003
 41
0.003
 10
-0.013134
 20
-1.110815
 40
0.003
 41
0.003
  0
LWPOLYLINE
  5
459
100
AcDbEntity
  8
0
 62
     9
100
AcDbPolyline
 90
        2
 70
     0
 39
0.003
 10
-0.015673
 20
-1.098673
 40
0.003
 41
0.003
 10
0.640476
 20
-0.715146
 40
0.003
 41
0.003
  0
LWPOLYLINE
  5
45A
100
AcDbEntity
  8
0
 62
     9
100
AcDbPolyline
 90
        2
 70
     0
 39
0.003
 10
0.640476
 20
-0.715146
 40
0.003
 41
0.003
 10
0.636827
 20
-0.703409
 40
0.003
 41
0.003
  0
LWPOLYLINE
  5
45B
100
AcDbEntity
  8
0
 62
     9
100
AcDbPolyline
 90
        2
 70
     0
 39
0.003
 10
0.636827
 20
-0.703409
 40
0.003
 41
0.003
 10
-0.019323
 20
-1.086937
 40
0.003
 41
0.003
  0
LWPOLYLINE
  5
45C
100
AcDbEntity
  8
0
 62
     9
100
AcDbPolyline
 90
        2
 70
     0
 39
0.003
 10
-0.019323
 20
-1.086937
 40
0.003
 41
0.003
 10
-0.015673
 20
-1.098673
 40
0.003
 41
0.003
  0
LWPOLYLINE
  5
45D
100
AcDbEntity
  8
0
 62
     9
100
AcDbPolyline
 90
        2
 70
     0
 39
0.003
 10
-0.019323
 20
-1.086937
 40
0.003
 41
0.003
 10
0.636827
 20
-0.703409
 40
0.003
 41
0.003
  0
LWPOLYLINE
  5
45E
100
AcDbEntity
  8
0
 62
     9
100
AcDbPolyline
 90
        2
 70
     0
 39
0.003
 10
0.636827
 20
-0.703409
 40
0.003
 41
0.003
 10
0.632031
 20
-0.692146
 40
0.003
 41
0.003
  0
LWPOLYLINE
  5
45F
100
AcDbEntity
  8
0
 62
     9
100
AcDbPolyline
 90
        2
 70
     0
 39
0.003
 10
0.632031
 20
-0.692146
 40
0.003
 41
0.003
 10
-0.024118
 20
-1.075673
 40
0.003
 41
0.003
  0
LWPOLYLINE
  5
460
100
AcDbEntity
  8
0
 62
     9
100
AcDbPolyline
 90
        2
 70
     0
 39
0.003
 10
-0.024118
 20
-1.075673
 40
0.003
 41
0.003
 10
-0.019323
 20
-1.086937
 40
0.003
 41
0.003
  0
LWPOLYLINE
  5
461
100
AcDbEntity
  8
0
 62
     9
100
AcDbPolyline
 90
        2
 70
     0
 39
0.003
 10
-0.024118
 20
-1.075673
 40
0.003
 41
0.003
 10
0.632031
 20
-0.692146
 40
0.003
 41
0.003
  0
LWPOLYLINE
  5
462
100
AcDbEntity
  8
0
 62
     9
100
AcDbPolyline
 90
        2
 70
     0
 39
0.003
 10
0.632031
 20
-0.692146
 40
0.003
 41
0.003
 10
0.626035
 20
-0.681437
 40
0.003
 41
0.003
  0
LWPOLYLINE
  5
463
100
AcDbEntity
  8
0
 62
     9
100
AcDbPolyline
 90
        2
 70
     0
 39
0.003
 10
0.626035
 20
-0.681437
 40
0.003
 41
0.003
 10
-0.030114
 20
-1.064965
 40
0.003
 41
0.003
  0
LWPOLYLINE
  5
464
100
AcDbEntity
  8
0
 62
     9
100
AcDbPolyline
 90
        2
 70
     0
 39
0.003
 10
-0.030114
 20
-1.064965
 40
0.003
 41
0.003
 10
-0.024118
 20
-1.075673
 40
0.003
 41
0.003
  0
LWPOLYLINE
  5
465
100
AcDbEntity
  8
0
 62
     9
100
AcDbPolyline
 90
        2
 70
     0
 39
0.003
 10
-0.030114
 20
-1.064965
 40
0.003
 41
0.003
 10
0.626035
 20
-0.681437
 40
0.003
 41
0.003
  0
LWPOLYLINE
  5
466
100
AcDbEntity
  8
0
 62
     9
100
AcDbPolyline
 90
        2
 70
     0
 39
0.003
 10
0.626035
 20
-0.681437
 40
0.003
 41
0.003
 10
0.618807
 20
-0.671346
 40
0.003
 41
0.003
  0
LWPOLYLINE
  5
467
100
AcDbEntity
  8
0
 62
     9
100
AcDbPolyline
 90
        2
 70
     0
 39
0.003
 10
0.618807
 20
-0.671346
 40
0.003
 41
0.003
 10
-0.037343
 20
-1.054874
 40
0.003
 41
0.003
  0
LWPOLYLINE
  5
468
100
AcDbEntity
  8
0
 62
     9
100
AcDbPolyline
 90
        2
 70
     0
 39
0.003
 10
-0.037343
 20
-1.054874
 40
0.003
 41
0.003
 10
-0.030114
 20
-1.064965
 40
0.003
 41
0.003
  0
LWPOLYLINE
  5
469
100
AcDbEntity
  8
0
 62
     9
100
AcDbPolyline
 90
        2
 70
     0
 39
0.003
 10
-0.037343
 20
-1.054874
 40
0.003
 41
0.003
 10
0.618807
 20
-0.671346
 40
0.003
 41
0.003
  0
LWPOLYLINE
  5
46A
100
AcDbEntity
  8
0
 62
     9
100
AcDbPolyline
 90
        2
 70
     0
 39
0.003
 10
0.618807
 20
-0.671346
 40
0.003
 41
0.003
 10
0.61028
 20
-0.661969
 40
0.003
 41
0.003
  0
LWPOLYLINE
  5
46B
100
AcDbEntity
  8
0
 62
     9
100
AcDbPolyline
 90
        2
 70
     0
 39
0.003
 10
0.61028
 20
-0.661969
 40
0.003
 41
0.003
 10
-0.04587
 20
-1.045496
 40
0.003
 41
0.003
  0
LWPOLYLINE
  5
46C
100
AcDbEntity
  8
0
 62
     9
100
AcDbPolyline
 90
        2
 70
     0
 39
0.003
 10
-0.04587
 20
-1.045496
 40
0.003
 41
0.003
 10
-0.037343
 20
-1.054874
 40
0.003
 41
0.003
  0
LWPOLYLINE
  5
46D
100
AcDbEntity
  8
0
 62
     9
100
AcDbPolyline
 90
        2
 70
     0
 39
0.003
 10
-0.04587
 20
-1.045496
 40
0.003
 41
0.003
 10
0.61028
 20
-0.661969
 40
0.003
 41
0.003
  0
LWPOLYLINE
  5
46E
100
AcDbEntity
  8
0
 62
     9
100
AcDbPolyline
 90
        2
 70
     0
 39
0.003
 10
0.61028
 20
-0.661969
 40
0.003
 41
0.003
 10
0.600417
 20
-0.653366
 40
0.003
 41
0.003
  0
LWPOLYLINE
  5
46F
100
AcDbEntity
  8
0
 62
     9
100
AcDbPolyline
 90
        2
 70
     0
 39
0.003
 10
0.600417
 20
-0.653366
 40
0.003
 41
0.003
 10
-0.055732
 20
-1.036894
 40
0.003
 41
0.003
  0
LWPOLYLINE
  5
470
100
AcDbEntity
  8
0
 62
     9
100
AcDbPolyline
 90
        2
 70
     0
 39
0.003
 10
-0.055732
 20
-1.036894
 40
0.003
 41
0.003
 10
-0.04587
 20
-1.045496
 40
0.003
 41
0.003
  0
LWPOLYLINE
  5
471
100
AcDbEntity
  8
0
 62
     9
100
AcDbPolyline
 90
        2
 70
     0
 39
0.003
 10
-0.055732
 20
-1.036894
 40
0.003
 41
0.003
 10
0.600417
 20
-0.653366
 40
0.003
 41
0.003
  0
LWPOLYLINE
  5
472
100
AcDbEntity
  8
0
 62
     9
100
AcDbPolyline
 90
        2
 70
     0
 39
0.003
 10
0.600417
 20
-0.653366
 40
0.003
 41
0.003
 10
0.589165
 20
-0.645626
 40
0.003
 41
0.003
  0
LWPOLYLINE
  5
473
100
AcDbEntity
  8
0
 62
     9
100
AcDbPolyline
 90
        2
 70
     0
 39
0.003
 10
0.589165
 20
-0.645626
 40
0.003
 41
0.003
 10
-0.066984
 20
-1.029154
 40
0.003
 41
0.003
  0
LWPOLYLINE
  5
474
100
AcDbEntity
  8
0
 62
     9
100
AcDbPolyline
 90
        2
 70
     0
 39
0.003
 10
-0.066984
 20
-1.029154
 40
0.003
 41
0.003
 10
-0.055732
 20
-1.036894
 40
0.003
 41
0.003
  0
LWPOLYLINE
  5
475
100
AcDbEntity
  8
0
 62
     9
100
AcDbPolyline
 90
        2
 70
     0
 39
0.003
 10
-0.066984
 20
-1.029154
 40
0.003
 41
0.003
 10
0.589165
 20
-0.645626
 40
0.003
 41
0.003
  0
LWPOLYLINE
  5
476
100
AcDbEntity
  8
0
 62
     9
100
AcDbPolyline
 90
        2
 70
     0
 39
0.003
 10
0.589165
 20
-0.645626
 40
0.003
 41
0.003
 10
0.576492
 20
-0.638811
 40
0.003
 41
0.003
  0
LWPOLYLINE
  5
477
100
AcDbEntity
  8
0
 62
     9
100
AcDbPolyline
 90
        2
 70
     0
 39
0.003
 10
0.576492
 20
-0.638811
 40
0.003
 41
0.003
 10
-0.079657
 20
-1.022339
 40
0.003
 41
0.003
  0
LWPOLYLINE
  5
478
100
AcDbEntity
  8
0
 62
     9
100
AcDbPolyline
 90
        2
 70
     0
 39
0.003
 10
-0.079657
 20
-1.022339
 40
0.003
 41
0.003
 10
-0.066984
 20
-1.029154
 40
0.003
 41
0.003
  0
LWPOLYLINE
  5
479
100
AcDbEntity
  8
0
 62
     9
100
AcDbPolyline
 90
        2
 70
     0
 39
0.003
 10
-0.079657
 20
-1.022339
 40
0.003
 41
0.003
 10
0.576492
 20
-0.638811
 40
0.003
 41
0.003
  0
LWPOLYLINE
  5
47A
100
AcDbEntity
  8
0
 62
     9
100
AcDbPolyline
 90
        2
 70
     0
 39
0.003
 10
0.576492
 20
-0.638811
 40
0.003
 41
0.003
 10
0.562327
 20
-0.633012
 40
0.003
 41
0.003
  0
LWPOLYLINE
  5
47B
100
AcDbEntity
  8
0
 62
     9
100
AcDbPolyline
 90
        2
 70
     0
 39
0.003
 10
0.562327
 20
-0.633012
 40
0.003
 41
0.003
 10
-0.093823
 20
-1.016539
 40
0.003
 41
0.003
  0
LWPOLYLINE
  5
47C
100
AcDbEntity
  8
0
 62
     9
100
AcDbPolyline
 90
        2
 70
     0
 39
0.003
 10
-0.093823
 20
-1.016539
 40
0.003
 41
0.003
 10
-0.079657
 20
-1.022339
 40
0.003
 41
0.003
  0
LWPOLYLINE
  5
47D
100
AcDbEntity
  8
0
 62
     9
100
AcDbPolyline
 90
        2
 70
     0
 39
0.003
 10
-0.093823
 20
-1.016539
 40
0.003
 41
0.003
 10
0.562327
 20
-0.633012
 40
0.003
 41
0.003
  0
LWPOLYLINE
  5
47E
100
AcDbEntity
  8
0
 62
     9
100
AcDbPolyline
 90
        2
 70
     0
 39
0.003
 10
0.562327
 20
-0.633012
 40
0.003
 41
0.003
 10
0.546642
 20
-0.628295
 40
0.003
 41
0.003
  0
LWPOLYLINE
  5
47F
100
AcDbEntity
  8
0
 62
     9
100
AcDbPolyline
 90
        2
 70
     0
 39
0.003
 10
0.546642
 20
-0.628295
 40
0.003
 41
0.003
 10
-0.109508
 20
-1.011823
 40
0.003
 41
0.003
  0
LWPOLYLINE
  5
480
100
AcDbEntity
  8
0
 62
     9
100
AcDbPolyline
 90
        2
 70
     0
 39
0.003
 10
-0.109508
 20
-1.011823
 40
0.003
 41
0.003
 10
-0.093823
 20
-1.016539
 40
0.003
 41
0.003
  0
LWPOLYLINE
  5
481
100
AcDbEntity
  8
0
 62
     9
100
AcDbPolyline
 90
        2
 70
     0
 39
0.003
 10
-0.109508
 20
-1.011823
 40
0.003
 41
0.003
 10
0.546642
 20
-0.628295
 40
0.003
 41
0.003
  0
LWPOLYLINE
  5
482
100
AcDbEntity
  8
0
 62
     9
100
AcDbPolyline
 90
        2
 70
     0
 39
0.003
 10
0.546642
 20
-0.628295
 40
0.003
 41
0.003
 10
0.52937
 20
-0.624744
 40
0.003
 41
0.003
  0
LWPOLYLINE
  5
483
100
AcDbEntity
  8
0
 62
     9
100
AcDbPolyline
 90
        2
 70
     0
 39
0.003
 10
0.52937
 20
-0.624744
 40
0.003
 41
0.003
 10
-0.12678
 20
-1.008272
 40
0.003
 41
0.003
  0
LWPOLYLINE
  5
484
100
AcDbEntity
  8
0
 62
     9
100
AcDbPolyline
 90
        2
 70
     0
 39
0.003
 10
-0.12678
 20
-1.008272
 40
0.003
 41
0.003
 10
-0.109508
 20
-1.011823
 40
0.003
 41
0.003
  0
LWPOLYLINE
  5
485
100
AcDbEntity
  8
0
 62
     9
100
AcDbPolyline
 90
        2
 70
     0
 39
0.003
 10
-0.12678
 20
-1.008272
 40
0.003
 41
0.003
 10
0.52937
 20
-0.624744
 40
0.003
 41
0.003
  0
LWPOLYLINE
  5
486
100
AcDbEntity
  8
0
 62
     9
100
AcDbPolyline
 90
        2
 70
     0
 39
0.003
 10
0.52937
 20
-0.624744
 40
0.003
 41
0.003
 10
0.52937
 20
-0.562161
 40
0.003
 41
0.003
  0
LWPOLYLINE
  5
487
100
AcDbEntity
  8
0
 62
     9
100
AcDbPolyline
 90
        2
 70
     0
 39
0.003
 10
0.52937
 20
-0.562161
 40
0.003
 41
0.003
 10
-0.12678
 20
-0.945689
 40
0.003
 41
0.003
  0
LWPOLYLINE
  5
488
100
AcDbEntity
  8
0
 62
     9
100
AcDbPolyline
 90
        2
 70
     0
 39
0.003
 10
-0.12678
 20
-0.945689
 40
0.003
 41
0.003
 10
-0.12678
 20
-1.008272
 40
0.003
 41
0.003
  0
LWPOLYLINE
  5
489
100
AcDbEntity
  8
0
 62
     0
100
AcDbPolyline
 90
        2
 70
     0
 39
0.003
 10
-0.101681
 20
-1.310622
 40
0.003
 41
0.003
 10
0.554469
 20
-0.927094
 40
0.003
 41
0.003
  0
LWPOLYLINE
  5
48A
100
AcDbEntity
  8
0
 62
     0
100
AcDbPolyline
 90
        2
 70
     0
 39
0.003
 10
0.554469
 20
-0.927094
 40
0.003
 41
0.003
 10
0.563654
 20
-0.920803
 40
0.003
 41
0.003
  0
LWPOLYLINE
  5
48B
100
AcDbEntity
  8
0
 62
     0
100
AcDbPolyline
 90
        2
 70
     0
 39
0.003
 10
0.563654
 20
-0.920803
 40
0.003
 41
0.003
 10
0.572583
 20
-0.913551
 40
0.003
 41
0.003
  0
LWPOLYLINE
  5
48C
100
AcDbEntity
  8
0
 62
     0
100
AcDbPolyline
 90
        2
 70
     0
 39
0.003
 10
0.572583
 20
-0.913551
 40
0.003
 41
0.003
 10
0.581224
 20
-0.905394
 40
0.003
 41
0.003
  0
LWPOLYLINE
  5
48D
100
AcDbEntity
  8
0
 62
     0
100
AcDbPolyline
 90
        2
 70
     0
 39
0.003
 10
0.581224
 20
-0.905394
 40
0.003
 41
0.003
 10
0.589516
 20
-0.896421
 40
0.003
 41
0.003
  0
LWPOLYLINE
  5
48E
100
AcDbEntity
  8
0
 62
     0
100
AcDbPolyline
 90
        2
 70
     0
 39
0.003
 10
0.589516
 20
-0.896421
 40
0.003
 41
0.003
 10
0.597417
 20
-0.886697
 40
0.003
 41
0.003
  0
LWPOLYLINE
  5
48F
100
AcDbEntity
  8
0
 62
     0
100
AcDbPolyline
 90
        2
 70
     0
 39
0.003
 10
0.597417
 20
-0.886697
 40
0.003
 41
0.003
 10
0.604878
 20
-0.876315
 40
0.003
 41
0.003
  0
LWPOLYLINE
  5
490
100
AcDbEntity
  8
0
 62
     0
100
AcDbPolyline
 90
        2
 70
     0
 39
0.003
 10
0.604878
 20
-0.876315
 40
0.003
 41
0.003
 10
0.611858
 20
-0.865331
 40
0.003
 41
0.003
  0
LWPOLYLINE
  5
491
100
AcDbEntity
  8
0
 62
     0
100
AcDbPolyline
 90
        2
 70
     0
 39
0.003
 10
0.611858
 20
-0.865331
 40
0.003
 41
0.003
 10
0.618303
 20
-0.853835
 40
0.003
 41
0.003
  0
LWPOLYLINE
  5
492
100
AcDbEntity
  8
0
 62
     0
100
AcDbPolyline
 90
        2
 70
     0
 39
0.003
 10
0.618303
 20
-0.853835
 40
0.003
 41
0.003
 10
0.624169
 20
-0.841898
 40
0.003
 41
0.003
  0
LWPOLYLINE
  5
493
100
AcDbEntity
  8
0
 62
     0
100
AcDbPolyline
 90
        2
 70
     0
 39
0.003
 10
0.624169
 20
-0.841898
 40
0.003
 41
0.003
 10
0.629402
 20
-0.829602
 40
0.003
 41
0.003
  0
LWPOLYLINE
  5
494
100
AcDbEntity
  8
0
 62
     0
100
AcDbPolyline
 90
        2
 70
     0
 39
0.003
 10
0.629402
 20
-0.829602
 40
0.003
 41
0.003
 10
0.633969
 20
-0.817016
 40
0.003
 41
0.003
  0
LWPOLYLINE
  5
495
100
AcDbEntity
  8
0
 62
     0
100
AcDbPolyline
 90
        2
 70
     0
 39
0.003
 10
0.633969
 20
-0.817016
 40
0.003
 41
0.003
 10
0.637803
 20
-0.804224
 40
0.003
 41
0.003
  0
LWPOLYLINE
  5
496
100
AcDbEntity
  8
0
 62
     0
100
AcDbPolyline
 90
        2
 70
     0
 39
0.003
 10
0.637803
 20
-0.804224
 40
0.003
 41
0.003
 10
0.640874
 20
-0.791291
 40
0.003
 41
0.003
  0
LWPOLYLINE
  5
497
100
AcDbEntity
  8
0
 62
     0
100
AcDbPolyline
 90
        2
 70
     0
 39
0.003
 10
0.640874
 20
-0.791291
 40
0.003
 41
0.003
 10
0.643122
 20
-0.778307
 40
0.003
 41
0.003
  0
LWPOLYLINE
  5
498
100
AcDbEntity
  8
0
 62
     0
100
AcDbPolyline
 90
        2
 70
     0
 39
0.003
 10
0.643122
 20
-0.778307
 40
0.003
 41
0.003
 10
0.644516
 20
-0.765327
 40
0.003
 41
0.003
  0
LWPOLYLINE
  5
499
100
AcDbEntity
  8
0
 62
     0
100
AcDbPolyline
 90
        2
 70
     0
 39
0.003
 10
0.644516
 20
-0.765327
 40
0.003
 41
0.003
 10
0.644988
 20
-0.752453
 40
0.003
 41
0.003
  0
LWPOLYLINE
  5
49A
100
AcDbEntity
  8
0
 62
     0
100
AcDbPolyline
 90
        2
 70
     0
 39
0.003
 10
0.644988
 20
-0.752453
 40
0.003
 41
0.003
 10
0.644508
 20
-0.739744
 40
0.003
 41
0.003
  0
LWPOLYLINE
  5
49B
100
AcDbEntity
  8
0
 62
     0
100
AcDbPolyline
 90
        2
 70
     0
 39
0.003
 10
0.644508
 20
-0.739744
 40
0.003
 41
0.003
 10
0.643016
 20
-0.727287
 40
0.003
 41
0.003
  0
LWPOLYLINE
  5
49C
100
AcDbEntity
  8
0
 62
     0
100
AcDbPolyline
 90
        2
 70
     0
 39
0.003
 10
0.643016
 20
-0.727287
 40
0.003
 41
0.003
 10
0.640476
 20
-0.715146
 40
0.003
 41
0.003
  0
LWPOLYLINE
  5
49D
100
AcDbEntity
  8
0
 62
     0
100
AcDbPolyline
 90
        2
 70
     0
 39
0.003
 10
0.640476
 20
-0.715146
 40
0.003
 41
0.003
 10
0.636827
 20
-0.703409
 40
0.003
 41
0.003
  0
LWPOLYLINE
  5
49E
100
AcDbEntity
  8
0
 62
     0
100
AcDbPolyline
 90
        2
 70
     0
 39
0.003
 10
0.636827
 20
-0.703409
 40
0.003
 41
0.003
 10
0.632031
 20
-0.692146
 40
0.003
 41
0.003
  0
LWPOLYLINE
  5
49F
100
AcDbEntity
  8
0
 62
     0
100
AcDbPolyline
 90
        2
 70
     0
 39
0.003
 10
0.632031
 20
-0.692146
 40
0.003
 41
0.003
 10
0.626035
 20
-0.681437
 40
0.003
 41
0.003
  0
LWPOLYLINE
  5
4A0
100
AcDbEntity
  8
0
 62
     0
100
AcDbPolyline
 90
        2
 70
     0
 39
0.003
 10
0.626035
 20
-0.681437
 40
0.003
 41
0.003
 10
0.618807
 20
-0.671346
 40
0.003
 41
0.003
  0
LWPOLYLINE
  5
4A1
100
AcDbEntity
  8
0
 62
     0
100
AcDbPolyline
 90
        2
 70
     0
 39
0.003
 10
0.618807
 20
-0.671346
 40
0.003
 41
0.003
 10
0.61028
 20
-0.661969
 40
0.003
 41
0.003
  0
LWPOLYLINE
  5
4A2
100
AcDbEntity
  8
0
 62
     0
100
AcDbPolyline
 90
        2
 70
     0
 39
0.003
 10
0.61028
 20
-0.661969
 40
0.003
 41
0.003
 10
0.600417
 20
-0.653366
 40
0.003
 41
0.003
  0
LWPOLYLINE
  5
4A3
100
AcDbEntity
  8
0
 62
     0
100
AcDbPolyline
 90
        2
 70
     0
 39
0.003
 10
0.600417
 20
-0.653366
 40
0.003
 41
0.003
 10
0.589165
 20
-0.645626
 40
0.003
 41
0.003
  0
LWPOLYLINE
  5
4A4
100
AcDbEntity
  8
0
 62
     0
100
AcDbPolyline
 90
        2
 70
     0
 39
0.003
 10
0.589165
 20
-0.645626
 40
0.003
 41
0.003
 10
0.576492
 20
-0.638811
 40
0.003
 41
0.003
  0
LWPOLYLINE
  5
4A5
100
AcDbEntity
  8
0
 62
     0
100
AcDbPolyline
 90
        2
 70
     0
 39
0.003
 10
0.576492
 20
-0.638811
 40
0.003
 41
0.003
 10
0.562327
 20
-0.633012
 40
0.003
 41
0.003
  0
LWPOLYLINE
  5
4A6
100
AcDbEntity
  8
0
 62
     0
100
AcDbPolyline
 90
        2
 70
     0
 39
0.003
 10
0.562327
 20
-0.633012
 40
0.003
 41
0.003
 10
0.546642
 20
-0.628295
 40
0.003
 41
0.003
  0
LWPOLYLINE
  5
4A7
100
AcDbEntity
  8
0
 62
     0
100
AcDbPolyline
 90
        2
 70
     0
 39
0.003
 10
0.546642
 20
-0.628295
 40
0.003
 41
0.003
 10
0.52937
 20
-0.624744
 40
0.003
 41
0.003
  0
LWPOLYLINE
  5
4A8
100
AcDbEntity
  8
0
 62
     0
100
AcDbPolyline
 90
        2
 70
     0
 39
0.003
 10
0.52937
 20
-0.624744
 40
0.003
 41
0.003
 10
0.52937
 20
-0.562161
 40
0.003
 41
0.003
  0
LWPOLYLINE
  5
4A9
100
AcDbEntity
  8
0
 62
     0
100
AcDbPolyline
 90
        2
 70
     0
 39
0.003
 10
0.52937
 20
-0.562161
 40
0.003
 41
0.003
 10
-0.12678
 20
-0.945689
 40
0.003
 41
0.003
  0
LWPOLYLINE
  5
4AA
100
AcDbEntity
  8
0
 62
     0
100
AcDbPolyline
 90
        2
 70
     0
 39
0.003
 10
-0.12678
 20
-0.945689
 40
0.003
 41
0.003
 10
-0.12678
 20
-1.008272
 40
0.003
 41
0.003
  0
LWPOLYLINE
  5
4AB
100
AcDbEntity
  8
0
 62
     0
100
AcDbPolyline
 90
        2
 70
     0
 39
0.003
 10
-0.12678
 20
-1.008272
 40
0.003
 41
0.003
 10
-0.109508
 20
-1.011823
 40
0.003
 41
0.003
  0
LWPOLYLINE
  5
4AC
100
AcDbEntity
  8
0
 62
     0
100
AcDbPolyline
 90
        2
 70
     0
 39
0.003
 10
-0.109508
 20
-1.011823
 40
0.003
 41
0.003
 10
-0.093823
 20
-1.016539
 40
0.003
 41
0.003
  0
LWPOLYLINE
  5
4AD
100
AcDbEntity
  8
0
 62
     0
100
AcDbPolyline
 90
        2
 70
     0
 39
0.003
 10
-0.093823
 20
-1.016539
 40
0.003
 41
0.003
 10
-0.079657
 20
-1.022339
 40
0.003
 41
0.003
  0
LWPOLYLINE
  5
4AE
100
AcDbEntity
  8
0
 62
     0
100
AcDbPolyline
 90
        2
 70
     0
 39
0.003
 10
-0.079657
 20
-1.022339
 40
0.003
 41
0.003
 10
-0.066984
 20
-1.029154
 40
0.003
 41
0.003
  0
LWPOLYLINE
  5
4AF
100
AcDbEntity
  8
0
 62
     0
100
AcDbPolyline
 90
        2
 70
     0
 39
0.003
 10
-0.066984
 20
-1.029154
 40
0.003
 41
0.003
 10
-0.055732
 20
-1.036894
 40
0.003
 41
0.003
  0
LWPOLYLINE
  5
4B0
100
AcDbEntity
  8
0
 62
     0
100
AcDbPolyline
 90
        2
 70
     0
 39
0.003
 10
-0.055732
 20
-1.036894
 40
0.003
 41
0.003
 10
-0.04587
 20
-1.045496
 40
0.003
 41
0.003
  0
LWPOLYLINE
  5
4B1
100
AcDbEntity
  8
0
 62
     0
100
AcDbPolyline
 90
        2
 70
     0
 39
0.003
 10
-0.04587
 20
-1.045496
 40
0.003
 41
0.003
 10
-0.037343
 20
-1.054874
 40
0.003
 41
0.003
  0
LWPOLYLINE
  5
4B2
100
AcDbEntity
  8
0
 62
     0
100
AcDbPolyline
 90
        2
 70
     0
 39
0.003
 10
-0.037343
 20
-1.054874
 40
0.003
 41
0.003
 10
-0.030114
 20
-1.064965
 40
0.003
 41
0.003
  0
LWPOLYLINE
  5
4B3
100
AcDbEntity
  8
0
 62
     0
100
AcDbPolyline
 90
        2
 70
     0
 39
0.003
 10
-0.030114
 20
-1.064965
 40
0.003
 41
0.003
 10
-0.024118
 20
-1.075673
 40
0.003
 41
0.003
  0
LWPOLYLINE
  5
4B4
100
AcDbEntity
  8
0
 62
     0
100
AcDbPolyline
 90
        2
 70
     0
 39
0.003
 10
-0.024118
 20
-1.075673
 40
0.003
 41
0.003
 10
-0.019323
 20
-1.086937
 40
0.003
 41
0.003
  0
LWPOLYLINE
  5
4B5
100
AcDbEntity
  8
0
 62
     0
100
AcDbPolyline
 90
        2
 70
     0
 39
0.003
 10
-0.019323
 20
-1.086937
 40
0.003
 41
0.003
 10
-0.015673
 20
-1.098673
 40
0.003
 41
0.003
  0
LWPOLYLINE
  5
4B6
100
AcDbEntity
  8
0
 62
     0
100
AcDbPolyline
 90
        2
 70
     0
 39
0.003
 10
-0.015673
 20
-1.098673
 40
0.003
 41
0.003
 10
-0.013134
 20
-1.110815
 40
0.003
 41
0.003
  0
LWPOLYLINE
  5
4B7
100
AcDbEntity
  8
0
 62
     0
100
AcDbPolyline
 90
        2
 70
     0
 39
0.003
 10
-0.013134
 20
-1.110815
 40
0.003
 41
0.003
 10
-0.011642
 20
-1.123272
 40
0.003
 41
0.003
  0
LWPOLYLINE
  5
4B8
100
AcDbEntity
  8
0
 62
     0
100
AcDbPolyline
 90
        2
 70
     0
 39
0.003
 10
-0.011642
 20
-1.123272
 40
0.003
 41
0.003
 10
-0.011161
 20
-1.13598
 40
0.003
 41
0.003
  0
LWPOLYLINE
  5
4B9
100
AcDbEntity
  8
0
 62
     0
100
AcDbPolyline
 90
        2
 70
     0
 39
0.003
 10
-0.011161
 20
-1.13598
 40
0.003
 41
0.003
 10
-0.011634
 20
-1.148854
 40
0.003
 41
0.003
  0
LWPOLYLINE
  5
4BA
100
AcDbEntity
  8
0
 62
     0
100
AcDbPolyline
 90
        2
 70
     0
 39
0.003
 10
-0.011634
 20
-1.148854
 40
0.003
 41
0.003
 10
-0.013028
 20
-1.161835
 40
0.003
 41
0.003
  0
LWPOLYLINE
  5
4BB
100
AcDbEntity
  8
0
 62
     0
100
AcDbPolyline
 90
        2
 70
     0
 39
0.003
 10
-0.013028
 20
-1.161835
 40
0.003
 41
0.003
 10
-0.015276
 20
-1.174819
 40
0.003
 41
0.003
  0
LWPOLYLINE
  5
4BC
100
AcDbEntity
  8
0
 62
     0
100
AcDbPolyline
 90
        2
 70
     0
 39
0.003
 10
-0.015276
 20
-1.174819
 40
0.003
 41
0.003
 10
-0.018346
 20
-1.187752
 40
0.003
 41
0.003
  0
LWPOLYLINE
  5
4BD
100
AcDbEntity
  8
0
 62
     0
100
AcDbPolyline
 90
        2
 70
     0
 39
0.003
 10
-0.018346
 20
-1.187752
 40
0.003
 41
0.003
 10
-0.022181
 20
-1.200543
 40
0.003
 41
0.003
  0
LWPOLYLINE
  5
4BE
100
AcDbEntity
  8
0
 62
     0
100
AcDbPolyline
 90
        2
 70
     0
 39
0.003
 10
-0.022181
 20
-1.200543
 40
0.003
 41
0.003
 10
-0.026748
 20
-1.21313
 40
0.003
 41
0.003
  0
LWPOLYLINE
  5
4BF
100
AcDbEntity
  8
0
 62
     0
100
AcDbPolyline
 90
        2
 70
     0
 39
0.003
 10
-0.026748
 20
-1.21313
 40
0.003
 41
0.003
 10
-0.03198
 20
-1.225425
 40
0.003
 41
0.003
  0
LWPOLYLINE
  5
4C0
100
AcDbEntity
  8
0
 62
     0
100
AcDbPolyline
 90
        2
 70
     0
 39
0.003
 10
-0.03198
 20
-1.225425
 40
0.003
 41
0.003
 10
-0.037846
 20
-1.237362
 40
0.003
 41
0.003
  0
LWPOLYLINE
  5
4C1
100
AcDbEntity
  8
0
 62
     0
100
AcDbPolyline
 90
        2
 70
     0
 39
0.003
 10
-0.037846
 20
-1.237362
 40
0.003
 41
0.003
 10
-0.044291
 20
-1.248858
 40
0.003
 41
0.003
  0
LWPOLYLINE
  5
4C2
100
AcDbEntity
  8
0
 62
     0
100
AcDbPolyline
 90
        2
 70
     0
 39
0.003
 10
-0.044291
 20
-1.248858
 40
0.003
 41
0.003
 10
-0.051272
 20
-1.259843
 40
0.003
 41
0.003
  0
LWPOLYLINE
  5
4C3
100
AcDbEntity
  8
0
 62
     0
100
AcDbPolyline
 90
        2
 70
     0
 39
0.003
 10
-0.051272
 20
-1.259843
 40
0.003
 41
0.003
 10
-0.058732
 20
-1.270224
 40
0.003
 41
0.003
  0
LWPOLYLINE
  5
4C4
100
AcDbEntity
  8
0
 62
     0
100
AcDbPolyline
 90
        2
 70
     0
 39
0.003
 10
-0.058732
 20
-1.270224
 40
0.003
 41
0.003
 10
-0.066634
 20
-1.279949
 40
0.003
 41
0.003
  0
LWPOLYLINE
  5
4C5
100
AcDbEntity
  8
0
 62
     0
100
AcDbPolyline
 90
        2
 70
     0
 39
0.003
 10
-0.066634
 20
-1.279949
 40
0.003
 41
0.003
 10
-0.074925
 20
-1.288921
 40
0.003
 41
0.003
  0
LWPOLYLINE
  5
4C6
100
AcDbEntity
  8
0
 62
     0
100
AcDbPolyline
 90
        2
 70
     0
 39
0.003
 10
-0.074925
 20
-1.288921
 40
0.003
 41
0.003
 10
-0.083567
 20
-1.297079
 40
0.003
 41
0.003
  0
LWPOLYLINE
  5
4C7
100
AcDbEntity
  8
0
 62
     0
100
AcDbPolyline
 90
        2
 70
     0
 39
0.003
 10
-0.083567
 20
-1.297079
 40
0.003
 41
0.003
 10
-0.092496
 20
-1.304331
 40
0.003
 41
0.003
  0
LWPOLYLINE
  5
4C8
100
AcDbEntity
  8
0
 62
     0
100
AcDbPolyline
 90
        2
 70
     0
 39
0.003
 10
-0.092496
 20
-1.304331
 40
0.003
 41
0.003
 10
-0.101681
 20
-1.310622
 40
0.003
 41
0.003
  0
LWPOLYLINE
  5
4C9
100
AcDbEntity
  8
0
 62
     9
100
AcDbPolyline
 90
        2
 70
     0
 39
0.003
 10
-0.004031
 20
-0.945689
 40
0.003
 41
0.003
 10
0.652118
 20
-0.562161
 40
0.003
 41
0.003
  0
LWPOLYLINE
  5
4CA
100
AcDbEntity
  8
0
 62
     9
100
AcDbPolyline
 90
        2
 70
     0
 39
0.003
 10
0.652118
 20
-0.562161
 40
0.003
 41
0.003
 10
0.651961
 20
-0.52276
 40
0.003
 41
0.003
  0
LWPOLYLINE
  5
4CB
100
AcDbEntity
  8
0
 62
     9
100
AcDbPolyline
 90
        2
 70
     0
 39
0.003
 10
0.651961
 20
-0.52276
 40
0.003
 41
0.003
 10
-0.004189
 20
-0.906287
 40
0.003
 41
0.003
  0
LWPOLYLINE
  5
4CC
100
AcDbEntity
  8
0
 62
     9
100
AcDbPolyline
 90
        2
 70
     0
 39
0.003
 10
-0.004189
 20
-0.906287
 40
0.003
 41
0.003
 10
-0.004031
 20
-0.945689
 40
0.003
 41
0.003
  0
LWPOLYLINE
  5
4CD
100
AcDbEntity
  8
0
 62
     9
100
AcDbPolyline
 90
        2
 70
     0
 39
0.003
 10
-0.004189
 20
-0.906287
 40
0.003
 41
0.003
 10
0.651961
 20
-0.52276
 40
0.003
 41
0.003
  0
LWPOLYLINE
  5
4CE
100
AcDbEntity
  8
0
 62
     9
100
AcDbPolyline
 90
        2
 70
     0
 39
0.003
 10
0.651961
 20
-0.52276
 40
0.003
 41
0.003
 10
0.65152
 20
-0.482937
 40
0.003
 41
0.003
  0
LWPOLYLINE
  5
4CF
100
AcDbEntity
  8
0
 62
     9
100
AcDbPolyline
 90
        2
 70
     0
 39
0.003
 10
0.65152
 20
-0.482937
 40
0.003
 41
0.003
 10
-0.00463
 20
-0.866465
 40
0.003
 41
0.003
  0
LWPOLYLINE
  5
4D0
100
AcDbEntity
  8
0
 62
     9
100
AcDbPolyline
 90
        2
 70
     0
 39
0.003
 10
-0.00463
 20
-0.866465
 40
0.003
 41
0.003
 10
-0.004189
 20
-0.906287
 40
0.003
 41
0.003
  0
LWPOLYLINE
  5
4D1
100
AcDbEntity
  8
0
 62
     9
100
AcDbPolyline
 90
        2
 70
     0
 39
0.003
 10
-0.00463
 20
-0.866465
 40
0.003
 41
0.003
 10
0.65152
 20
-0.482937
 40
0.003
 41
0.003
  0
LWPOLYLINE
  5
4D2
100
AcDbEntity
  8
0
 62
     9
100
AcDbPolyline
 90
        2
 70
     0
 39
0.003
 10
0.65152
 20
-0.482937
 40
0.003
 41
0.003
 10
0.65089
 20
-0.442791
 40
0.003
 41
0.003
  0
LWPOLYLINE
  5
4D3
100
AcDbEntity
  8
0
 62
     9
100
AcDbPolyline
 90
        2
 70
     0
 39
0.003
 10
0.65089
 20
-0.442791
 40
0.003
 41
0.003
 10
-0.00526
 20
-0.826319
 40
0.003
 41
0.003
  0
LWPOLYLINE
  5
4D4
100
AcDbEntity
  8
0
 62
     9
100
AcDbPolyline
 90
        2
 70
     0
 39
0.003
 10
-0.00526
 20
-0.826319
 40
0.003
 41
0.003
 10
-0.00463
 20
-0.866465
 40
0.003
 41
0.003
  0
LWPOLYLINE
  5
4D5
100
AcDbEntity
  8
0
 62
     9
100
AcDbPolyline
 90
        2
 70
     0
 39
0.003
 10
-0.00526
 20
-0.826319
 40
0.003
 41
0.003
 10
0.65089
 20
-0.442791
 40
0.003
 41
0.003
  0
LWPOLYLINE
  5
4D6
100
AcDbEntity
  8
0
 62
     9
100
AcDbPolyline
 90
        2
 70
     0
 39
0.003
 10
0.65089
 20
-0.442791
 40
0.003
 41
0.003
 10
0.650138
 20
-0.402413
 40
0.003
 41
0.003
  0
LWPOLYLINE
  5
4D7
100
AcDbEntity
  8
0
 62
     9
100
AcDbPolyline
 90
        2
 70
     0
 39
0.003
 10
0.650138
 20
-0.402413
 40
0.003
 41
0.003
 10
-0.006012
 20
-0.785941
 40
0.003
 41
0.003
  0
LWPOLYLINE
  5
4D8
100
AcDbEntity
  8
0
 62
     9
100
AcDbPolyline
 90
        2
 70
     0
 39
0.003
 10
-0.006012
 20
-0.785941
 40
0.003
 41
0.003
 10
-0.00526
 20
-0.826319
 40
0.003
 41
0.003
  0
LWPOLYLINE
  5
4D9
100
AcDbEntity
  8
0
 62
     9
100
AcDbPolyline
 90
        2
 70
     0
 39
0.003
 10
-0.006012
 20
-0.785941
 40
0.003
 41
0.003
 10
0.650138
 20
-0.402413
 40
0.003
 41
0.003
  0
LWPOLYLINE
  5
4DA
100
AcDbEntity
  8
0
 62
     9
100
AcDbPolyline
 90
        2
 70
     0
 39
0.003
 10
0.650138
 20
-0.402413
 40
0.003
 41
0.003
 10
0.649354
 20
-0.361894
 40
0.003
 41
0.003
  0
LWPOLYLINE
  5
4DB
100
AcDbEntity
  8
0
 62
     9
100
AcDbPolyline
 90
        2
 70
     0
 39
0.003
 10
0.649354
 20
-0.361894
 40
0.003
 41
0.003
 10
-0.006795
 20
-0.745421
 40
0.003
 41
0.003
  0
LWPOLYLINE
  5
4DC
100
AcDbEntity
  8
0
 62
     9
100
AcDbPolyline
 90
        2
 70
     0
 39
0.003
 10
-0.006795
 20
-0.745421
 40
0.003
 41
0.003
 10
-0.006012
 20
-0.785941
 40
0.003
 41
0.003
  0
LWPOLYLINE
  5
4DD
100
AcDbEntity
  8
0
 62
     9
100
AcDbPolyline
 90
        2
 70
     0
 39
0.003
 10
-0.006795
 20
-0.745421
 40
0.003
 41
0.003
 10
0.649354
 20
-0.361894
 40
0.003
 41
0.003
  0
LWPOLYLINE
  5
4DE
100
AcDbEntity
  8
0
 62
     9
100
AcDbPolyline
 90
        2
 70
     0
 39
0.003
 10
0.649354
 20
-0.361894
 40
0.003
 41
0.003
 10
0.648606
 20
-0.321335
 40
0.003
 41
0.003
  0
LWPOLYLINE
  5
4DF
100
AcDbEntity
  8
0
 62
     9
100
AcDbPolyline
 90
        2
 70
     0
 39
0.003
 10
0.648606
 20
-0.321335
 40
0.003
 41
0.003
 10
-0.007543
 20
-0.704862
 40
0.003
 41
0.003
  0
LWPOLYLINE
  5
4E0
100
AcDbEntity
  8
0
 62
     9
100
AcDbPolyline
 90
        2
 70
     0
 39
0.003
 10
-0.007543
 20
-0.704862
 40
0.003
 41
0.003
 10
-0.006795
 20
-0.745421
 40
0.003
 41
0.003
  0
LWPOLYLINE
  5
4E1
100
AcDbEntity
  8
0
 62
     9
100
AcDbPolyline
 90
        2
 70
     0
 39
0.003
 10
-0.007543
 20
-0.704862
 40
0.003
 41
0.003
 10
0.648606
 20
-0.321335
 40
0.003
 41
0.003
  0
LWPOLYLINE
  5
4E2
100
AcDbEntity
  8
0
 62
     9
100
AcDbPolyline
 90
        2
 70
     0
 39
0.003
 10
0.648606
 20
-0.321335
 40
0.003
 41
0.003
 10
0.64798
 20
-0.280827
 40
0.003
 41
0.003
  0
LWPOLYLINE
  5
4E3
100
AcDbEntity
  8
0
 62
     9
100
AcDbPolyline
 90
        2
 70
     0
 39
0.003
 10
0.64798
 20
-0.280827
 40
0.003
 41
0.003
 10
-0.008169
 20
-0.664354
 40
0.003
 41
0.003
  0
LWPOLYLINE
  5
4E4
100
AcDbEntity
  8
0
 62
     9
100
AcDbPolyline
 90
        2
 70
     0
 39
0.003
 10
-0.008169
 20
-0.664354
 40
0.003
 41
0.003
 10
-0.007543
 20
-0.704862
 40
0.003
 41
0.003
  0
LWPOLYLINE
  5
4E5
100
AcDbEntity
  8
0
 62
     9
100
AcDbPolyline
 90
        2
 70
     0
 39
0.003
 10
-0.008169
 20
-0.664354
 40
0.003
 41
0.003
 10
0.64798
 20
-0.280827
 40
0.003
 41
0.003
  0
LWPOLYLINE
  5
4E6
100
AcDbEntity
  8
0
 62
     9
100
AcDbPolyline
 90
        2
 70
     0
 39
0.003
 10
0.64798
 20
-0.280827
 40
0.003
 41
0.003
 10
0.647543
 20
-0.240472
 40
0.003
 41
0.003
  0
LWPOLYLINE
  5
4E7
100
AcDbEntity
  8
0
 62
     9
100
AcDbPolyline
 90
        2
 70
     0
 39
0.003
 10
0.647543
 20
-0.240472
 40
0.003
 41
0.003
 10
-0.008606
 20
-0.624
 40
0.003
 41
0.003
  0
LWPOLYLINE
  5
4E8
100
AcDbEntity
  8
0
 62
     9
100
AcDbPolyline
 90
        2
 70
     0
 39
0.003
 10
-0.008606
 20
-0.624
 40
0.003
 41
0.003
 10
-0.008169
 20
-0.664354
 40
0.003
 41
0.003
  0
LWPOLYLINE
  5
4E9
100
AcDbEntity
  8
0
 62
     9
100
AcDbPolyline
 90
        2
 70
     0
 39
0.003
 10
-0.008606
 20
-0.624
 40
0.003
 41
0.003
 10
0.647543
 20
-0.240472
 40
0.003
 41
0.003
  0
LWPOLYLINE
  5
4EA
100
AcDbEntity
  8
0
 62
     9
100
AcDbPolyline
 90
        2
 70
     0
 39
0.003
 10
0.647543
 20
-0.240472
 40
0.003
 41
0.003
 10
0.647398
 20
-0.200354
 40
0.003
 41
0.003
  0
LWPOLYLINE
  5
4EB
100
AcDbEntity
  8
0
 62
     9
100
AcDbPolyline
 90
        2
 70
     0
 39
0.003
 10
0.647398
 20
-0.200354
 40
0.003
 41
0.003
 10
-0.008752
 20
-0.583882
 40
0.003
 41
0.003
  0
LWPOLYLINE
  5
4EC
100
AcDbEntity
  8
0
 62
     9
100
AcDbPolyline
 90
        2
 70
     0
 39
0.003
 10
-0.008752
 20
-0.583882
 40
0.003
 41
0.003
 10
-0.008606
 20
-0.624
 40
0.003
 41
0.003
  0
LWPOLYLINE
  5
4ED
100
AcDbEntity
  8
0
 62
     9
100
AcDbPolyline
 90
        2
 70
     0
 39
0.003
 10
-0.008752
 20
-0.583882
 40
0.003
 41
0.003
 10
0.647398
 20
-0.200354
 40
0.003
 41
0.003
  0
LWPOLYLINE
  5
4EE
100
AcDbEntity
  8
0
 62
     9
100
AcDbPolyline
 90
        2
 70
     0
 39
0.003
 10
0.647398
 20
-0.200354
 40
0.003
 41
0.003
 10
0.647598
 20
-0.160579
 40
0.003
 41
0.003
  0
LWPOLYLINE
  5
4EF
100
AcDbEntity
  8
0
 62
     9
100
AcDbPolyline
 90
        2
 70
     0
 39
0.003
 10
0.647598
 20
-0.160579
 40
0.003
 41
0.003
 10
-0.008551
 20
-0.544106
 40
0.003
 41
0.003
  0
LWPOLYLINE
  5
4F0
100
AcDbEntity
  8
0
 62
     9
100
AcDbPolyline
 90
        2
 70
     0
 39
0.003
 10
-0.008551
 20
-0.544106
 40
0.003
 41
0.003
 10
-0.008752
 20
-0.583882
 40
0.003
 41
0.003
  0
LWPOLYLINE
  5
4F1
100
AcDbEntity
  8
0
 62
     9
100
AcDbPolyline
 90
        2
 70
     0
 39
0.003
 10
-0.008551
 20
-0.544106
 40
0.003
 41
0.003
 10
0.647598
 20
-0.160579
 40
0.003
 41
0.003
  0
LWPOLYLINE
  5
4F2
100
AcDbEntity
  8
0
 62
     9
100
AcDbPolyline
 90
        2
 70
     0
 39
0.003
 10
0.647598
 20
-0.160579
 40
0.003
 41
0.003
 10
0.648236
 20
-0.121232
 40
0.003
 41
0.003
  0
LWPOLYLINE
  5
4F3
100
AcDbEntity
  8
0
 62
     9
100
AcDbPolyline
 90
        2
 70
     0
 39
0.003
 10
0.648236
 20
-0.121232
 40
0.003
 41
0.003
 10
-0.007913
 20
-0.50476
 40
0.003
 41
0.003
  0
LWPOLYLINE
  5
4F4
100
AcDbEntity
  8
0
 62
     9
100
AcDbPolyline
 90
        2
 70
     0
 39
0.003
 10
-0.007913
 20
-0.50476
 40
0.003
 41
0.003
 10
-0.008551
 20
-0.544106
 40
0.003
 41
0.003
  0
LWPOLYLINE
  5
4F5
100
AcDbEntity
  8
0
 62
     9
100
AcDbPolyline
 90
        2
 70
     0
 39
0.003
 10
-0.007913
 20
-0.50476
 40
0.003
 41
0.003
 10
0.648236
 20
-0.121232
 40
0.003
 41
0.003
  0
LWPOLYLINE
  5
4F6
100
AcDbEntity
  8
0
 62
     9
100
AcDbPolyline
 90
        2
 70
     0
 39
0.003
 10
0.648236
 20
-0.121232
 40
0.003
 41
0.003
 10
0.649382
 20
-0.082421
 40
0.003
 41
0.003
  0
LWPOLYLINE
  5
4F7
100
AcDbEntity
  8
0
 62
     9
100
AcDbPolyline
 90
        2
 70
     0
 39
0.003
 10
0.649382
 20
-0.082421
 40
0.003
 41
0.003
 10
-0.006768
 20
-0.465949
 40
0.003
 41
0.003
  0
LWPOLYLINE
  5
4F8
100
AcDbEntity
  8
0
 62
     9
100
AcDbPolyline
 90
        2
 70
     0
 39
0.003
 10
-0.006768
 20
-0.465949
 40
0.003
 41
0.003
 10
-0.007913
 20
-0.50476
 40
0.003
 41
0.003
  0
LWPOLYLINE
  5
4F9
100
AcDbEntity
  8
0
 62
     9
100
AcDbPolyline
 90
        2
 70
     0
 39
0.003
 10
-0.006768
 20
-0.465949
 40
0.003
 41
0.003
 10
0.649382
 20
-0.082421
 40
0.003
 41
0.003
  0
LWPOLYLINE
  5
4FA
100
AcDbEntity
  8
0
 62
     9
100
AcDbPolyline
 90
        2
 70
     0
 39
0.003
 10
0.649382
 20
-0.082421
 40
0.003
 41
0.003
 10
0.65113
 20
-0.044224
 40
0.003
 41
0.003
  0
LWPOLYLINE
  5
4FB
100
AcDbEntity
  8
0
 62
     9
100
AcDbPolyline
 90
        2
 70
     0
 39
0.003
 10
0.65113
 20
-0.044224
 40
0.003
 41
0.003
 10
-0.00502
 20
-0.427752
 40
0.003
 41
0.003
  0
LWPOLYLINE
  5
4FC
100
AcDbEntity
  8
0
 62
     9
100
AcDbPolyline
 90
        2
 70
     0
 39
0.003
 10
-0.00502
 20
-0.427752
 40
0.003
 41
0.003
 10
-0.006768
 20
-0.465949
 40
0.003
 41
0.003
  0
LWPOLYLINE
  5
4FD
100
AcDbEntity
  8
0
 62
     9
100
AcDbPolyline
 90
        2
 70
     0
 39
0.003
 10
-0.00502
 20
-0.427752
 40
0.003
 41
0.003
 10
0.65113
 20
-0.044224
 40
0.003
 41
0.003
  0
LWPOLYLINE
  5
4FE
100
AcDbEntity
  8
0
 62
     9
100
AcDbPolyline
 90
        2
 70
     0
 39
0.003
 10
0.65113
 20
-0.044224
 40
0.003
 41
0.003
 10
0.653535
 20
-0.00676
 40
0.003
 41
0.003
  0
LWPOLYLINE
  5
4FF
100
AcDbEntity
  8
0
 62
     9
100
AcDbPolyline
 90
        2
 70
     0
 39
0.003
 10
0.653535
 20
-0.00676
 40
0.003
 41
0.003
 10
-0.002614
 20
-0.390287
 40
0.003
 41
0.003
  0
LWPOLYLINE
  5
500
100
AcDbEntity
  8
0
 62
     9
100
AcDbPolyline
 90
        2
 70
     0
 39
0.003
 10
-0.002614
 20
-0.390287
 40
0.003
 41
0.003
 10
-0.00502
 20
-0.427752
 40
0.003
 41
0.003
  0
LWPOLYLINE
  5
501
100
AcDbEntity
  8
0
 62
     9
100
AcDbPolyline
 90
        2
 70
     0
 39
0.003
 10
-0.002614
 20
-0.390287
 40
0.003
 41
0.003
 10
0.653535
 20
-0.00676
 40
0.003
 41
0.003
  0
LWPOLYLINE
  5
502
100
AcDbEntity
  8
0
 62
     9
100
AcDbPolyline
 90
        2
 70
     0
 39
0.003
 10
0.653535
 20
-0.00676
 40
0.003
 41
0.003
 10
0.656697
 20
0.029898
 40
0.003
 41
0.003
  0
LWPOLYLINE
  5
503
100
AcDbEntity
  8
0
 62
     9
100
AcDbPolyline
 90
        2
 70
     0
 39
0.003
 10
0.656697
 20
0.029898
 40
0.003
 41
0.003
 10
0.000547
 20
-0.35363
 40
0.003
 41
0.003
  0
LWPOLYLINE
  5
504
100
AcDbEntity
  8
0
 62
     9
100
AcDbPolyline
 90
        2
 70
     0
 39
0.003
 10
0.000547
 20
-0.35363
 40
0.003
 41
0.003
 10
-0.002614
 20
-0.390287
 40
0.003
 41
0.003
  0
LWPOLYLINE
  5
505
100
AcDbEntity
  8
0
 62
     9
100
AcDbPolyline
 90
        2
 70
     0
 39
0.003
 10
0.000547
 20
-0.35363
 40
0.003
 41
0.003
 10
0.656697
 20
0.029898
 40
0.003
 41
0.003
  0
LWPOLYLINE
  5
506
100
AcDbEntity
  8
0
 62
     9
100
AcDbPolyline
 90
        2
 70
     0
 39
0.003
 10
0.656697
 20
0.029898
 40
0.003
 41
0.003
 10
0.660677
 20
0.065654
 40
0.003
 41
0.003
  0
LWPOLYLINE
  5
507
100
AcDbEntity
  8
0
 62
     9
100
AcDbPolyline
 90
        2
 70
     0
 39
0.003
 10
0.660677
 20
0.065654
 40
0.003
 41
0.003
 10
0.004528
 20
-0.317874
 40
0.003
 41
0.003
  0
LWPOLYLINE
  5
508
100
AcDbEntity
  8
0
 62
     9
100
AcDbPolyline
 90
        2
 70
     0
 39
0.003
 10
0.004528
 20
-0.317874
 40
0.003
 41
0.003
 10
0.000547
 20
-0.35363
 40
0.003
 41
0.003
  0
LWPOLYLINE
  5
509
100
AcDbEntity
  8
0
 62
   253
100
AcDbPolyline
 90
        2
 70
     0
 39
0.003
 10
0.004528
 20
-0.317874
 40
0.003
 41
0.003
 10
0.660677
 20
0.065654
 40
0.003
 41
0.003
  0
LWPOLYLINE
  5
50A
100
AcDbEntity
  8
0
 62
   253
100
AcDbPolyline
 90
        2
 70
     0
 39
0.003
 10
0.660677
 20
0.065654
 40
0.003
 41
0.003
 10
0.665575
 20
0.100398
 40
0.003
 41
0.003
  0
LWPOLYLINE
  5
50B
100
AcDbEntity
  8
0
 62
   253
100
AcDbPolyline
 90
        2
 70
     0
 39
0.003
 10
0.665575
 20
0.100398
 40
0.003
 41
0.003
 10
0.009425
 20
-0.28313
 40
0.003
 41
0.003
  0
LWPOLYLINE
  5
50C
100
AcDbEntity
  8
0
 62
   253
100
AcDbPolyline
 90
        2
 70
     0
 39
0.003
 10
0.009425
 20
-0.28313
 40
0.003
 41
0.003
 10
0.004528
 20
-0.317874
 40
0.003
 41
0.003
  0
LWPOLYLINE
  5
50D
100
AcDbEntity
  8
0
 62
   253
100
AcDbPolyline
 90
        2
 70
     0
 39
0.003
 10
0.009425
 20
-0.28313
 40
0.003
 41
0.003
 10
0.665575
 20
0.100398
 40
0.003
 41
0.003
  0
LWPOLYLINE
  5
50E
100
AcDbEntity
  8
0
 62
   253
100
AcDbPolyline
 90
        2
 70
     0
 39
0.003
 10
0.665575
 20
0.100398
 40
0.003
 41
0.003
 10
0.671457
 20
0.134047
 40
0.003
 41
0.003
  0
LWPOLYLINE
  5
50F
100
AcDbEntity
  8
0
 62
   253
100
AcDbPolyline
 90
        2
 70
     0
 39
0.003
 10
0.671457
 20
0.134047
 40
0.003
 41
0.003
 10
0.015307
 20
-0.24948
 40
0.003
 41
0.003
  0
LWPOLYLINE
  5
510
100
AcDbEntity
  8
0
 62
   253
100
AcDbPolyline
 90
        2
 70
     0
 39
0.003
 10
0.015307
 20
-0.24948
 40
0.003
 41
0.003
 10
0.009425
 20
-0.28313
 40
0.003
 41
0.003
  0
LWPOLYLINE
  5
511
100
AcDbEntity
  8
0
 62
   253
100
AcDbPolyline
 90
        2
 70
     0
 39
0.003
 10
0.015307
 20
-0.24948
 40
0.003
 41
0.003
 10
0.671457
 20
0.134047
 40
0.003
 41
0.003
  0
LWPOLYLINE
  5
512
100
AcDbEntity
  8
0
 62
   253
100
AcDbPolyline
 90
        2
 70
     0
 39
0.003
 10
0.671457
 20
0.134047
 40
0.003
 41
0.003
 10
0.678402
 20
0.166504
 40
0.003
 41
0.003
  0
LWPOLYLINE
  5
513
100
AcDbEntity
  8
0
 62
   253
100
AcDbPolyline
 90
        2
 70
     0
 39
0.003
 10
0.678402
 20
0.166504
 40
0.003
 41
0.003
 10
0.022252
 20
-0.217024
 40
0.003
 41
0.003
  0
LWPOLYLINE
  5
514
100
AcDbEntity
  8
0
 62
   253
100
AcDbPolyline
 90
        2
 70
     0
 39
0.003
 10
0.022252
 20
-0.217024
 40
0.003
 41
0.003
 10
0.015307
 20
-0.24948
 40
0.003
 41
0.003
  0
LWPOLYLINE
  5
515
100
AcDbEntity
  8
0
 62
   253
100
AcDbPolyline
 90
        2
 70
     0
 39
0.003
 10
0.022252
 20
-0.217024
 40
0.003
 41
0.003
 10
0.678402
 20
0.166504
 40
0.003
 41
0.003
  0
LWPOLYLINE
  5
516
100
AcDbEntity
  8
0
 62
   253
100
AcDbPolyline
 90
        2
 70
     0
 39
0.003
 10
0.678402
 20
0.166504
 40
0.003
 41
0.003
 10
0.686484
 20
0.197673
 40
0.003
 41
0.003
  0
LWPOLYLINE
  5
517
100
AcDbEntity
  8
0
 62
   253
100
AcDbPolyline
 90
        2
 70
     0
 39
0.003
 10
0.686484
 20
0.197673
 40
0.003
 41
0.003
 10
0.030335
 20
-0.185854
 40
0.003
 41
0.003
  0
LWPOLYLINE
  5
518
100
AcDbEntity
  8
0
 62
   253
100
AcDbPolyline
 90
        2
 70
     0
 39
0.003
 10
0.030335
 20
-0.185854
 40
0.003
 41
0.003
 10
0.022252
 20
-0.217024
 40
0.003
 41
0.003
  0
LWPOLYLINE
  5
519
100
AcDbEntity
  8
0
 62
   253
100
AcDbPolyline
 90
        2
 70
     0
 39
0.003
 10
0.030335
 20
-0.185854
 40
0.003
 41
0.003
 10
0.686484
 20
0.197673
 40
0.003
 41
0.003
  0
LWPOLYLINE
  5
51A
100
AcDbEntity
  8
0
 62
   253
100
AcDbPolyline
 90
        2
 70
     0
 39
0.003
 10
0.686484
 20
0.197673
 40
0.003
 41
0.003
 10
0.695791
 20
0.227453
 40
0.003
 41
0.003
  0
LWPOLYLINE
  5
51B
100
AcDbEntity
  8
0
 62
   253
100
AcDbPolyline
 90
        2
 70
     0
 39
0.003
 10
0.695791
 20
0.227453
 40
0.003
 41
0.003
 10
0.039642
 20
-0.156075
 40
0.003
 41
0.003
  0
LWPOLYLINE
  5
51C
100
AcDbEntity
  8
0
 62
   253
100
AcDbPolyline
 90
        2
 70
     0
 39
0.003
 10
0.039642
 20
-0.156075
 40
0.003
 41
0.003
 10
0.030335
 20
-0.185854
 40
0.003
 41
0.003
  0
LWPOLYLINE
  5
51D
100
AcDbEntity
  8
0
 62
   253
100
AcDbPolyline
 90
        2
 70
     0
 39
0.003
 10
0.039642
 20
-0.156075
 40
0.003
 41
0.003
 10
0.695791
 20
0.227453
 40
0.003
 41
0.003
  0
LWPOLYLINE
  5
51E
100
AcDbEntity
  8
0
 62
   253
100
AcDbPolyline
 90
        2
 70
     0
 39
0.003
 10
0.695791
 20
0.227453
 40
0.003
 41
0.003
 10
0.706398
 20
0.25576
 40
0.003
 41
0.003
  0
LWPOLYLINE
  5
51F
100
AcDbEntity
  8
0
 62
   253
100
AcDbPolyline
 90
        2
 70
     0
 39
0.003
 10
0.706398
 20
0.25576
 40
0.003
 41
0.003
 10
0.050248
 20
-0.127768
 40
0.003
 41
0.003
  0
LWPOLYLINE
  5
520
100
AcDbEntity
  8
0
 62
   253
100
AcDbPolyline
 90
        2
 70
     0
 39
0.003
 10
0.050248
 20
-0.127768
 40
0.003
 41
0.003
 10
0.039642
 20
-0.156075
 40
0.003
 41
0.003
  0
LWPOLYLINE
  5
521
100
AcDbEntity
  8
0
 62
   252
100
AcDbPolyline
 90
        2
 70
     0
 39
0.003
 10
0.050248
 20
-0.127768
 40
0.003
 41
0.003
 10
0.706398
 20
0.25576
 40
0.003
 41
0.003
  0
LWPOLYLINE
  5
522
100
AcDbEntity
  8
0
 62
   252
100
AcDbPolyline
 90
        2
 70
     0
 39
0.003
 10
0.706398
 20
0.25576
 40
0.003
 41
0.003
 10
0.718382
 20
0.282492
 40
0.003
 41
0.003
  0
LWPOLYLINE
  5
523
100
AcDbEntity
  8
0
 62
   252
100
AcDbPolyline
 90
        2
 70
     0
 39
0.003
 10
0.718382
 20
0.282492
 40
0.003
 41
0.003
 10
0.062232
 20
-0.101035
 40
0.003
 41
0.003
  0
LWPOLYLINE
  5
524
100
AcDbEntity
  8
0
 62
   252
100
AcDbPolyline
 90
        2
 70
     0
 39
0.003
 10
0.062232
 20
-0.101035
 40
0.003
 41
0.003
 10
0.050248
 20
-0.127768
 40
0.003
 41
0.003
  0
LWPOLYLINE
  5
525
100
AcDbEntity
  8
0
 62
   252
100
AcDbPolyline
 90
        2
 70
     0
 39
0.003
 10
0.062232
 20
-0.101035
 40
0.003
 41
0.003
 10
0.718382
 20
0.282492
 40
0.003
 41
0.003
  0
LWPOLYLINE
  5
526
100
AcDbEntity
  8
0
 62
   252
100
AcDbPolyline
 90
        2
 70
     0
 39
0.003
 10
0.718382
 20
0.282492
 40
0.003
 41
0.003
 10
0.731823
 20
0.307555
 40
0.003
 41
0.003
  0
LWPOLYLINE
  5
527
100
AcDbEntity
  8
0
 62
   252
100
AcDbPolyline
 90
        2
 70
     0
 39
0.003
 10
0.731823
 20
0.307555
 40
0.003
 41
0.003
 10
0.075673
 20
-0.075972
 40
0.003
 41
0.003
  0
LWPOLYLINE
  5
528
100
AcDbEntity
  8
0
 62
   252
100
AcDbPolyline
 90
        2
 70
     0
 39
0.003
 10
0.075673
 20
-0.075972
 40
0.003
 41
0.003
 10
0.062232
 20
-0.101035
 40
0.003
 41
0.003
  0
LWPOLYLINE
  5
529
100
AcDbEntity
  8
0
 62
     8
100
AcDbPolyline
 90
        2
 70
     0
 39
0.003
 10
0.075673
 20
-0.075972
 40
0.003
 41
0.003
 10
0.731823
 20
0.307555
 40
0.003
 41
0.003
  0
LWPOLYLINE
  5
52A
100
AcDbEntity
  8
0
 62
     8
100
AcDbPolyline
 90
        2
 70
     0
 39
0.003
 10
0.731823
 20
0.307555
 40
0.003
 41
0.003
 10
0.746811
 20
0.33085
 40
0.003
 41
0.003
  0
LWPOLYLINE
  5
52B
100
AcDbEntity
  8
0
 62
     8
100
AcDbPolyline
 90
        2
 70
     0
 39
0.003
 10
0.746811
 20
0.33085
 40
0.003
 41
0.003
 10
0.090661
 20
-0.052677
 40
0.003
 41
0.003
  0
LWPOLYLINE
  5
52C
100
AcDbEntity
  8
0
 62
     8
100
AcDbPolyline
 90
        2
 70
     0
 39
0.003
 10
0.090661
 20
-0.052677
 40
0.003
 41
0.003
 10
0.075673
 20
-0.075972
 40
0.003
 41
0.003
  0
LWPOLYLINE
  5
52D
100
AcDbEntity
  8
0
 62
   127
100
AcDbPolyline
 90
        2
 70
     0
 39
0.003
 10
0.090661
 20
-0.052677
 40
0.003
 41
0.003
 10
0.746811
 20
0.33085
 40
0.003
 41
0.003
  0
LWPOLYLINE
  5
52E
100
AcDbEntity
  8
0
 62
   127
100
AcDbPolyline
 90
        2
 70
     0
 39
0.003
 10
0.746811
 20
0.33085
 40
0.003
 41
0.003
 10
0.763402
 20
0.352287
 40
0.003
 41
0.003
  0
LWPOLYLINE
  5
52F
100
AcDbEntity
  8
0
 62
   127
100
AcDbPolyline
 90
        2
 70
     0
 39
0.003
 10
0.763402
 20
0.352287
 40
0.003
 41
0.003
 10
0.107252
 20
-0.03124
 40
0.003
 41
0.003
  0
LWPOLYLINE
  5
530
100
AcDbEntity
  8
0
 62
   127
100
AcDbPolyline
 90
        2
 70
     0
 39
0.003
 10
0.107252
 20
-0.03124
 40
0.003
 41
0.003
 10
0.090661
 20
-0.052677
 40
0.003
 41
0.003
  0
LWPOLYLINE
  5
531
100
AcDbEntity
  8
0
 62
   251
100
AcDbPolyline
 90
        2
 70
     0
 39
0.003
 10
0.107252
 20
-0.03124
 40
0.003
 41
0.003
 10
0.763402
 20
0.352287
 40
0.003
 41
0.003
  0
LWPOLYLINE
  5
532
100
AcDbEntity
  8
0
 62
   251
100
AcDbPolyline
 90
        2
 70
     0
 39
0.003
 10
0.763402
 20
0.352287
 40
0.003
 41
0.003
 10
0.781693
 20
0.371768
 40
0.003
 41
0.003
  0
LWPOLYLINE
  5
533
100
AcDbEntity
  8
0
 62
   251
100
AcDbPolyline
 90
        2
 70
     0
 39
0.003
 10
0.781693
 20
0.371768
 40
0.003
 41
0.003
 10
0.125543
 20
-0.01176
 40
0.003
 41
0.003
  0
LWPOLYLINE
  5
534
100
AcDbEntity
  8
0
 62
   251
100
AcDbPolyline
 90
        2
 70
     0
 39
0.003
 10
0.125543
 20
-0.01176
 40
0.003
 41
0.003
 10
0.107252
 20
-0.03124
 40
0.003
 41
0.003
  0
LWPOLYLINE
  5
535
100
AcDbEntity
  8
0
 62
   251
100
AcDbPolyline
 90
        2
 70
     0
 39
0.003
 10
0.125543
 20
-0.01176
 40
0.003
 41
0.003
 10
0.781693
 20
0.371768
 40
0.003
 41
0.003
  0
LWPOLYLINE
  5
536
100
AcDbEntity
  8
0
 62
   251
100
AcDbPolyline
 90
        2
 70
     0
 39
0.003
 10
0.781693
 20
0.371768
 40
0.003
 41
0.003
 10
0.801748
 20
0.389209
 40
0.003
 41
0.003
  0
LWPOLYLINE
  5
537
100
AcDbEntity
  8
0
 62
   251
100
AcDbPolyline
 90
        2
 70
     0
 39
0.003
 10
0.801748
 20
0.389209
 40
0.003
 41
0.003
 10
0.145598
 20
0.005681
 40
0.003
 41
0.003
  0
LWPOLYLINE
  5
538
100
AcDbEntity
  8
0
 62
   251
100
AcDbPolyline
 90
        2
 70
     0
 39
0.003
 10
0.145598
 20
0.005681
 40
0.003
 41
0.003
 10
0.125543
 20
-0.01176
 40
0.003
 41
0.003
  0
LWPOLYLINE
  5
539
100
AcDbEntity
  8
0
 62
   127
100
AcDbPolyline
 90
        2
 70
     0
 39
0.003
 10
0.145598
 20
0.005681
 40
0.003
 41
0.003
 10
0.801748
 20
0.389209
 40
0.003
 41
0.003
  0
LWPOLYLINE
  5
53A
100
AcDbEntity
  8
0
 62
   127
100
AcDbPolyline
 90
        2
 70
     0
 39
0.003
 10
0.801748
 20
0.389209
 40
0.003
 41
0.003
 10
0.823665
 20
0.404496
 40
0.003
 41
0.003
  0
LWPOLYLINE
  5
53B
100
AcDbEntity
  8
0
 62
   127
100
AcDbPolyline
 90
        2
 70
     0
 39
0.003
 10
0.823665
 20
0.404496
 40
0.003
 41
0.003
 10
0.167516
 20
0.020969
 40
0.003
 41
0.003
  0
LWPOLYLINE
  5
53C
100
AcDbEntity
  8
0
 62
   127
100
AcDbPolyline
 90
        2
 70
     0
 39
0.003
 10
0.167516
 20
0.020969
 40
0.003
 41
0.003
 10
0.145598
 20
0.005681
 40
0.003
 41
0.003
  0
LWPOLYLINE
  5
53D
100
AcDbEntity
  8
0
 62
     8
100
AcDbPolyline
 90
        2
 70
     0
 39
0.003
 10
0.167516
 20
0.020969
 40
0.003
 41
0.003
 10
0.823665
 20
0.404496
 40
0.003
 41
0.003
  0
LWPOLYLINE
  5
53E
100
AcDbEntity
  8
0
 62
     8
100
AcDbPolyline
 90
        2
 70
     0
 39
0.003
 10
0.823665
 20
0.404496
 40
0.003
 41
0.003
 10
0.847504
 20
0.417547
 40
0.003
 41
0.003
  0
LWPOLYLINE
  5
53F
100
AcDbEntity
  8
0
 62
     8
100
AcDbPolyline
 90
        2
 70
     0
 39
0.003
 10
0.847504
 20
0.417547
 40
0.003
 41
0.003
 10
0.191354
 20
0.03402
 40
0.003
 41
0.003
  0
LWPOLYLINE
  5
540
100
AcDbEntity
  8
0
 62
     8
100
AcDbPolyline
 90
        2
 70
     0
 39
0.003
 10
0.191354
 20
0.03402
 40
0.003
 41
0.003
 10
0.167516
 20
0.020969
 40
0.003
 41
0.003
  0
LWPOLYLINE
  5
541
100
AcDbEntity
  8
0
 62
     0
100
AcDbPolyline
 90
        2
 70
     0
 39
0.003
 10
-0.004031
 20
-0.945689
 40
0.003
 41
0.003
 10
0.652118
 20
-0.562161
 40
0.003
 41
0.003
  0
LWPOLYLINE
  5
542
100
AcDbEntity
  8
0
 62
     0
100
AcDbPolyline
 90
        2
 70
     0
 39
0.003
 10
0.652118
 20
-0.562161
 40
0.003
 41
0.003
 10
0.651961
 20
-0.52276
 40
0.003
 41
0.003
  0
LWPOLYLINE
  5
543
100
AcDbEntity
  8
0
 62
     0
100
AcDbPolyline
 90
        2
 70
     0
 39
0.003
 10
0.651961
 20
-0.52276
 40
0.003
 41
0.003
 10
0.65152
 20
-0.482937
 40
0.003
 41
0.003
  0
LWPOLYLINE
  5
544
100
AcDbEntity
  8
0
 62
     0
100
AcDbPolyline
 90
        2
 70
     0
 39
0.003
 10
0.65152
 20
-0.482937
 40
0.003
 41
0.003
 10
0.65089
 20
-0.442791
 40
0.003
 41
0.003
  0
LWPOLYLINE
  5
545
100
AcDbEntity
  8
0
 62
     0
100
AcDbPolyline
 90
        2
 70
     0
 39
0.003
 10
0.65089
 20
-0.442791
 40
0.003
 41
0.003
 10
0.650138
 20
-0.402413
 40
0.003
 41
0.003
  0
LWPOLYLINE
  5
546
100
AcDbEntity
  8
0
 62
     0
100
AcDbPolyline
 90
        2
 70
     0
 39
0.003
 10
0.650138
 20
-0.402413
 40
0.003
 41
0.003
 10
0.649354
 20
-0.361894
 40
0.003
 41
0.003
  0
LWPOLYLINE
  5
547
100
AcDbEntity
  8
0
 62
     0
100
AcDbPolyline
 90
        2
 70
     0
 39
0.003
 10
0.649354
 20
-0.361894
 40
0.003
 41
0.003
 10
0.648606
 20
-0.321335
 40
0.003
 41
0.003
  0
LWPOLYLINE
  5
548
100
AcDbEntity
  8
0
 62
     0
100
AcDbPolyline
 90
        2
 70
     0
 39
0.003
 10
0.648606
 20
-0.321335
 40
0.003
 41
0.003
 10
0.64798
 20
-0.280827
 40
0.003
 41
0.003
  0
LWPOLYLINE
  5
549
100
AcDbEntity
  8
0
 62
     0
100
AcDbPolyline
 90
        2
 70
     0
 39
0.003
 10
0.64798
 20
-0.280827
 40
0.003
 41
0.003
 10
0.647543
 20
-0.240472
 40
0.003
 41
0.003
  0
LWPOLYLINE
  5
54A
100
AcDbEntity
  8
0
 62
     0
100
AcDbPolyline
 90
        2
 70
     0
 39
0.003
 10
0.647543
 20
-0.240472
 40
0.003
 41
0.003
 10
0.647398
 20
-0.200354
 40
0.003
 41
0.003
  0
LWPOLYLINE
  5
54B
100
AcDbEntity
  8
0
 62
     0
100
AcDbPolyline
 90
        2
 70
     0
 39
0.003
 10
0.647398
 20
-0.200354
 40
0.003
 41
0.003
 10
0.647598
 20
-0.160579
 40
0.003
 41
0.003
  0
LWPOLYLINE
  5
54C
100
AcDbEntity
  8
0
 62
     0
100
AcDbPolyline
 90
        2
 70
     0
 39
0.003
 10
0.647598
 20
-0.160579
 40
0.003
 41
0.003
 10
0.648236
 20
-0.121232
 40
0.003
 41
0.003
  0
LWPOLYLINE
  5
54D
100
AcDbEntity
  8
0
 62
     0
100
AcDbPolyline
 90
        2
 70
     0
 39
0.003
 10
0.648236
 20
-0.121232
 40
0.003
 41
0.003
 10
0.649382
 20
-0.082421
 40
0.003
 41
0.003
  0
LWPOLYLINE
  5
54E
100
AcDbEntity
  8
0
 62
     0
100
AcDbPolyline
 90
        2
 70
     0
 39
0.003
 10
0.649382
 20
-0.082421
 40
0.003
 41
0.003
 10
0.65113
 20
-0.044224
 40
0.003
 41
0.003
  0
LWPOLYLINE
  5
54F
100
AcDbEntity
  8
0
 62
     0
100
AcDbPolyline
 90
        2
 70
     0
 39
0.003
 10
0.65113
 20
-0.044224
 40
0.003
 41
0.003
 10
0.653535
 20
-0.00676
 40
0.003
 41
0.003
  0
LWPOLYLINE
  5
550
100
AcDbEntity
  8
0
 62
     0
100
AcDbPolyline
 90
        2
 70
     0
 39
0.003
 10
0.653535
 20
-0.00676
 40
0.003
 41
0.003
 10
0.656697
 20
0.029898
 40
0.003
 41
0.003
  0
LWPOLYLINE
  5
551
100
AcDbEntity
  8
0
 62
     0
100
AcDbPolyline
 90
        2
 70
     0
 39
0.003
 10
0.656697
 20
0.029898
 40
0.003
 41
0.003
 10
0.660677
 20
0.065654
 40
0.003
 41
0.003
  0
LWPOLYLINE
  5
552
100
AcDbEntity
  8
0
 62
     0
100
AcDbPolyline
 90
        2
 70
     0
 39
0.003
 10
0.660677
 20
0.065654
 40
0.003
 41
0.003
 10
0.665575
 20
0.100398
 40
0.003
 41
0.003
  0
LWPOLYLINE
  5
553
100
AcDbEntity
  8
0
 62
     0
100
AcDbPolyline
 90
        2
 70
     0
 39
0.003
 10
0.665575
 20
0.100398
 40
0.003
 41
0.003
 10
0.671457
 20
0.134047
 40
0.003
 41
0.003
  0
LWPOLYLINE
  5
554
100
AcDbEntity
  8
0
 62
     0
100
AcDbPolyline
 90
        2
 70
     0
 39
0.003
 10
0.671457
 20
0.134047
 40
0.003
 41
0.003
 10
0.678402
 20
0.166504
 40
0.003
 41
0.003
  0
LWPOLYLINE
  5
555
100
AcDbEntity
  8
0
 62
     0
100
AcDbPolyline
 90
        2
 70
     0
 39
0.003
 10
0.678402
 20
0.166504
 40
0.003
 41
0.003
 10
0.686484
 20
0.197673
 40
0.003
 41
0.003
  0
LWPOLYLINE
  5
556
100
AcDbEntity
  8
0
 62
     0
100
AcDbPolyline
 90
        2
 70
     0
 39
0.003
 10
0.686484
 20
0.197673
 40
0.003
 41
0.003
 10
0.695791
 20
0.227453
 40
0.003
 41
0.003
  0
LWPOLYLINE
  5
557
100
AcDbEntity
  8
0
 62
     0
100
AcDbPolyline
 90
        2
 70
     0
 39
0.003
 10
0.695791
 20
0.227453
 40
0.003
 41
0.003
 10
0.706398
 20
0.25576
 40
0.003
 41
0.003
  0
LWPOLYLINE
  5
558
100
AcDbEntity
  8
0
 62
     0
100
AcDbPolyline
 90
        2
 70
     0
 39
0.003
 10
0.706398
 20
0.25576
 40
0.003
 41
0.003
 10
0.718382
 20
0.282492
 40
0.003
 41
0.003
  0
LWPOLYLINE
  5
559
100
AcDbEntity
  8
0
 62
     0
100
AcDbPolyline
 90
        2
 70
     0
 39
0.003
 10
0.718382
 20
0.282492
 40
0.003
 41
0.003
 10
0.731823
 20
0.307555
 40
0.003
 41
0.003
  0
LWPOLYLINE
  5
55A
100
AcDbEntity
  8
0
 62
     0
100
AcDbPolyline
 90
        2
 70
     0
 39
0.003
 10
0.731823
 20
0.307555
 40
0.003
 41
0.003
 10
0.746811
 20
0.33085
 40
0.003
 41
0.003
  0
LWPOLYLINE
  5
55B
100
AcDbEntity
  8
0
 62
     0
100
AcDbPolyline
 90
        2
 70
     0
 39
0.003
 10
0.746811
 20
0.33085
 40
0.003
 41
0.003
 10
0.763402
 20
0.352287
 40
0.003
 41
0.003
  0
LWPOLYLINE
  5
55C
100
AcDbEntity
  8
0
 62
     0
100
AcDbPolyline
 90
        2
 70
     0
 39
0.003
 10
0.763402
 20
0.352287
 40
0.003
 41
0.003
 10
0.781693
 20
0.371768
 40
0.003
 41
0.003
  0
LWPOLYLINE
  5
55D
100
AcDbEntity
  8
0
 62
     0
100
AcDbPolyline
 90
        2
 70
     0
 39
0.003
 10
0.781693
 20
0.371768
 40
0.003
 41
0.003
 10
0.801748
 20
0.389209
 40
0.003
 41
0.003
  0
LWPOLYLINE
  5
55E
100
AcDbEntity
  8
0
 62
     0
100
AcDbPolyline
 90
        2
 70
     0
 39
0.003
 10
0.801748
 20
0.389209
 40
0.003
 41
0.003
 10
0.823665
 20
0.404496
 40
0.003
 41
0.003
  0
LWPOLYLINE
  5
55F
100
AcDbEntity
  8
0
 62
     0
100
AcDbPolyline
 90
        2
 70
     0
 39
0.003
 10
0.823665
 20
0.404496
 40
0.003
 41
0.003
 10
0.847504
 20
0.417547
 40
0.003
 41
0.003
  0
LWPOLYLINE
  5
560
100
AcDbEntity
  8
0
 62
     0
100
AcDbPolyline
 90
        2
 70
     0
 39
0.003
 10
0.847504
 20
0.417547
 40
0.003
 41
0.003
 10
0.191354
 20
0.03402
 40
0.003
 41
0.003
  0
LWPOLYLINE
  5
561
100
AcDbEntity
  8
0
 62
     0
100
AcDbPolyline
 90
        2
 70
     0
 39
0.003
 10
0.191354
 20
0.03402
 40
0.003
 41
0.003
 10
0.167516
 20
0.020969
 40
0.003
 41
0.003
  0
LWPOLYLINE
  5
562
100
AcDbEntity
  8
0
 62
     0
100
AcDbPolyline
 90
        2
 70
     0
 39
0.003
 10
0.167516
 20
0.020969
 40
0.003
 41
0.003
 10
0.145598
 20
0.005681
 40
0.003
 41
0.003
  0
LWPOLYLINE
  5
563
100
AcDbEntity
  8
0
 62
     0
100
AcDbPolyline
 90
        2
 70
     0
 39
0.003
 10
0.145598
 20
0.005681
 40
0.003
 41
0.003
 10
0.125543
 20
-0.01176
 40
0.003
 41
0.003
  0
LWPOLYLINE
  5
564
100
AcDbEntity
  8
0
 62
     0
100
AcDbPolyline
 90
        2
 70
     0
 39
0.003
 10
0.125543
 20
-0.01176
 40
0.003
 41
0.003
 10
0.107252
 20
-0.03124
 40
0.003
 41
0.003
  0
LWPOLYLINE
  5
565
100
AcDbEntity
  8
0
 62
     0
100
AcDbPolyline
 90
        2
 70
     0
 39
0.003
 10
0.107252
 20
-0.03124
 40
0.003
 41
0.003
 10
0.090661
 20
-0.052677
 40
0.003
 41
0.003
  0
LWPOLYLINE
  5
566
100
AcDbEntity
  8
0
 62
     0
100
AcDbPolyline
 90
        2
 70
     0
 39
0.003
 10
0.090661
 20
-0.052677
 40
0.003
 41
0.003
 10
0.075673
 20
-0.075972
 40
0.003
 41
0.003
  0
LWPOLYLINE
  5
567
100
AcDbEntity
  8
0
 62
     0
100
AcDbPolyline
 90
        2
 70
     0
 39
0.003
 10
0.075673
 20
-0.075972
 40
0.003
 41
0.003
 10
0.062232
 20
-0.101035
 40
0.003
 41
0.003
  0
LWPOLYLINE
  5
568
100
AcDbEntity
  8
0
 62
     0
100
AcDbPolyline
 90
        2
 70
     0
 39
0.003
 10
0.062232
 20
-0.101035
 40
0.003
 41
0.003
 10
0.050248
 20
-0.127768
 40
0.003
 41
0.003
  0
LWPOLYLINE
  5
569
100
AcDbEntity
  8
0
 62
     0
100
AcDbPolyline
 90
        2
 70
     0
 39
0.003
 10
0.050248
 20
-0.127768
 40
0.003
 41
0.003
 10
0.039642
 20
-0.156075
 40
0.003
 41
0.003
  0
LWPOLYLINE
  5
56A
100
AcDbEntity
  8
0
 62
     0
100
AcDbPolyline
 90
        2
 70
     0
 39
0.003
 10
0.039642
 20
-0.156075
 40
0.003
 41
0.003
 10
0.030335
 20
-0.185854
 40
0.003
 41
0.003
  0
LWPOLYLINE
  5
56B
100
AcDbEntity
  8
0
 62
     0
100
AcDbPolyline
 90
        2
 70
     0
 39
0.003
 10
0.030335
 20
-0.185854
 40
0.003
 41
0.003
 10
0.022252
 20
-0.217024
 40
0.003
 41
0.003
  0
LWPOLYLINE
  5
56C
100
AcDbEntity
  8
0
 62
     0
100
AcDbPolyline
 90
        2
 70
     0
 39
0.003
 10
0.022252
 20
-0.217024
 40
0.003
 41
0.003
 10
0.015307
 20
-0.24948
 40
0.003
 41
0.003
  0
LWPOLYLINE
  5
56D
100
AcDbEntity
  8
0
 62
     0
100
AcDbPolyline
 90
        2
 70
     0
 39
0.003
 10
0.015307
 20
-0.24948
 40
0.003
 41
0.003
 10
0.009425
 20
-0.28313
 40
0.003
 41
0.003
  0
LWPOLYLINE
  5
56E
100
AcDbEntity
  8
0
 62
     0
100
AcDbPolyline
 90
        2
 70
     0
 39
0.003
 10
0.009425
 20
-0.28313
 40
0.003
 41
0.003
 10
0.004528
 20
-0.317874
 40
0.003
 41
0.003
  0
LWPOLYLINE
  5
56F
100
AcDbEntity
  8
0
 62
     0
100
AcDbPolyline
 90
        2
 70
     0
 39
0.003
 10
0.004528
 20
-0.317874
 40
0.003
 41
0.003
 10
0.000547
 20
-0.35363
 40
0.003
 41
0.003
  0
LWPOLYLINE
  5
570
100
AcDbEntity
  8
0
 62
     0
100
AcDbPolyline
 90
        2
 70
     0
 39
0.003
 10
0.000547
 20
-0.35363
 40
0.003
 41
0.003
 10
-0.002614
 20
-0.390287
 40
0.003
 41
0.003
  0
LWPOLYLINE
  5
571
100
AcDbEntity
  8
0
 62
     0
100
AcDbPolyline
 90
        2
 70
     0
 39
0.003
 10
-0.002614
 20
-0.390287
 40
0.003
 41
0.003
 10
-0.00502
 20
-0.427752
 40
0.003
 41
0.003
  0
LWPOLYLINE
  5
572
100
AcDbEntity
  8
0
 62
     0
100
AcDbPolyline
 90
        2
 70
     0
 39
0.003
 10
-0.00502
 20
-0.427752
 40
0.003
 41
0.003
 10
-0.006768
 20
-0.465949
 40
0.003
 41
0.003
  0
LWPOLYLINE
  5
573
100
AcDbEntity
  8
0
 62
     0
100
AcDbPolyline
 90
        2
 70
     0
 39
0.003
 10
-0.006768
 20
-0.465949
 40
0.003
 41
0.003
 10
-0.007913
 20
-0.50476
 40
0.003
 41
0.003
  0
LWPOLYLINE
  5
574
100
AcDbEntity
  8
0
 62
     0
100
AcDbPolyline
 90
        2
 70
     0
 39
0.003
 10
-0.007913
 20
-0.50476
 40
0.003
 41
0.003
 10
-0.008551
 20
-0.544106
 40
0.003
 41
0.003
  0
LWPOLYLINE
  5
575
100
AcDbEntity
  8
0
 62
     0
100
AcDbPolyline
 90
        2
 70
     0
 39
0.003
 10
-0.008551
 20
-0.544106
 40
0.003
 41
0.003
 10
-0.008752
 20
-0.583882
 40
0.003
 41
0.003
  0
LWPOLYLINE
  5
576
100
AcDbEntity
  8
0
 62
     0
100
AcDbPolyline
 90
        2
 70
     0
 39
0.003
 10
-0.008752
 20
-0.583882
 40
0.003
 41
0.003
 10
-0.008606
 20
-0.624
 40
0.003
 41
0.003
  0
LWPOLYLINE
  5
577
100
AcDbEntity
  8
0
 62
     0
100
AcDbPolyline
 90
        2
 70
     0
 39
0.003
 10
-0.008606
 20
-0.624
 40
0.003
 41
0.003
 10
-0.008169
 20
-0.664354
 40
0.003
 41
0.003
  0
LWPOLYLINE
  5
578
100
AcDbEntity
  8
0
 62
     0
100
AcDbPolyline
 90
        2
 70
     0
 39
0.003
 10
-0.008169
 20
-0.664354
 40
0.003
 41
0.003
 10
-0.007543
 20
-0.704862
 40
0.003
 41
0.003
  0
LWPOLYLINE
  5
579
100
AcDbEntity
  8
0
 62
     0
100
AcDbPolyline
 90
        2
 70
     0
 39
0.003
 10
-0.007543
 20
-0.704862
 40
0.003
 41
0.003
 10
-0.006795
 20
-0.745421
 40
0.003
 41
0.003
  0
LWPOLYLINE
  5
57A
100
AcDbEntity
  8
0
 62
     0
100
AcDbPolyline
 90
        2
 70
     0
 39
0.003
 10
-0.006795
 20
-0.745421
 40
0.003
 41
0.003
 10
-0.006012
 20
-0.785941
 40
0.003
 41
0.003
  0
LWPOLYLINE
  5
57B
100
AcDbEntity
  8
0
 62
     0
100
AcDbPolyline
 90
        2
 70
     0
 39
0.003
 10
-0.006012
 20
-0.785941
 40
0.003
 41
0.003
 10
-0.00526
 20
-0.826319
 40
0.003
 41
0.003
  0
LWPOLYLINE
  5
57C
100
AcDbEntity
  8
0
 62
     0
100
AcDbPolyline
 90
        2
 70
     0
 39
0.003
 10
-0.00526
 20
-0.826319
 40
0.003
 41
0.003
 10
-0.00463
 20
-0.866465
 40
0.003
 41
0.003
  0
LWPOLYLINE
  5
57D
100
AcDbEntity
  8
0
 62
     0
100
AcDbPolyline
 90
        2
 70
     0
 39
0.003
 10
-0.00463
 20
-0.866465
 40
0.003
 41
0.003
 10
-0.004189
 20
-0.906287
 40
0.003
 41
0.003
  0
LWPOLYLINE
  5
57E
100
AcDbEntity
  8
0
 62
     0
100
AcDbPolyline
 90
        2
 70
     0
 39
0.003
 10
-0.004189
 20
-0.906287
 40
0.003
 41
0.003
 10
-0.004031
 20
-0.945689
 40
0.003
 41
0.003
  0
LWPOLYLINE
  5
57F
100
AcDbEntity
  8
0
 62
     9
100
AcDbPolyline
 90
        2
 70
     0
 39
0.003
 10
0.245134
 20
0.053031
 40
0.003
 41
0.003
 10
0.901283
 20
0.436559
 40
0.003
 41
0.003
  0
LWPOLYLINE
  5
580
100
AcDbEntity
  8
0
 62
     9
100
AcDbPolyline
 90
        2
 70
     0
 39
0.003
 10
0.901283
 20
0.436559
 40
0.003
 41
0.003
 10
0.901283
 20
0.560028
 40
0.003
 41
0.003
  0
LWPOLYLINE
  5
581
100
AcDbEntity
  8
0
 62
     9
100
AcDbPolyline
 90
        2
 70
     0
 39
0.003
 10
0.901283
 20
0.560028
 40
0.003
 41
0.003
 10
0.245134
 20
0.1765
 40
0.003
 41
0.003
  0
LWPOLYLINE
  5
582
100
AcDbEntity
  8
0
 62
     9
100
AcDbPolyline
 90
        2
 70
     0
 39
0.003
 10
0.245134
 20
0.1765
 40
0.003
 41
0.003
 10
0.245134
 20
0.053031
 40
0.003
 41
0.003
  0
LWPOLYLINE
  5
583
100
AcDbEntity
  8
0
 62
     0
100
AcDbPolyline
 90
        2
 70
     0
 39
0.003
 10
0.245134
 20
0.053031
 40
0.003
 41
0.003
 10
0.901283
 20
0.436559
 40
0.003
 41
0.003
  0
LWPOLYLINE
  5
584
100
AcDbEntity
  8
0
 62
     0
100
AcDbPolyline
 90
        2
 70
     0
 39
0.003
 10
0.901283
 20
0.436559
 40
0.003
 41
0.003
 10
0.901283
 20
0.560028
 40
0.003
 41
0.003
  0
LWPOLYLINE
  5
585
100
AcDbEntity
  8
0
 62
     0
100
AcDbPolyline
 90
        2
 70
     0
 39
0.003
 10
0.901283
 20
0.560028
 40
0.003
 41
0.003
 10
0.245134
 20
0.1765
 40
0.003
 41
0.003
  0
LWPOLYLINE
  5
586
100
AcDbEntity
  8
0
 62
     0
100
AcDbPolyline
 90
        2
 70
     0
 39
0.003
 10
0.245134
 20
0.1765
 40
0.003
 41
0.003
 10
0.245134
 20
0.053031
 40
0.003
 41
0.003
  0
LWPOLYLINE
  5
587
100
AcDbEntity
  8
0
 62
     8
100
AcDbPolyline
 90
        2
 70
     0
 39
0.003
 10
0.315413
 20
0.210035
 40
0.003
 41
0.003
 10
0.971563
 20
0.593563
 40
0.003
 41
0.003
  0
LWPOLYLINE
  5
588
100
AcDbEntity
  8
0
 62
     8
100
AcDbPolyline
 90
        2
 70
     0
 39
0.003
 10
0.971563
 20
0.593563
 40
0.003
 41
0.003
 10
1.002972
 20
0.611213
 40
0.003
 41
0.003
  0
LWPOLYLINE
  5
589
100
AcDbEntity
  8
0
 62
     8
100
AcDbPolyline
 90
        2
 70
     0
 39
0.003
 10
1.002972
 20
0.611213
 40
0.003
 41
0.003
 10
0.346823
 20
0.227685
 40
0.003
 41
0.003
  0
LWPOLYLINE
  5
58A
100
AcDbEntity
  8
0
 62
     8
100
AcDbPolyline
 90
        2
 70
     0
 39
0.003
 10
0.346823
 20
0.227685
 40
0.003
 41
0.003
 10
0.315413
 20
0.210035
 40
0.003
 41
0.003
  0
LWPOLYLINE
  5
58B
100
AcDbEntity
  8
0
 62
     8
100
AcDbPolyline
 90
        2
 70
     0
 39
0.003
 10
0.346823
 20
0.227685
 40
0.003
 41
0.003
 10
1.002972
 20
0.611213
 40
0.003
 41
0.003
  0
LWPOLYLINE
  5
58C
100
AcDbEntity
  8
0
 62
     8
100
AcDbPolyline
 90
        2
 70
     0
 39
0.003
 10
1.002972
 20
0.611213
 40
0.003
 41
0.003
 10
1.031976
 20
0.629366
 40
0.003
 41
0.003
  0
LWPOLYLINE
  5
58D
100
AcDbEntity
  8
0
 62
     8
100
AcDbPolyline
 90
        2
 70
     0
 39
0.003
 10
1.031976
 20
0.629366
 40
0.003
 41
0.003
 10
0.375827
 20
0.245839
 40
0.003
 41
0.003
  0
LWPOLYLINE
  5
58E
100
AcDbEntity
  8
0
 62
     8
100
AcDbPolyline
 90
        2
 70
     0
 39
0.003
 10
0.375827
 20
0.245839
 40
0.003
 41
0.003
 10
0.346823
 20
0.227685
 40
0.003
 41
0.003
  0
LWPOLYLINE
  5
58F
100
AcDbEntity
  8
0
 62
   127
100
AcDbPolyline
 90
        2
 70
     0
 39
0.003
 10
0.375827
 20
0.245839
 40
0.003
 41
0.003
 10
1.031976
 20
0.629366
 40
0.003
 41
0.003
  0
LWPOLYLINE
  5
590
100
AcDbEntity
  8
0
 62
   127
100
AcDbPolyline
 90
        2
 70
     0
 39
0.003
 10
1.031976
 20
0.629366
 40
0.003
 41
0.003
 10
1.058618
 20
0.647945
 40
0.003
 41
0.003
  0
LWPOLYLINE
  5
591
100
AcDbEntity
  8
0
 62
   127
100
AcDbPolyline
 90
        2
 70
     0
 39
0.003
 10
1.058618
 20
0.647945
 40
0.003
 41
0.003
 10
0.402469
 20
0.264417
 40
0.003
 41
0.003
  0
LWPOLYLINE
  5
592
100
AcDbEntity
  8
0
 62
   127
100
AcDbPolyline
 90
        2
 70
     0
 39
0.003
 10
0.402469
 20
0.264417
 40
0.003
 41
0.003
 10
0.375827
 20
0.245839
 40
0.003
 41
0.003
  0
LWPOLYLINE
  5
593
100
AcDbEntity
  8
0
 62
   127
100
AcDbPolyline
 90
        2
 70
     0
 39
0.003
 10
0.402469
 20
0.264417
 40
0.003
 41
0.003
 10
1.058618
 20
0.647945
 40
0.003
 41
0.003
  0
LWPOLYLINE
  5
594
100
AcDbEntity
  8
0
 62
   127
100
AcDbPolyline
 90
        2
 70
     0
 39
0.003
 10
1.058618
 20
0.647945
 40
0.003
 41
0.003
 10
1.082961
 20
0.666886
 40
0.003
 41
0.003
  0
LWPOLYLINE
  5
595
100
AcDbEntity
  8
0
 62
   127
100
AcDbPolyline
 90
        2
 70
     0
 39
0.003
 10
1.082961
 20
0.666886
 40
0.003
 41
0.003
 10
0.426811
 20
0.283358
 40
0.003
 41
0.003
  0
LWPOLYLINE
  5
596
100
AcDbEntity
  8
0
 62
   127
100
AcDbPolyline
 90
        2
 70
     0
 39
0.003
 10
0.426811
 20
0.283358
 40
0.003
 41
0.003
 10
0.402469
 20
0.264417
 40
0.003
 41
0.003
  0
LWPOLYLINE
  5
597
100
AcDbEntity
  8
0
 62
   251
100
AcDbPolyline
 90
        2
 70
     0
 39
0.003
 10
0.426811
 20
0.283358
 40
0.003
 41
0.003
 10
1.082961
 20
0.666886
 40
0.003
 41
0.003
  0
LWPOLYLINE
  5
598
100
AcDbEntity
  8
0
 62
   251
100
AcDbPolyline
 90
        2
 70
     0
 39
0.003
 10
1.082961
 20
0.666886
 40
0.003
 41
0.003
 10
1.105055
 20
0.686118
 40
0.003
 41
0.003
  0
LWPOLYLINE
  5
599
100
AcDbEntity
  8
0
 62
   251
100
AcDbPolyline
 90
        2
 70
     0
 39
0.003
 10
1.105055
 20
0.686118
 40
0.003
 41
0.003
 10
0.448906
 20
0.302591
 40
0.003
 41
0.003
  0
LWPOLYLINE
  5
59A
100
AcDbEntity
  8
0
 62
   251
100
AcDbPolyline
 90
        2
 70
     0
 39
0.003
 10
0.448906
 20
0.302591
 40
0.003
 41
0.003
 10
0.426811
 20
0.283358
 40
0.003
 41
0.003
  0
LWPOLYLINE
  5
59B
100
AcDbEntity
  8
0
 62
   139
100
AcDbPolyline
 90
        2
 70
     0
 39
0.003
 10
0.448906
 20
0.302591
 40
0.003
 41
0.003
 10
1.105055
 20
0.686118
 40
0.003
 41
0.003
  0
LWPOLYLINE
  5
59C
100
AcDbEntity
  8
0
 62
   139
100
AcDbPolyline
 90
        2
 70
     0
 39
0.003
 10
1.105055
 20
0.686118
 40
0.003
 41
0.003
 10
1.124965
 20
0.705579
 40
0.003
 41
0.003
  0
LWPOLYLINE
  5
59D
100
AcDbEntity
  8
0
 62
   139
100
AcDbPolyline
 90
        2
 70
     0
 39
0.003
 10
1.124965
 20
0.705579
 40
0.003
 41
0.003
 10
0.468815
 20
0.322051
 40
0.003
 41
0.003
  0
LWPOLYLINE
  5
59E
100
AcDbEntity
  8
0
 62
   139
100
AcDbPolyline
 90
        2
 70
     0
 39
0.003
 10
0.468815
 20
0.322051
 40
0.003
 41
0.003
 10
0.448906
 20
0.302591
 40
0.003
 41
0.003
  0
LWPOLYLINE
  5
59F
100
AcDbEntity
  8
0
 62
   251
100
AcDbPolyline
 90
        2
 70
     0
 39
0.003
 10
0.468815
 20
0.322051
 40
0.003
 41
0.003
 10
1.124965
 20
0.705579
 40
0.003
 41
0.003
  0
LWPOLYLINE
  5
5A0
100
AcDbEntity
  8
0
 62
   251
100
AcDbPolyline
 90
        2
 70
     0
 39
0.003
 10
1.124965
 20
0.705579
 40
0.003
 41
0.003
 10
1.142728
 20
0.725185
 40
0.003
 41
0.003
  0
LWPOLYLINE
  5
5A1
100
AcDbEntity
  8
0
 62
   251
100
AcDbPolyline
 90
        2
 70
     0
 39
0.003
 10
1.142728
 20
0.725185
 40
0.003
 41
0.003
 10
0.486579
 20
0.341657
 40
0.003
 41
0.003
  0
LWPOLYLINE
  5
5A2
100
AcDbEntity
  8
0
 62
   251
100
AcDbPolyline
 90
        2
 70
     0
 39
0.003
 10
0.486579
 20
0.341657
 40
0.003
 41
0.003
 10
0.468815
 20
0.322051
 40
0.003
 41
0.003
  0
LWPOLYLINE
  5
5A3
100
AcDbEntity
  8
0
 62
   127
100
AcDbPolyline
 90
        2
 70
     0
 39
0.003
 10
0.486579
 20
0.341657
 40
0.003
 41
0.003
 10
1.142728
 20
0.725185
 40
0.003
 41
0.003
  0
LWPOLYLINE
  5
5A4
100
AcDbEntity
  8
0
 62
   127
100
AcDbPolyline
 90
        2
 70
     0
 39
0.003
 10
1.142728
 20
0.725185
 40
0.003
 41
0.003
 10
1.158417
 20
0.744886
 40
0.003
 41
0.003
  0
LWPOLYLINE
  5
5A5
100
AcDbEntity
  8
0
 62
   127
100
AcDbPolyline
 90
        2
 70
     0
 39
0.003
 10
1.158417
 20
0.744886
 40
0.003
 41
0.003
 10
0.502268
 20
0.361358
 40
0.003
 41
0.003
  0
LWPOLYLINE
  5
5A6
100
AcDbEntity
  8
0
 62
   127
100
AcDbPolyline
 90
        2
 70
     0
 39
0.003
 10
0.502268
 20
0.361358
 40
0.003
 41
0.003
 10
0.486579
 20
0.341657
 40
0.003
 41
0.003
  0
LWPOLYLINE
  5
5A7
100
AcDbEntity
  8
0
 62
     8
100
AcDbPolyline
 90
        2
 70
     0
 39
0.003
 10
0.502268
 20
0.361358
 40
0.003
 41
0.003
 10
1.158417
 20
0.744886
 40
0.003
 41
0.003
  0
LWPOLYLINE
  5
5A8
100
AcDbEntity
  8
0
 62
     8
100
AcDbPolyline
 90
        2
 70
     0
 39
0.003
 10
1.158417
 20
0.744886
 40
0.003
 41
0.003
 10
1.172079
 20
0.764598
 40
0.003
 41
0.003
  0
LWPOLYLINE
  5
5A9
100
AcDbEntity
  8
0
 62
     8
100
AcDbPolyline
 90
        2
 70
     0
 39
0.003
 10
1.172079
 20
0.764598
 40
0.003
 41
0.003
 10
0.515929
 20
0.381071
 40
0.003
 41
0.003
  0
LWPOLYLINE
  5
5AA
100
AcDbEntity
  8
0
 62
     8
100
AcDbPolyline
 90
        2
 70
     0
 39
0.003
 10
0.515929
 20
0.381071
 40
0.003
 41
0.003
 10
0.502268
 20
0.361358
 40
0.003
 41
0.003
  0
LWPOLYLINE
  5
5AB
100
AcDbEntity
  8
0
 62
     8
100
AcDbPolyline
 90
        2
 70
     0
 39
0.003
 10
0.515929
 20
0.381071
 40
0.003
 41
0.003
 10
1.172079
 20
0.764598
 40
0.003
 41
0.003
  0
LWPOLYLINE
  5
5AC
100
AcDbEntity
  8
0
 62
     8
100
AcDbPolyline
 90
        2
 70
     0
 39
0.003
 10
1.172079
 20
0.764598
 40
0.003
 41
0.003
 10
1.183776
 20
0.784272
 40
0.003
 41
0.003
  0
LWPOLYLINE
  5
5AD
100
AcDbEntity
  8
0
 62
     8
100
AcDbPolyline
 90
        2
 70
     0
 39
0.003
 10
1.183776
 20
0.784272
 40
0.003
 41
0.003
 10
0.527626
 20
0.400744
 40
0.003
 41
0.003
  0
LWPOLYLINE
  5
5AE
100
AcDbEntity
  8
0
 62
     8
100
AcDbPolyline
 90
        2
 70
     0
 39
0.003
 10
0.527626
 20
0.400744
 40
0.003
 41
0.003
 10
0.515929
 20
0.381071
 40
0.003
 41
0.003
  0
LWPOLYLINE
  5
5AF
100
AcDbEntity
  8
0
 62
   252
100
AcDbPolyline
 90
        2
 70
     0
 39
0.003
 10
0.527626
 20
0.400744
 40
0.003
 41
0.003
 10
1.183776
 20
0.784272
 40
0.003
 41
0.003
  0
LWPOLYLINE
  5
5B0
100
AcDbEntity
  8
0
 62
   252
100
AcDbPolyline
 90
        2
 70
     0
 39
0.003
 10
1.183776
 20
0.784272
 40
0.003
 41
0.003
 10
1.193551
 20
0.803819
 40
0.003
 41
0.003
  0
LWPOLYLINE
  5
5B1
100
AcDbEntity
  8
0
 62
   252
100
AcDbPolyline
 90
        2
 70
     0
 39
0.003
 10
1.193551
 20
0.803819
 40
0.003
 41
0.003
 10
0.537402
 20
0.420291
 40
0.003
 41
0.003
  0
LWPOLYLINE
  5
5B2
100
AcDbEntity
  8
0
 62
   252
100
AcDbPolyline
 90
        2
 70
     0
 39
0.003
 10
0.537402
 20
0.420291
 40
0.003
 41
0.003
 10
0.527626
 20
0.400744
 40
0.003
 41
0.003
  0
LWPOLYLINE
  5
5B3
100
AcDbEntity
  8
0
 62
   253
100
AcDbPolyline
 90
        2
 70
     0
 39
0.003
 10
0.537402
 20
0.420291
 40
0.003
 41
0.003
 10
1.193551
 20
0.803819
 40
0.003
 41
0.003
  0
LWPOLYLINE
  5
5B4
100
AcDbEntity
  8
0
 62
   253
100
AcDbPolyline
 90
        2
 70
     0
 39
0.003
 10
1.193551
 20
0.803819
 40
0.003
 41
0.003
 10
1.201472
 20
0.823181
 40
0.003
 41
0.003
  0
LWPOLYLINE
  5
5B5
100
AcDbEntity
  8
0
 62
   253
100
AcDbPolyline
 90
        2
 70
     0
 39
0.003
 10
1.201472
 20
0.823181
 40
0.003
 41
0.003
 10
0.545323
 20
0.439654
 40
0.003
 41
0.003
  0
LWPOLYLINE
  5
5B6
100
AcDbEntity
  8
0
 62
   253
100
AcDbPolyline
 90
        2
 70
     0
 39
0.003
 10
0.545323
 20
0.439654
 40
0.003
 41
0.003
 10
0.537402
 20
0.420291
 40
0.003
 41
0.003
  0
LWPOLYLINE
  5
5B7
100
AcDbEntity
  8
0
 62
   253
100
AcDbPolyline
 90
        2
 70
     0
 39
0.003
 10
0.545323
 20
0.439654
 40
0.003
 41
0.003
 10
1.201472
 20
0.823181
 40
0.003
 41
0.003
  0
LWPOLYLINE
  5
5B8
100
AcDbEntity
  8
0
 62
   253
100
AcDbPolyline
 90
        2
 70
     0
 39
0.003
 10
1.201472
 20
0.823181
 40
0.003
 41
0.003
 10
1.207587
 20
0.842291
 40
0.003
 41
0.003
  0
LWPOLYLINE
  5
5B9
100
AcDbEntity
  8
0
 62
   253
100
AcDbPolyline
 90
        2
 70
     0
 39
0.003
 10
1.207587
 20
0.842291
 40
0.003
 41
0.003
 10
0.551437
 20
0.458764
 40
0.003
 41
0.003
  0
LWPOLYLINE
  5
5BA
100
AcDbEntity
  8
0
 62
   253
100
AcDbPolyline
 90
        2
 70
     0
 39
0.003
 10
0.551437
 20
0.458764
 40
0.003
 41
0.003
 10
0.545323
 20
0.439654
 40
0.003
 41
0.003
  0
LWPOLYLINE
  5
5BB
100
AcDbEntity
  8
0
 62
   253
100
AcDbPolyline
 90
        2
 70
     0
 39
0.003
 10
0.551437
 20
0.458764
 40
0.003
 41
0.003
 10
1.207587
 20
0.842291
 40
0.003
 41
0.003
  0
LWPOLYLINE
  5
5BC
100
AcDbEntity
  8
0
 62
   253
100
AcDbPolyline
 90
        2
 70
     0
 39
0.003
 10
1.207587
 20
0.842291
 40
0.003
 41
0.003
 10
1.211957
 20
0.861079
 40
0.003
 41
0.003
  0
LWPOLYLINE
  5
5BD
100
AcDbEntity
  8
0
 62
   253
100
AcDbPolyline
 90
        2
 70
     0
 39
0.003
 10
1.211957
 20
0.861079
 40
0.003
 41
0.003
 10
0.555807
 20
0.477551
 40
0.003
 41
0.003
  0
LWPOLYLINE
  5
5BE
100
AcDbEntity
  8
0
 62
   253
100
AcDbPolyline
 90
        2
 70
     0
 39
0.003
 10
0.555807
 20
0.477551
 40
0.003
 41
0.003
 10
0.551437
 20
0.458764
 40
0.003
 41
0.003
  0
LWPOLYLINE
  5
5BF
100
AcDbEntity
  8
0
 62
   253
100
AcDbPolyline
 90
        2
 70
     0
 39
0.003
 10
0.555807
 20
0.477551
 40
0.003
 41
0.003
 10
1.211957
 20
0.861079
 40
0.003
 41
0.003
  0
LWPOLYLINE
  5
5C0
100
AcDbEntity
  8
0
 62
   253
100
AcDbPolyline
 90
        2
 70
     0
 39
0.003
 10
1.211957
 20
0.861079
 40
0.003
 41
0.003
 10
1.214622
 20
0.879465
 40
0.003
 41
0.003
  0
LWPOLYLINE
  5
5C1
100
AcDbEntity
  8
0
 62
   253
100
AcDbPolyline
 90
        2
 70
     0
 39
0.003
 10
1.214622
 20
0.879465
 40
0.003
 41
0.003
 10
0.558472
 20
0.495937
 40
0.003
 41
0.003
  0
LWPOLYLINE
  5
5C2
100
AcDbEntity
  8
0
 62
   253
100
AcDbPolyline
 90
        2
 70
     0
 39
0.003
 10
0.558472
 20
0.495937
 40
0.003
 41
0.003
 10
0.555807
 20
0.477551
 40
0.003
 41
0.003
  0
LWPOLYLINE
  5
5C3
100
AcDbEntity
  8
0
 62
     9
100
AcDbPolyline
 90
        2
 70
     0
 39
0.003
 10
0.558472
 20
0.495937
 40
0.003
 41
0.003
 10
1.214622
 20
0.879465
 40
0.003
 41
0.003
  0
LWPOLYLINE
  5
5C4
100
AcDbEntity
  8
0
 62
     9
100
AcDbPolyline
 90
        2
 70
     0
 39
0.003
 10
1.214622
 20
0.879465
 40
0.003
 41
0.003
 10
1.215657
 20
0.897398
 40
0.003
 41
0.003
  0
LWPOLYLINE
  5
5C5
100
AcDbEntity
  8
0
 62
     9
100
AcDbPolyline
 90
        2
 70
     0
 39
0.003
 10
1.215657
 20
0.897398
 40
0.003
 41
0.003
 10
0.559508
 20
0.51387
 40
0.003
 41
0.003
  0
LWPOLYLINE
  5
5C6
100
AcDbEntity
  8
0
 62
     9
100
AcDbPolyline
 90
        2
 70
     0
 39
0.003
 10
0.559508
 20
0.51387
 40
0.003
 41
0.003
 10
0.558472
 20
0.495937
 40
0.003
 41
0.003
  0
LWPOLYLINE
  5
5C7
100
AcDbEntity
  8
0
 62
     9
100
AcDbPolyline
 90
        2
 70
     0
 39
0.003
 10
0.559508
 20
0.51387
 40
0.003
 41
0.003
 10
1.215657
 20
0.897398
 40
0.003
 41
0.003
  0
LWPOLYLINE
  5
5C8
100
AcDbEntity
  8
0
 62
     9
100
AcDbPolyline
 90
        2
 70
     0
 39
0.003
 10
1.215657
 20
0.897398
 40
0.003
 41
0.003
 10
1.215102
 20
0.914799
 40
0.003
 41
0.003
  0
LWPOLYLINE
  5
5C9
100
AcDbEntity
  8
0
 62
     9
100
AcDbPolyline
 90
        2
 70
     0
 39
0.003
 10
1.215102
 20
0.914799
 40
0.003
 41
0.003
 10
0.558953
 20
0.531272
 40
0.003
 41
0.003
  0
LWPOLYLINE
  5
5CA
100
AcDbEntity
  8
0
 62
     9
100
AcDbPolyline
 90
        2
 70
     0
 39
0.003
 10
0.558953
 20
0.531272
 40
0.003
 41
0.003
 10
0.559508
 20
0.51387
 40
0.003
 41
0.003
  0
LWPOLYLINE
  5
5CB
100
AcDbEntity
  8
0
 62
     9
100
AcDbPolyline
 90
        2
 70
     0
 39
0.003
 10
0.558953
 20
0.531272
 40
0.003
 41
0.003
 10
1.215102
 20
0.914799
 40
0.003
 41
0.003
  0
LWPOLYLINE
  5
5CC
100
AcDbEntity
  8
0
 62
     9
100
AcDbPolyline
 90
        2
 70
     0
 39
0.003
 10
1.215102
 20
0.914799
 40
0.003
 41
0.003
 10
1.213028
 20
0.931606
 40
0.003
 41
0.003
  0
LWPOLYLINE
  5
5CD
100
AcDbEntity
  8
0
 62
     9
100
AcDbPolyline
 90
        2
 70
     0
 39
0.003
 10
1.213028
 20
0.931606
 40
0.003
 41
0.003
 10
0.556878
 20
0.548079
 40
0.003
 41
0.003
  0
LWPOLYLINE
  5
5CE
100
AcDbEntity
  8
0
 62
     9
100
AcDbPolyline
 90
        2
 70
     0
 39
0.003
 10
0.556878
 20
0.548079
 40
0.003
 41
0.003
 10
0.558953
 20
0.531272
 40
0.003
 41
0.003
  0
LWPOLYLINE
  5
5CF
100
AcDbEntity
  8
0
 62
     9
100
AcDbPolyline
 90
        2
 70
     0
 39
0.003
 10
0.556878
 20
0.548079
 40
0.003
 41
0.003
 10
1.213028
 20
0.931606
 40
0.003
 41
0.003
  0
LWPOLYLINE
  5
5D0
100
AcDbEntity
  8
0
 62
     9
100
AcDbPolyline
 90
        2
 70
     0
 39
0.003
 10
1.213028
 20
0.931606
 40
0.003
 41
0.003
 10
1.209472
 20
0.94774
 40
0.003
 41
0.003
  0
LWPOLYLINE
  5
5D1
100
AcDbEntity
  8
0
 62
     9
100
AcDbPolyline
 90
        2
 70
     0
 39
0.003
 10
1.209472
 20
0.94774
 40
0.003
 41
0.003
 10
0.553323
 20
0.564213
 40
0.003
 41
0.003
  0
LWPOLYLINE
  5
5D2
100
AcDbEntity
  8
0
 62
     9
100
AcDbPolyline
 90
        2
 70
     0
 39
0.003
 10
0.553323
 20
0.564213
 40
0.003
 41
0.003
 10
0.556878
 20
0.548079
 40
0.003
 41
0.003
  0
LWPOLYLINE
  5
5D3
100
AcDbEntity
  8
0
 62
     9
100
AcDbPolyline
 90
        2
 70
     0
 39
0.003
 10
0.553323
 20
0.564213
 40
0.003
 41
0.003
 10
1.209472
 20
0.94774
 40
0.003
 41
0.003
  0
LWPOLYLINE
  5
5D4
100
AcDbEntity
  8
0
 62
     9
100
AcDbPolyline
 90
        2
 70
     0
 39
0.003
 10
1.209472
 20
0.94774
 40
0.003
 41
0.003
 10
1.204508
 20
0.963146
 40
0.003
 41
0.003
  0
LWPOLYLINE
  5
5D5
100
AcDbEntity
  8
0
 62
     9
100
AcDbPolyline
 90
        2
 70
     0
 39
0.003
 10
1.204508
 20
0.963146
 40
0.003
 41
0.003
 10
0.548358
 20
0.579618
 40
0.003
 41
0.003
  0
LWPOLYLINE
  5
5D6
100
AcDbEntity
  8
0
 62
     9
100
AcDbPolyline
 90
        2
 70
     0
 39
0.003
 10
0.548358
 20
0.579618
 40
0.003
 41
0.003
 10
0.553323
 20
0.564213
 40
0.003
 41
0.003
  0
LWPOLYLINE
  5
5D7
100
AcDbEntity
  8
0
 62
     9
100
AcDbPolyline
 90
        2
 70
     0
 39
0.003
 10
0.548358
 20
0.579618
 40
0.003
 41
0.003
 10
1.204508
 20
0.963146
 40
0.003
 41
0.003
  0
LWPOLYLINE
  5
5D8
100
AcDbEntity
  8
0
 62
     9
100
AcDbPolyline
 90
        2
 70
     0
 39
0.003
 10
1.204508
 20
0.963146
 40
0.003
 41
0.003
 10
1.198173
 20
0.977748
 40
0.003
 41
0.003
  0
LWPOLYLINE
  5
5D9
100
AcDbEntity
  8
0
 62
     9
100
AcDbPolyline
 90
        2
 70
     0
 39
0.003
 10
1.198173
 20
0.977748
 40
0.003
 41
0.003
 10
0.542024
 20
0.59422
 40
0.003
 41
0.003
  0
LWPOLYLINE
  5
5DA
100
AcDbEntity
  8
0
 62
     9
100
AcDbPolyline
 90
        2
 70
     0
 39
0.003
 10
0.542024
 20
0.59422
 40
0.003
 41
0.003
 10
0.548358
 20
0.579618
 40
0.003
 41
0.003
  0
LWPOLYLINE
  5
5DB
100
AcDbEntity
  8
0
 62
     9
100
AcDbPolyline
 90
        2
 70
     0
 39
0.003
 10
0.542024
 20
0.59422
 40
0.003
 41
0.003
 10
1.198173
 20
0.977748
 40
0.003
 41
0.003
  0
LWPOLYLINE
  5
5DC
100
AcDbEntity
  8
0
 62
     9
100
AcDbPolyline
 90
        2
 70
     0
 39
0.003
 10
1.198173
 20
0.977748
 40
0.003
 41
0.003
 10
1.190539
 20
0.991484
 40
0.003
 41
0.003
  0
LWPOLYLINE
  5
5DD
100
AcDbEntity
  8
0
 62
     9
100
AcDbPolyline
 90
        2
 70
     0
 39
0.003
 10
1.190539
 20
0.991484
 40
0.003
 41
0.003
 10
0.53439
 20
0.607957
 40
0.003
 41
0.003
  0
LWPOLYLINE
  5
5DE
100
AcDbEntity
  8
0
 62
     9
100
AcDbPolyline
 90
        2
 70
     0
 39
0.003
 10
0.53439
 20
0.607957
 40
0.003
 41
0.003
 10
0.542024
 20
0.59422
 40
0.003
 41
0.003
  0
LWPOLYLINE
  5
5DF
100
AcDbEntity
  8
0
 62
     9
100
AcDbPolyline
 90
        2
 70
     0
 39
0.003
 10
0.53439
 20
0.607957
 40
0.003
 41
0.003
 10
1.190539
 20
0.991484
 40
0.003
 41
0.003
  0
LWPOLYLINE
  5
5E0
100
AcDbEntity
  8
0
 62
     9
100
AcDbPolyline
 90
        2
 70
     0
 39
0.003
 10
1.190539
 20
0.991484
 40
0.003
 41
0.003
 10
1.181646
 20
1.004272
 40
0.003
 41
0.003
  0
LWPOLYLINE
  5
5E1
100
AcDbEntity
  8
0
 62
     9
100
AcDbPolyline
 90
        2
 70
     0
 39
0.003
 10
1.181646
 20
1.004272
 40
0.003
 41
0.003
 10
0.525496
 20
0.620744
 40
0.003
 41
0.003
  0
LWPOLYLINE
  5
5E2
100
AcDbEntity
  8
0
 62
     9
100
AcDbPolyline
 90
        2
 70
     0
 39
0.003
 10
0.525496
 20
0.620744
 40
0.003
 41
0.003
 10
0.53439
 20
0.607957
 40
0.003
 41
0.003
  0
LWPOLYLINE
  5
5E3
100
AcDbEntity
  8
0
 62
     9
100
AcDbPolyline
 90
        2
 70
     0
 39
0.003
 10
0.525496
 20
0.620744
 40
0.003
 41
0.003
 10
1.181646
 20
1.004272
 40
0.003
 41
0.003
  0
LWPOLYLINE
  5
5E4
100
AcDbEntity
  8
0
 62
     9
100
AcDbPolyline
 90
        2
 70
     0
 39
0.003
 10
1.181646
 20
1.004272
 40
0.003
 41
0.003
 10
1.171559
 20
1.016055
 40
0.003
 41
0.003
  0
LWPOLYLINE
  5
5E5
100
AcDbEntity
  8
0
 62
     9
100
AcDbPolyline
 90
        2
 70
     0
 39
0.003
 10
1.171559
 20
1.016055
 40
0.003
 41
0.003
 10
0.515409
 20
0.632528
 40
0.003
 41
0.003
  0
LWPOLYLINE
  5
5E6
100
AcDbEntity
  8
0
 62
     9
100
AcDbPolyline
 90
        2
 70
     0
 39
0.003
 10
0.515409
 20
0.632528
 40
0.003
 41
0.003
 10
0.525496
 20
0.620744
 40
0.003
 41
0.003
  0
LWPOLYLINE
  5
5E7
100
AcDbEntity
  8
0
 62
     9
100
AcDbPolyline
 90
        2
 70
     0
 39
0.003
 10
0.515409
 20
0.632528
 40
0.003
 41
0.003
 10
1.171559
 20
1.016055
 40
0.003
 41
0.003
  0
LWPOLYLINE
  5
5E8
100
AcDbEntity
  8
0
 62
     9
100
AcDbPolyline
 90
        2
 70
     0
 39
0.003
 10
1.171559
 20
1.016055
 40
0.003
 41
0.003
 10
1.160331
 20
1.026764
 40
0.003
 41
0.003
  0
LWPOLYLINE
  5
5E9
100
AcDbEntity
  8
0
 62
     9
100
AcDbPolyline
 90
        2
 70
     0
 39
0.003
 10
1.160331
 20
1.026764
 40
0.003
 41
0.003
 10
0.504181
 20
0.643236
 40
0.003
 41
0.003
  0
LWPOLYLINE
  5
5EA
100
AcDbEntity
  8
0
 62
     9
100
AcDbPolyline
 90
        2
 70
     0
 39
0.003
 10
0.504181
 20
0.643236
 40
0.003
 41
0.003
 10
0.515409
 20
0.632528
 40
0.003
 41
0.003
  0
LWPOLYLINE
  5
5EB
100
AcDbEntity
  8
0
 62
     9
100
AcDbPolyline
 90
        2
 70
     0
 39
0.003
 10
0.504181
 20
0.643236
 40
0.003
 41
0.003
 10
1.160331
 20
1.026764
 40
0.003
 41
0.003
  0
LWPOLYLINE
  5
5EC
100
AcDbEntity
  8
0
 62
     9
100
AcDbPolyline
 90
        2
 70
     0
 39
0.003
 10
1.160331
 20
1.026764
 40
0.003
 41
0.003
 10
1.14802
 20
1.036331
 40
0.003
 41
0.003
  0
LWPOLYLINE
  5
5ED
100
AcDbEntity
  8
0
 62
     9
100
AcDbPolyline
 90
        2
 70
     0
 39
0.003
 10
1.14802
 20
1.036331
 40
0.003
 41
0.003
 10
0.49187
 20
0.652803
 40
0.003
 41
0.003
  0
LWPOLYLINE
  5
5EE
100
AcDbEntity
  8
0
 62
     9
100
AcDbPolyline
 90
        2
 70
     0
 39
0.003
 10
0.49187
 20
0.652803
 40
0.003
 41
0.003
 10
0.504181
 20
0.643236
 40
0.003
 41
0.003
  0
LWPOLYLINE
  5
5EF
100
AcDbEntity
  8
0
 62
     9
100
AcDbPolyline
 90
        2
 70
     0
 39
0.003
 10
0.49187
 20
0.652803
 40
0.003
 41
0.003
 10
1.14802
 20
1.036331
 40
0.003
 41
0.003
  0
LWPOLYLINE
  5
5F0
100
AcDbEntity
  8
0
 62
     9
100
AcDbPolyline
 90
        2
 70
     0
 39
0.003
 10
1.14802
 20
1.036331
 40
0.003
 41
0.003
 10
1.134673
 20
1.044673
 40
0.003
 41
0.003
  0
LWPOLYLINE
  5
5F1
100
AcDbEntity
  8
0
 62
     9
100
AcDbPolyline
 90
        2
 70
     0
 39
0.003
 10
1.134673
 20
1.044673
 40
0.003
 41
0.003
 10
0.478524
 20
0.661146
 40
0.003
 41
0.003
  0
LWPOLYLINE
  5
5F2
100
AcDbEntity
  8
0
 62
     9
100
AcDbPolyline
 90
        2
 70
     0
 39
0.003
 10
0.478524
 20
0.661146
 40
0.003
 41
0.003
 10
0.49187
 20
0.652803
 40
0.003
 41
0.003
  0
LWPOLYLINE
  5
5F3
100
AcDbEntity
  8
0
 62
     9
100
AcDbPolyline
 90
        2
 70
     0
 39
0.003
 10
0.478524
 20
0.661146
 40
0.003
 41
0.003
 10
1.134673
 20
1.044673
 40
0.003
 41
0.003
  0
LWPOLYLINE
  5
5F4
100
AcDbEntity
  8
0
 62
     9
100
AcDbPolyline
 90
        2
 70
     0
 39
0.003
 10
1.134673
 20
1.044673
 40
0.003
 41
0.003
 10
1.120354
 20
1.051748
 40
0.003
 41
0.003
  0
LWPOLYLINE
  5
5F5
100
AcDbEntity
  8
0
 62
     9
100
AcDbPolyline
 90
        2
 70
     0
 39
0.003
 10
1.120354
 20
1.051748
 40
0.003
 41
0.003
 10
0.464205
 20
0.66822
 40
0.003
 41
0.003
  0
LWPOLYLINE
  5
5F6
100
AcDbEntity
  8
0
 62
     9
100
AcDbPolyline
 90
        2
 70
     0
 39
0.003
 10
0.464205
 20
0.66822
 40
0.003
 41
0.003
 10
0.478524
 20
0.661146
 40
0.003
 41
0.003
  0
LWPOLYLINE
  5
5F7
100
AcDbEntity
  8
0
 62
     9
100
AcDbPolyline
 90
        2
 70
     0
 39
0.003
 10
0.464205
 20
0.66822
 40
0.003
 41
0.003
 10
1.120354
 20
1.051748
 40
0.003
 41
0.003
  0
LWPOLYLINE
  5
5F8
100
AcDbEntity
  8
0
 62
     9
100
AcDbPolyline
 90
        2
 70
     0
 39
0.003
 10
1.120354
 20
1.051748
 40
0.003
 41
0.003
 10
1.105114
 20
1.057465
 40
0.003
 41
0.003
  0
LWPOLYLINE
  5
5F9
100
AcDbEntity
  8
0
 62
     9
100
AcDbPolyline
 90
        2
 70
     0
 39
0.003
 10
1.105114
 20
1.057465
 40
0.003
 41
0.003
 10
0.448965
 20
0.673937
 40
0.003
 41
0.003
  0
LWPOLYLINE
  5
5FA
100
AcDbEntity
  8
0
 62
     9
100
AcDbPolyline
 90
        2
 70
     0
 39
0.003
 10
0.448965
 20
0.673937
 40
0.003
 41
0.003
 10
0.464205
 20
0.66822
 40
0.003
 41
0.003
  0
LWPOLYLINE
  5
5FB
100
AcDbEntity
  8
0
 62
     9
100
AcDbPolyline
 90
        2
 70
     0
 39
0.003
 10
0.448965
 20
0.673937
 40
0.003
 41
0.003
 10
1.105114
 20
1.057465
 40
0.003
 41
0.003
  0
LWPOLYLINE
  5
5FC
100
AcDbEntity
  8
0
 62
     9
100
AcDbPolyline
 90
        2
 70
     0
 39
0.003
 10
1.105114
 20
1.057465
 40
0.003
 41
0.003
 10
1.089012
 20
1.061768
 40
0.003
 41
0.003
  0
LWPOLYLINE
  5
5FD
100
AcDbEntity
  8
0
 62
     9
100
AcDbPolyline
 90
        2
 70
     0
 39
0.003
 10
1.089012
 20
1.061768
 40
0.003
 41
0.003
 10
0.432862
 20
0.67824
 40
0.003
 41
0.003
  0
LWPOLYLINE
  5
5FE
100
AcDbEntity
  8
0
 62
     9
100
AcDbPolyline
 90
        2
 70
     0
 39
0.003
 10
0.432862
 20
0.67824
 40
0.003
 41
0.003
 10
0.448965
 20
0.673937
 40
0.003
 41
0.003
  0
LWPOLYLINE
  5
5FF
100
AcDbEntity
  8
0
 62
     0
100
AcDbPolyline
 90
        2
 70
     0
 39
0.003
 10
0.315413
 20
0.210035
 40
0.003
 41
0.003
 10
0.971563
 20
0.593563
 40
0.003
 41
0.003
  0
LWPOLYLINE
  5
600
100
AcDbEntity
  8
0
 62
     0
100
AcDbPolyline
 90
        2
 70
     0
 39
0.003
 10
0.971563
 20
0.593563
 40
0.003
 41
0.003
 10
1.002972
 20
0.611213
 40
0.003
 41
0.003
  0
LWPOLYLINE
  5
601
100
AcDbEntity
  8
0
 62
     0
100
AcDbPolyline
 90
        2
 70
     0
 39
0.003
 10
1.002972
 20
0.611213
 40
0.003
 41
0.003
 10
1.031976
 20
0.629366
 40
0.003
 41
0.003
  0
LWPOLYLINE
  5
602
100
AcDbEntity
  8
0
 62
     0
100
AcDbPolyline
 90
        2
 70
     0
 39
0.003
 10
1.031976
 20
0.629366
 40
0.003
 41
0.003
 10
1.058618
 20
0.647945
 40
0.003
 41
0.003
  0
LWPOLYLINE
  5
603
100
AcDbEntity
  8
0
 62
     0
100
AcDbPolyline
 90
        2
 70
     0
 39
0.003
 10
1.058618
 20
0.647945
 40
0.003
 41
0.003
 10
1.082961
 20
0.666886
 40
0.003
 41
0.003
  0
LWPOLYLINE
  5
604
100
AcDbEntity
  8
0
 62
     0
100
AcDbPolyline
 90
        2
 70
     0
 39
0.003
 10
1.082961
 20
0.666886
 40
0.003
 41
0.003
 10
1.105055
 20
0.686118
 40
0.003
 41
0.003
  0
LWPOLYLINE
  5
605
100
AcDbEntity
  8
0
 62
     0
100
AcDbPolyline
 90
        2
 70
     0
 39
0.003
 10
1.105055
 20
0.686118
 40
0.003
 41
0.003
 10
1.124965
 20
0.705579
 40
0.003
 41
0.003
  0
LWPOLYLINE
  5
606
100
AcDbEntity
  8
0
 62
     0
100
AcDbPolyline
 90
        2
 70
     0
 39
0.003
 10
1.124965
 20
0.705579
 40
0.003
 41
0.003
 10
1.142728
 20
0.725185
 40
0.003
 41
0.003
  0
LWPOLYLINE
  5
607
100
AcDbEntity
  8
0
 62
     0
100
AcDbPolyline
 90
        2
 70
     0
 39
0.003
 10
1.142728
 20
0.725185
 40
0.003
 41
0.003
 10
1.158417
 20
0.744886
 40
0.003
 41
0.003
  0
LWPOLYLINE
  5
608
100
AcDbEntity
  8
0
 62
     0
100
AcDbPolyline
 90
        2
 70
     0
 39
0.003
 10
1.158417
 20
0.744886
 40
0.003
 41
0.003
 10
1.172079
 20
0.764598
 40
0.003
 41
0.003
  0
LWPOLYLINE
  5
609
100
AcDbEntity
  8
0
 62
     0
100
AcDbPolyline
 90
        2
 70
     0
 39
0.003
 10
1.172079
 20
0.764598
 40
0.003
 41
0.003
 10
1.183776
 20
0.784272
 40
0.003
 41
0.003
  0
LWPOLYLINE
  5
60A
100
AcDbEntity
  8
0
 62
     0
100
AcDbPolyline
 90
        2
 70
     0
 39
0.003
 10
1.183776
 20
0.784272
 40
0.003
 41
0.003
 10
1.193551
 20
0.803819
 40
0.003
 41
0.003
  0
LWPOLYLINE
  5
60B
100
AcDbEntity
  8
0
 62
     0
100
AcDbPolyline
 90
        2
 70
     0
 39
0.003
 10
1.193551
 20
0.803819
 40
0.003
 41
0.003
 10
1.201472
 20
0.823181
 40
0.003
 41
0.003
  0
LWPOLYLINE
  5
60C
100
AcDbEntity
  8
0
 62
     0
100
AcDbPolyline
 90
        2
 70
     0
 39
0.003
 10
1.201472
 20
0.823181
 40
0.003
 41
0.003
 10
1.207587
 20
0.842291
 40
0.003
 41
0.003
  0
LWPOLYLINE
  5
60D
100
AcDbEntity
  8
0
 62
     0
100
AcDbPolyline
 90
        2
 70
     0
 39
0.003
 10
1.207587
 20
0.842291
 40
0.003
 41
0.003
 10
1.211957
 20
0.861079
 40
0.003
 41
0.003
  0
LWPOLYLINE
  5
60E
100
AcDbEntity
  8
0
 62
     0
100
AcDbPolyline
 90
        2
 70
     0
 39
0.003
 10
1.211957
 20
0.861079
 40
0.003
 41
0.003
 10
1.214622
 20
0.879465
 40
0.003
 41
0.003
  0
LWPOLYLINE
  5
60F
100
AcDbEntity
  8
0
 62
     0
100
AcDbPolyline
 90
        2
 70
     0
 39
0.003
 10
1.214622
 20
0.879465
 40
0.003
 41
0.003
 10
1.215657
 20
0.897398
 40
0.003
 41
0.003
  0
LWPOLYLINE
  5
610
100
AcDbEntity
  8
0
 62
     0
100
AcDbPolyline
 90
        2
 70
     0
 39
0.003
 10
1.215657
 20
0.897398
 40
0.003
 41
0.003
 10
1.215102
 20
0.914799
 40
0.003
 41
0.003
  0
LWPOLYLINE
  5
611
100
AcDbEntity
  8
0
 62
     0
100
AcDbPolyline
 90
        2
 70
     0
 39
0.003
 10
1.215102
 20
0.914799
 40
0.003
 41
0.003
 10
1.213028
 20
0.931606
 40
0.003
 41
0.003
  0
LWPOLYLINE
  5
612
100
AcDbEntity
  8
0
 62
     0
100
AcDbPolyline
 90
        2
 70
     0
 39
0.003
 10
1.213028
 20
0.931606
 40
0.003
 41
0.003
 10
1.209472
 20
0.94774
 40
0.003
 41
0.003
  0
LWPOLYLINE
  5
613
100
AcDbEntity
  8
0
 62
     0
100
AcDbPolyline
 90
        2
 70
     0
 39
0.003
 10
1.209472
 20
0.94774
 40
0.003
 41
0.003
 10
1.204508
 20
0.963146
 40
0.003
 41
0.003
  0
LWPOLYLINE
  5
614
100
AcDbEntity
  8
0
 62
     0
100
AcDbPolyline
 90
        2
 70
     0
 39
0.003
 10
1.204508
 20
0.963146
 40
0.003
 41
0.003
 10
1.198173
 20
0.977748
 40
0.003
 41
0.003
  0
LWPOLYLINE
  5
615
100
AcDbEntity
  8
0
 62
     0
100
AcDbPolyline
 90
        2
 70
     0
 39
0.003
 10
1.198173
 20
0.977748
 40
0.003
 41
0.003
 10
1.190539
 20
0.991484
 40
0.003
 41
0.003
  0
LWPOLYLINE
  5
616
100
AcDbEntity
  8
0
 62
     0
100
AcDbPolyline
 90
        2
 70
     0
 39
0.003
 10
1.190539
 20
0.991484
 40
0.003
 41
0.003
 10
1.181646
 20
1.004272
 40
0.003
 41
0.003
  0
LWPOLYLINE
  5
617
100
AcDbEntity
  8
0
 62
     0
100
AcDbPolyline
 90
        2
 70
     0
 39
0.003
 10
1.181646
 20
1.004272
 40
0.003
 41
0.003
 10
1.171559
 20
1.016055
 40
0.003
 41
0.003
  0
LWPOLYLINE
  5
618
100
AcDbEntity
  8
0
 62
     0
100
AcDbPolyline
 90
        2
 70
     0
 39
0.003
 10
1.171559
 20
1.016055
 40
0.003
 41
0.003
 10
1.160331
 20
1.026764
 40
0.003
 41
0.003
  0
LWPOLYLINE
  5
619
100
AcDbEntity
  8
0
 62
     0
100
AcDbPolyline
 90
        2
 70
     0
 39
0.003
 10
1.160331
 20
1.026764
 40
0.003
 41
0.003
 10
1.14802
 20
1.036331
 40
0.003
 41
0.003
  0
LWPOLYLINE
  5
61A
100
AcDbEntity
  8
0
 62
     0
100
AcDbPolyline
 90
        2
 70
     0
 39
0.003
 10
1.14802
 20
1.036331
 40
0.003
 41
0.003
 10
1.134673
 20
1.044673
 40
0.003
 41
0.003
  0
LWPOLYLINE
  5
61B
100
AcDbEntity
  8
0
 62
     0
100
AcDbPolyline
 90
        2
 70
     0
 39
0.003
 10
1.134673
 20
1.044673
 40
0.003
 41
0.003
 10
1.120354
 20
1.051748
 40
0.003
 41
0.003
  0
LWPOLYLINE
  5
61C
100
AcDbEntity
  8
0
 62
     0
100
AcDbPolyline
 90
        2
 70
     0
 39
0.003
 10
1.120354
 20
1.051748
 40
0.003
 41
0.003
 10
1.105114
 20
1.057465
 40
0.003
 41
0.003
  0
LWPOLYLINE
  5
61D
100
AcDbEntity
  8
0
 62
     0
100
AcDbPolyline
 90
        2
 70
     0
 39
0.003
 10
1.105114
 20
1.057465
 40
0.003
 41
0.003
 10
1.089012
 20
1.061768
 40
0.003
 41
0.003
  0
LWPOLYLINE
  5
61E
100
AcDbEntity
  8
0
 62
     0
100
AcDbPolyline
 90
        2
 70
     0
 39
0.003
 10
1.089012
 20
1.061768
 40
0.003
 41
0.003
 10
0.432862
 20
0.67824
 40
0.003
 41
0.003
  0
LWPOLYLINE
  5
61F
100
AcDbEntity
  8
0
 62
     0
100
AcDbPolyline
 90
        2
 70
     0
 39
0.003
 10
0.432862
 20
0.67824
 40
0.003
 41
0.003
 10
0.448965
 20
0.673937
 40
0.003
 41
0.003
  0
LWPOLYLINE
  5
620
100
AcDbEntity
  8
0
 62
     0
100
AcDbPolyline
 90
        2
 70
     0
 39
0.003
 10
0.448965
 20
0.673937
 40
0.003
 41
0.003
 10
0.464205
 20
0.66822
 40
0.003
 41
0.003
  0
LWPOLYLINE
  5
621
100
AcDbEntity
  8
0
 62
     0
100
AcDbPolyline
 90
        2
 70
     0
 39
0.003
 10
0.464205
 20
0.66822
 40
0.003
 41
0.003
 10
0.478524
 20
0.661146
 40
0.003
 41
0.003
  0
LWPOLYLINE
  5
622
100
AcDbEntity
  8
0
 62
     0
100
AcDbPolyline
 90
        2
 70
     0
 39
0.003
 10
0.478524
 20
0.661146
 40
0.003
 41
0.003
 10
0.49187
 20
0.652803
 40
0.003
 41
0.003
  0
LWPOLYLINE
  5
623
100
AcDbEntity
  8
0
 62
     0
100
AcDbPolyline
 90
        2
 70
     0
 39
0.003
 10
0.49187
 20
0.652803
 40
0.003
 41
0.003
 10
0.504181
 20
0.643236
 40
0.003
 41
0.003
  0
LWPOLYLINE
  5
624
100
AcDbEntity
  8
0
 62
     0
100
AcDbPolyline
 90
        2
 70
     0
 39
0.003
 10
0.504181
 20
0.643236
 40
0.003
 41
0.003
 10
0.515409
 20
0.632528
 40
0.003
 41
0.003
  0
LWPOLYLINE
  5
625
100
AcDbEntity
  8
0
 62
     0
100
AcDbPolyline
 90
        2
 70
     0
 39
0.003
 10
0.515409
 20
0.632528
 40
0.003
 41
0.003
 10
0.525496
 20
0.620744
 40
0.003
 41
0.003
  0
LWPOLYLINE
  5
626
100
AcDbEntity
  8
0
 62
     0
100
AcDbPolyline
 90
        2
 70
     0
 39
0.003
 10
0.525496
 20
0.620744
 40
0.003
 41
0.003
 10
0.53439
 20
0.607957
 40
0.003
 41
0.003
  0
LWPOLYLINE
  5
627
100
AcDbEntity
  8
0
 62
     0
100
AcDbPolyline
 90
        2
 70
     0
 39
0.003
 10
0.53439
 20
0.607957
 40
0.003
 41
0.003
 10
0.542024
 20
0.59422
 40
0.003
 41
0.003
  0
LWPOLYLINE
  5
628
100
AcDbEntity
  8
0
 62
     0
100
AcDbPolyline
 90
        2
 70
     0
 39
0.003
 10
0.542024
 20
0.59422
 40
0.003
 41
0.003
 10
0.548358
 20
0.579618
 40
0.003
 41
0.003
  0
LWPOLYLINE
  5
629
100
AcDbEntity
  8
0
 62
     0
100
AcDbPolyline
 90
        2
 70
     0
 39
0.003
 10
0.548358
 20
0.579618
 40
0.003
 41
0.003
 10
0.553323
 20
0.564213
 40
0.003
 41
0.003
  0
LWPOLYLINE
  5
62A
100
AcDbEntity
  8
0
 62
     0
100
AcDbPolyline
 90
        2
 70
     0
 39
0.003
 10
0.553323
 20
0.564213
 40
0.003
 41
0.003
 10
0.556878
 20
0.548079
 40
0.003
 41
0.003
  0
LWPOLYLINE
  5
62B
100
AcDbEntity
  8
0
 62
     0
100
AcDbPolyline
 90
        2
 70
     0
 39
0.003
 10
0.556878
 20
0.548079
 40
0.003
 41
0.003
 10
0.558953
 20
0.531272
 40
0.003
 41
0.003
  0
LWPOLYLINE
  5
62C
100
AcDbEntity
  8
0
 62
     0
100
AcDbPolyline
 90
        2
 70
     0
 39
0.003
 10
0.558953
 20
0.531272
 40
0.003
 41
0.003
 10
0.559508
 20
0.51387
 40
0.003
 41
0.003
  0
LWPOLYLINE
  5
62D
100
AcDbEntity
  8
0
 62
     0
100
AcDbPolyline
 90
        2
 70
     0
 39
0.003
 10
0.559508
 20
0.51387
 40
0.003
 41
0.003
 10
0.558472
 20
0.495937
 40
0.003
 41
0.003
  0
LWPOLYLINE
  5
62E
100
AcDbEntity
  8
0
 62
     0
100
AcDbPolyline
 90
        2
 70
     0
 39
0.003
 10
0.558472
 20
0.495937
 40
0.003
 41
0.003
 10
0.555807
 20
0.477551
 40
0.003
 41
0.003
  0
LWPOLYLINE
  5
62F
100
AcDbEntity
  8
0
 62
     0
100
AcDbPolyline
 90
        2
 70
     0
 39
0.003
 10
0.555807
 20
0.477551
 40
0.003
 41
0.003
 10
0.551437
 20
0.458764
 40
0.003
 41
0.003
  0
LWPOLYLINE
  5
630
100
AcDbEntity
  8
0
 62
     0
100
AcDbPolyline
 90
        2
 70
     0
 39
0.003
 10
0.551437
 20
0.458764
 40
0.003
 41
0.003
 10
0.545323
 20
0.439654
 40
0.003
 41
0.003
  0
LWPOLYLINE
  5
631
100
AcDbEntity
  8
0
 62
     0
100
AcDbPolyline
 90
        2
 70
     0
 39
0.003
 10
0.545323
 20
0.439654
 40
0.003
 41
0.003
 10
0.537402
 20
0.420291
 40
0.003
 41
0.003
  0
LWPOLYLINE
  5
632
100
AcDbEntity
  8
0
 62
     0
100
AcDbPolyline
 90
        2
 70
     0
 39
0.003
 10
0.537402
 20
0.420291
 40
0.003
 41
0.003
 10
0.527626
 20
0.400744
 40
0.003
 41
0.003
  0
LWPOLYLINE
  5
633
100
AcDbEntity
  8
0
 62
     0
100
AcDbPolyline
 90
        2
 70
     0
 39
0.003
 10
0.527626
 20
0.400744
 40
0.003
 41
0.003
 10
0.515929
 20
0.381071
 40
0.003
 41
0.003
  0
LWPOLYLINE
  5
634
100
AcDbEntity
  8
0
 62
     0
100
AcDbPolyline
 90
        2
 70
     0
 39
0.003
 10
0.515929
 20
0.381071
 40
0.003
 41
0.003
 10
0.502268
 20
0.361358
 40
0.003
 41
0.003
  0
LWPOLYLINE
  5
635
100
AcDbEntity
  8
0
 62
     0
100
AcDbPolyline
 90
        2
 70
     0
 39
0.003
 10
0.502268
 20
0.361358
 40
0.003
 41
0.003
 10
0.486579
 20
0.341657
 40
0.003
 41
0.003
  0
LWPOLYLINE
  5
636
100
AcDbEntity
  8
0
 62
     0
100
AcDbPolyline
 90
        2
 70
     0
 39
0.003
 10
0.486579
 20
0.341657
 40
0.003
 41
0.003
 10
0.468815
 20
0.322051
 40
0.003
 41
0.003
  0
LWPOLYLINE
  5
637
100
AcDbEntity
  8
0
 62
     0
100
AcDbPolyline
 90
        2
 70
     0
 39
0.003
 10
0.468815
 20
0.322051
 40
0.003
 41
0.003
 10
0.448906
 20
0.302591
 40
0.003
 41
0.003
  0
LWPOLYLINE
  5
638
100
AcDbEntity
  8
0
 62
     0
100
AcDbPolyline
 90
        2
 70
     0
 39
0.003
 10
0.448906
 20
0.302591
 40
0.003
 41
0.003
 10
0.426811
 20
0.283358
 40
0.003
 41
0.003
  0
LWPOLYLINE
  5
639
100
AcDbEntity
  8
0
 62
     0
100
AcDbPolyline
 90
        2
 70
     0
 39
0.003
 10
0.426811
 20
0.283358
 40
0.003
 41
0.003
 10
0.402469
 20
0.264417
 40
0.003
 41
0.003
  0
LWPOLYLINE
  5
63A
100
AcDbEntity
  8
0
 62
     0
100
AcDbPolyline
 90
        2
 70
     0
 39
0.003
 10
0.402469
 20
0.264417
 40
0.003
 41
0.003
 10
0.375827
 20
0.245839
 40
0.003
 41
0.003
  0
LWPOLYLINE
  5
63B
100
AcDbEntity
  8
0
 62
     0
100
AcDbPolyline
 90
        2
 70
     0
 39
0.003
 10
0.375827
 20
0.245839
 40
0.003
 41
0.003
 10
0.346823
 20
0.227685
 40
0.003
 41
0.003
  0
LWPOLYLINE
  5
63C
100
AcDbEntity
  8
0
 62
     0
100
AcDbPolyline
 90
        2
 70
     0
 39
0.003
 10
0.346823
 20
0.227685
 40
0.003
 41
0.003
 10
0.315413
 20
0.210035
 40
0.003
 41
0.003
  0
LWPOLYLINE
  5
63D
100
AcDbEntity
  8
0
 62
     9
100
AcDbPolyline
 90
        2
 70
     0
 39
0.003
 10
0.432862
 20
0.67824
 40
0.003
 41
0.003
 10
1.089012
 20
1.061768
 40
0.003
 41
0.003
  0
LWPOLYLINE
  5
63E
100
AcDbEntity
  8
0
 62
     9
100
AcDbPolyline
 90
        2
 70
     0
 39
0.003
 10
1.089012
 20
1.061768
 40
0.003
 41
0.003
 10
1.089012
 20
1.124874
 40
0.003
 41
0.003
  0
LWPOLYLINE
  5
63F
100
AcDbEntity
  8
0
 62
     9
100
AcDbPolyline
 90
        2
 70
     0
 39
0.003
 10
1.089012
 20
1.124874
 40
0.003
 41
0.003
 10
0.432862
 20
0.741346
 40
0.003
 41
0.003
  0
LWPOLYLINE
  5
640
100
AcDbEntity
  8
0
 62
     9
100
AcDbPolyline
 90
        2
 70
     0
 39
0.003
 10
0.432862
 20
0.741346
 40
0.003
 41
0.003
 10
0.432862
 20
0.67824
 40
0.003
 41
0.003
  0
LWPOLYLINE
  5
641
100
AcDbEntity
  8
0
 62
     0
100
AcDbPolyline
 90
        2
 70
     0
 39
0.003
 10
0.432862
 20
0.67824
 40
0.003
 41
0.003
 10
1.089012
 20
1.061768
 40
0.003
 41
0.003
  0
LWPOLYLINE
  5
642
100
AcDbEntity
  8
0
 62
     0
100
AcDbPolyline
 90
        2
 70
     0
 39
0.003
 10
1.089012
 20
1.061768
 40
0.003
 41
0.003
 10
1.089012
 20
1.124874
 40
0.003
 41
0.003
  0
LWPOLYLINE
  5
643
100
AcDbEntity
  8
0
 62
     0
100
AcDbPolyline
 90
        2
 70
     0
 39
0.003
 10
1.089012
 20
1.124874
 40
0.003
 41
0.003
 10
0.432862
 20
0.741346
 40
0.003
 41
0.003
  0
LWPOLYLINE
  5
644
100
AcDbEntity
  8
0
 62
     0
100
AcDbPolyline
 90
        2
 70
     0
 39
0.003
 10
0.432862
 20
0.741346
 40
0.003
 41
0.003
 10
0.432862
 20
0.67824
 40
0.003
 41
0.003
  0
LWPOLYLINE
  5
645
100
AcDbEntity
  8
0
 62
     9
100
AcDbPolyline
 90
        2
 70
     0
 39
0.003
 10
0.556118
 20
0.741346
 40
0.003
 41
0.003
 10
1.212268
 20
1.124874
 40
0.003
 41
0.003
  0
LWPOLYLINE
  5
646
100
AcDbEntity
  8
0
 62
     9
100
AcDbPolyline
 90
        2
 70
     0
 39
0.003
 10
1.212268
 20
1.124874
 40
0.003
 41
0.003
 10
1.212268
 20
1.499626
 40
0.003
 41
0.003
  0
LWPOLYLINE
  5
647
100
AcDbEntity
  8
0
 62
     9
100
AcDbPolyline
 90
        2
 70
     0
 39
0.003
 10
1.212268
 20
1.499626
 40
0.003
 41
0.003
 10
0.556118
 20
1.116098
 40
0.003
 41
0.003
  0
LWPOLYLINE
  5
648
100
AcDbEntity
  8
0
 62
     9
100
AcDbPolyline
 90
        2
 70
     0
 39
0.003
 10
0.556118
 20
1.116098
 40
0.003
 41
0.003
 10
0.556118
 20
0.741346
 40
0.003
 41
0.003
  0
LWPOLYLINE
  5
649
100
AcDbEntity
  8
0
 62
     0
100
AcDbPolyline
 90
        2
 70
     0
 39
0.003
 10
0.556118
 20
0.741346
 40
0.003
 41
0.003
 10
1.212268
 20
1.124874
 40
0.003
 41
0.003
  0
LWPOLYLINE
  5
64A
100
AcDbEntity
  8
0
 62
     0
100
AcDbPolyline
 90
        2
 70
     0
 39
0.003
 10
1.212268
 20
1.124874
 40
0.003
 41
0.003
 10
1.212268
 20
1.499626
 40
0.003
 41
0.003
  0
LWPOLYLINE
  5
64B
100
AcDbEntity
  8
0
 62
     0
100
AcDbPolyline
 90
        2
 70
     0
 39
0.003
 10
1.212268
 20
1.499626
 40
0.003
 41
0.003
 10
0.556118
 20
1.116098
 40
0.003
 41
0.003
  0
LWPOLYLINE
  5
64C
100
AcDbEntity
  8
0
 62
     0
100
AcDbPolyline
 90
        2
 70
     0
 39
0.003
 10
0.556118
 20
1.116098
 40
0.003
 41
0.003
 10
0.556118
 20
0.741346
 40
0.003
 41
0.003
  0
LWPOLYLINE
  5
64D
100
AcDbEntity
  8
0
 62
   253
100
AcDbPolyline
 90
        2
 70
     0
 39
0.003
 10
0.556118
 20
1.116098
 40
0.003
 41
0.003
 10
1.212268
 20
1.499626
 40
0.003
 41
0.003
  0
LWPOLYLINE
  5
64E
100
AcDbEntity
  8
0
 62
   253
100
AcDbPolyline
 90
        2
 70
     0
 39
0.003
 10
1.212268
 20
1.499626
 40
0.003
 41
0.003
 10
-0.537732
 20
1.499626
 40
0.003
 41
0.003
  0
LWPOLYLINE
  5
64F
100
AcDbEntity
  8
0
 62
   253
100
AcDbPolyline
 90
        2
 70
     0
 39
0.003
 10
-0.537732
 20
1.499626
 40
0.003
 41
0.003
 10
-1.193882
 20
1.116098
 40
0.003
 41
0.003
  0
LWPOLYLINE
  5
650
100
AcDbEntity
  8
0
 62
   253
100
AcDbPolyline
 90
        2
 70
     0
 39
0.003
 10
-1.193882
 20
1.116098
 40
0.003
 41
0.003
 10
0.556118
 20
1.116098
 40
0.003
 41
0.003
  0
LWPOLYLINE
  5
651
100
AcDbEntity
  8
0
 62
     0
100
AcDbPolyline
 90
        2
 70
     0
 39
0.003
 10
0.556118
 20
1.116098
 40
0.003
 41
0.003
 10
1.212268
 20
1.499626
 40
0.003
 41
0.003
  0
LWPOLYLINE
  5
652
100
AcDbEntity
  8
0
 62
     0
100
AcDbPolyline
 90
        2
 70
     0
 39
0.003
 10
1.212268
 20
1.499626
 40
0.003
 41
0.003
 10
-0.537732
 20
1.499626
 40
0.003
 41
0.003
  0
LWPOLYLINE
  5
653
100
AcDbEntity
  8
0
 62
     0
100
AcDbPolyline
 90
        2
 70
     0
 39
0.003
 10
-0.537732
 20
1.499626
 40
0.003
 41
0.003
 10
-1.193882
 20
1.116098
 40
0.003
 41
0.003
  0
LWPOLYLINE
  5
654
100
AcDbEntity
  8
0
 62
     0
100
AcDbPolyline
 90
        2
 70
     0
 39
0.003
 10
-1.193882
 20
1.116098
 40
0.003
 41
0.003
 10
0.556118
 20
1.116098
 40
0.003
 41
0.003
  0
LWPOLYLINE
  5
655
100
AcDbEntity
  8
0
 62
     7
100
AcDbPolyline
 90
        2
 70
     0
 39
0.003
 10
-0.309228
 20
-3.756732
 40
0.003
 41
0.003
 10
-0.309228
 20
-2.025925
 40
0.003
 41
0.003
  0
SPLINE
  5
656
100
AcDbEntity
  8
0
 62
     7
100
AcDbSpline
210
0.0
220
0.0
230
1.0
 70
     0
 71
     3
 72
     0
 73
     0
 74
    16
 44
0.0000000001
 11
-0.3092283464566929
 21
-2.0259251968503937
 31
0.0
 11
-0.3093543307086614
 21
-1.989771653543307
 31
0.0
 11
-0.3095157480314961
 21
-1.9509842519685039
 31
0.0
 11
-0.3093543307086614
 21
-1.9101181102362206
 31
0.0
 11
-0.3085393700787402
 21
-1.867740157480315
 31
0.0
 11
-0.3067007874015748
 21
-1.8243976377952755
 31
0.0
 11
-0.3035118110236221
 21
-1.7806653543307087
 31
0.0
 11
-0.2986141732283464
 21
-1.7370944881889763
 31
0.0
 11
-0.2916732283464567
 21
-1.6942559055118109
 31
0.0
 11
-0.2823228346456693
 21
-1.6526929133858268
 31
0.0
 11
-0.2702322834645669
 21
-1.6129803149606299
 31
0.0
 11
-0.2550433070866142
 21
-1.5756732283464567
 31
0.0
 11
-0.2364251968503937
 21
-1.5413385826771653
 31
0.0
 11
-0.2140118110236221
 21
-1.510523622047244
 31
0.0
 11
-0.1874724409448819
 21
-1.4837992125984252
 31
0.0
 11
-0.1564488188976378
 21
-1.4617204724409449
 31
0.0
  0
LWPOLYLINE
  5
657
100
AcDbEntity
  8
0
 62
     7
100
AcDbPolyline
 90
        2
 70
     0
 39
0.003
 10
-0.156449
 20
-1.46172
 40
0.003
 41
0.003
 10
-0.120606
 20
-1.444858
 40
0.003
 41
0.003
  0
LWPOLYLINE
  5
658
100
AcDbEntity
  8
0
 62
     7
100
AcDbPolyline
 90
        2
 70
     0
 39
0.003
 10
-0.120606
 20
-1.444858
 40
0.003
 41
0.003
 10
-0.120606
 20
-1.319972
 40
0.003
 41
0.003
  0
SPLINE
  5
659
100
AcDbEntity
  8
0
 62
     7
100
AcDbSpline
210
0.0
220
0.0
230
1.0
 70
     0
 71
     3
 72
     0
 73
     0
 74
    16
 44
0.0000000001
 11
-0.1206062992125984
 21
-1.3199724409448819
 31
0.0
 11
-0.1016811023622047
 21
-1.3106220472440946
 31
0.0
 11
-0.0835669291338583
 21
-1.2970787401574804
 31
0.0
 11
-0.0666338582677165
 21
-1.2799488188976378
 31
0.0
 11
-0.0512716535433071
 21
-1.2598425196850394
 31
0.0
 11
-0.0378464566929134
 21
-1.2373622047244095
 31
0.0
 11
-0.026748031496063
 21
-1.2131299212598425
 31
0.0
 11
-0.0183464566929134
 21
-1.1877519685039371
 31
0.0
 11
-0.0130275590551181
 21
-1.1618346456692914
 31
0.0
 11
-0.0111614173228346
 21
-1.13598031496063
 31
0.0
 11
-0.0131338582677165
 21
-1.1108149606299214
 31
0.0
 11
-0.0193228346456693
 21
-1.0869370078740157
 31
0.0
 11
-0.0301141732283465
 21
-1.0649645669291339
 31
0.0
 11
-0.0458700787401575
 21
-1.0454960629921259
 31
0.0
 11
-0.0669842519685039
 21
-1.0291535433070866
 31
0.0
 11
-0.0938228346456693
 21
-1.0165393700787402
 31
0.0
  0
LWPOLYLINE
  5
65A
100
AcDbEntity
  8
0
 62
     7
100
AcDbPolyline
 90
        2
 70
     0
 39
0.003
 10
-0.093823
 20
-1.016539
 40
0.003
 41
0.003
 10
-0.12678
 20
-1.008272
 40
0.003
 41
0.003
  0
LWPOLYLINE
  5
65B
100
AcDbEntity
  8
0
 62
     7
100
AcDbPolyline
 90
        2
 70
     0
 39
0.003
 10
-0.12678
 20
-1.008272
 40
0.003
 41
0.003
 10
-0.12678
 20
-0.945689
 40
0.003
 41
0.003
  0
LWPOLYLINE
  5
65C
100
AcDbEntity
  8
0
 62
     7
100
AcDbPolyline
 90
        2
 70
     0
 39
0.003
 10
-0.12678
 20
-0.945689
 40
0.003
 41
0.003
 10
-0.004031
 20
-0.945689
 40
0.003
 41
0.003
  0
SPLINE
  5
65D
100
AcDbEntity
  8
0
 62
     7
100
AcDbSpline
210
0.0
220
0.0
230
1.0
 70
     0
 71
     3
 72
     0
 73
     0
 74
    16
 44
0.0000000001
 11
-0.0040314960629921
 21
-0.9456889763779528
 31
0.0
 11
-0.0046299212598425
 21
-0.8664645669291339
 31
0.0
 11
-0.006011811023622
 21
-0.7859409448818898
 31
0.0
 11
-0.0075433070866142
 21
-0.7048622047244094
 31
0.0
 11
-0.0086062992125984
 21
-0.624
 31
0.0
 11
-0.0085551181102362
 21
-0.5441062992125985
 31
0.0
 11
-0.0067716535433071
 21
-0.4659448818897638
 31
0.0
 11
-0.0026181102362205
 21
-0.3902755905511811
 31
0.0
 11
0.0045236220472441
 21
-0.3178700787401575
 31
0.0
 11
0.0152913385826772
 21
-0.2494685039370079
 31
0.0
 11
0.0303228346456693
 21
-0.1858425196850394
 31
0.0
 11
0.0502362204724409
 21
-0.127751968503937
 31
0.0
 11
0.0756692913385827
 21
-0.0759645669291339
 31
0.0
 11
0.107240157480315
 21
-0.0312283464566929
 31
0.0
 11
0.1455905511811024
 21
0.0056850393700787
 31
0.0
 11
0.1913425196850394
 21
0.0340236220472441
 31
0.0
  0
LWPOLYLINE
  5
65E
100
AcDbEntity
  8
0
 62
     7
100
AcDbPolyline
 90
        2
 70
     0
 39
0.003
 10
0.191343
 20
0.034024
 40
0.003
 41
0.003
 10
0.245134
 20
0.053031
 40
0.003
 41
0.003
  0
LWPOLYLINE
  5
65F
100
AcDbEntity
  8
0
 62
     7
100
AcDbPolyline
 90
        2
 70
     0
 39
0.003
 10
0.245134
 20
0.053031
 40
0.003
 41
0.003
 10
0.245134
 20
0.1765
 40
0.003
 41
0.003
  0
SPLINE
  5
660
100
AcDbEntity
  8
0
 62
     7
100
AcDbSpline
210
0.0
220
0.0
230
1.0
 70
     0
 71
     3
 72
     0
 73
     0
 74
    16
 44
0.0000000001
 11
0.2451338582677165
 21
0.1765
 31
0.0
 11
0.3154133858267716
 21
0.2100354330708661
 31
0.0
 11
0.3758267716535433
 21
0.2458385826771654
 31
0.0
 11
0.4268110236220473
 21
0.2833582677165354
 31
0.0
 11
0.4688149606299213
 21
0.3220511811023622
 31
0.0
 11
0.5022677165354331
 21
0.3613582677165355
 31
0.0
 11
0.5276259842519685
 21
0.400744094488189
 31
0.0
 11
0.5453228346456693
 21
0.4396535433070866
 31
0.0
 11
0.5558070866141732
 21
0.4775511811023622
 31
0.0
 11
0.5595078740157481
 21
0.5138700787401574
 31
0.0
 11
0.5568779527559055
 21
0.5480787401574803
 31
0.0
 11
0.5483582677165354
 21
0.5796181102362205
 31
0.0
 11
0.5343897637795275
 21
0.6079566929133858
 31
0.0
 11
0.5154094488188976
 21
0.6325275590551182
 31
0.0
 11
0.4918700787401575
 21
0.6528031496062993
 31
0.0
 11
0.4642047244094488
 21
0.6682204724409449
 31
0.0
  0
LWPOLYLINE
  5
661
100
AcDbEntity
  8
0
 62
     7
100
AcDbPolyline
 90
        2
 70
     0
 39
0.003
 10
0.464205
 20
0.66822
 40
0.003
 41
0.003
 10
0.432862
 20
0.67824
 40
0.003
 41
0.003
  0
LWPOLYLINE
  5
662
100
AcDbEntity
  8
0
 62
     7
100
AcDbPolyline
 90
        2
 70
     0
 39
0.003
 10
0.432862
 20
0.67824
 40
0.003
 41
0.003
 10
0.432862
 20
0.741346
 40
0.003
 41
0.003
  0
LWPOLYLINE
  5
663
100
AcDbEntity
  8
0
 62
     7
100
AcDbPolyline
 90
        2
 70
     0
 39
0.003
 10
0.432862
 20
0.741346
 40
0.003
 41
0.003
 10
0.556118
 20
0.741346
 40
0.003
 41
0.003
  0
LWPOLYLINE
  5
664
100
AcDbEntity
  8
0
 62
     7
100
AcDbPolyline
 90
        2
 70
     0
 39
0.003
 10
0.556118
 20
0.741346
 40
0.003
 41
0.003
 10
0.556118
 20
1.116098
 40
0.003
 41
0.003
  0
LWPOLYLINE
  5
665
100
AcDbEntity
  8
0
 62
     7
100
AcDbPolyline
 90
        2
 70
     0
 39
0.003
 10
0.556118
 20
1.116098
 40
0.003
 41
0.003
 10
-1.193882
 20
1.116098
 40
0.003
 41
0.003
  0
LWPOLYLINE
  5
666
100
AcDbEntity
  8
0
 62
     7
100
AcDbPolyline
 90
        2
 70
     0
 39
0.003
 10
-1.193882
 20
1.116098
 40
0.003
 41
0.003
 10
-1.193882
 20
-3.757106
 40
0.003
 41
0.003
  0
LWPOLYLINE
  5
667
100
AcDbEntity
  8
0
 62
     7
100
AcDbPolyline
 90
        2
 70
     0
 39
0.003
 10
-1.193882
 20
-3.757106
 40
0.003
 41
0.003
 10
-0.309228
 20
-3.756732
 40
0.003
 41
0.003
  0
MTEXT
  5
668
100
AcDbEntity
  8
0
 62
     0
100
AcDbMText
 10
-1.272835
 20
-3.723752
 30
0.0
 40
0.166665
 41
0.0
 71
     1
 72
     1
  1
{\fBookman Old Style|b0|i0|c0|p32;BA  1428}
 73
     1
 44
1.0
  0
MTEXT
  5
669
100
AcDbEntity
  8
0
 62
     0
100
AcDbMText
 10
-1.272835
 20
-3.911252
 30
0.0
 40
0.166665
 41
0.0
 71
     1
 72
     1
  1
{\fBookman Old Style|b0|i0|c0|p32;1-3/4" x 4-7/8"  }
 73
     1
 44
1.0
  0
ENDSEC
  0
SECTION
  2
OBJECTS
  0
DICTIONARY
  5
19
100
AcDbDictionary
280
     0
281
     1
  3
ACAD_GROUP
350
1A
  3
ACAD_MLINESTYLE
350
1B
  3
ACAD_LAYOUT
350
1E
  3
ACAD_PLOTSETTINGS
350
22
  3
ACAD_PLOTSTYLENAME
350
1F
  3
ACAD_WIPEOUT_VARS
350
23
  0
DICTIONARY
  5
1A
102
{ACAD_REACTORS
330
19
102
}
100
AcDbDictionary
280
     0
281
     1
  0
DICTIONARY
  5
1B
102
{ACAD_REACTORS
330
19
102
}
100
AcDbDictionary
280
     0
281
     1
  3
Standard
350
1C
  0
MLINESTYLE
  5
1C
102
{ACAD_REACTORS
330
1B
102
}
100
AcDbMlineStyle
  2
Standard
 70
     0
  3

 62
     0
 51
90.0
 52
90.0
 71
     2
 49
0.5
 62
   256
  6
BYLAYER
 49
-0.5
 62
   256
  6
BYLAYER
  0
ACDBDICTIONARYWDFLT
  5
1F
102
{ACAD_REACTORS
330
19
102
}
100
AcDbDictionary
281
     1
  3
Normal
350
1D
100
AcDbDictionaryWithDefault
340
1D
  0
ACDBPLACEHOLDER
  5
1D
102
{ACAD_REACTORS
330
1F
102
}
  0
LAYOUT
  5
20
102
{ACAD_REACTORS
330
1E
102
}
100
AcDbPlotSettings
  1

  2

  4

  6

 40
0.0
 41
0.0
 42
0.0
 43
0.0
 44
0.0
 45
0.0
 46
0.0
 47
0.0
 48
0.0
 49
0.0
140
0.0
141
0.0
142
1.0
143
1.0
 70
  1024
 72
     0
 73
     0
 74
     0
  7

 75
     0
147
1.0
148
0.0
149
0.0
100
AcDbLayout
  1
Model
 70
     0
 71
     0
 10
0.0
 20
0.0
 11
0.0
 21
0.0
 12
0.0
 22
0.0
 32
0.0
 14
0.0
 24
0.0
 34
0.0
 15
0.0
 25
0.0
 35
0.0
146
0.0
 13
0.0
 23
0.0
 33
0.0
 16
0.0
 26
0.0
 36
0.0
 17
0.0
 27
0.0
 37
0.0
 76
     0
330
A
331
0
345
0
346
0
  0
LAYOUT
  5
21
102
{ACAD_REACTORS
330
1E
102
}
100
AcDbPlotSettings
  1

  2

  4

  6

 40
0.0
 41
0.0
 42
0.0
 43
0.0
 44
0.0
 45
0.0
 46
0.0
 47
0.0
 48
0.0
 49
0.0
140
0.0
141
0.0
142
1.0
143
1.0
 70
     0
 72
     0
 73
     0
 74
     0
  7

 75
     0
147
1.0
148
0.0
149
0.0
100
AcDbLayout
  1
Layout1
 70
     0
 71
     0
 10
0.0
 20
0.0
 11
0.0
 21
0.0
 12
0.0
 22
0.0
 32
0.0
 14
0.0
 24
0.0
 34
0.0
 15
0.0
 25
0.0
 35
0.0
146
0.0
 13
0.0
 23
0.0
 33
0.0
 16
0.0
 26
0.0
 36
0.0
 17
0.0
 27
0.0
 37
0.0
 76
     0
330
B
331
0
345
0
346
0
  0
DICTIONARY
  5
1E
102
{ACAD_REACTORS
330
19
102
}
100
AcDbDictionary
280
     0
281
     1
  3
Layout1
350
21
  3
Model
350
20
  0
DICTIONARY
  5
22
102
{ACAD_REACTORS
330
19
102
}
100
AcDbDictionary
280
     0
281
     1
  0
WIPEOUTVARIABLES
  5
23
100
AcDbWipeoutVariables
 70
     1
  0
ENDSEC
  0
EOF
