  0
SECTION
  2
HEADER
  9
$ACADVER
  1
AC1015
  9
$ACADMAINTVER
 70
     6
  9
$DWGCODEPAGE
  3
DOS850
  9
$INSBASE
 10
0.0
 20
0.0
 30
0.0
  9
$EXTMIN
 10
1.000000E+20
 20
1.000000E+20
 30
1.000000E+20
  9
$EXTMAX
 10
-1.000000E+20
 20
-1.000000E+20
 30
-1.000000E+20
  9
$LIMMIN
 10
0.0
 20
0.0
  9
$LIMMAX
 10
0.0
 20
0.0
  9
$ORTHOMODE
 70
     0
  9
$REGENMODE
 70
     1
  9
$FILLMODE
 70
     1
  9
$QTEXTMODE
 70
     0
  9
$MIRRTEXT
 70
     1
  9
$LTSCALE
 40
1.0
  9
$ATTMODE
 70
     1
  9
$TEXTSIZE
 40
0.2
  9
$TRACEWID
 40
0.05
  9
$TEXTSTYLE
  7
Standard
  9
$CLAYER
  8
0
  9
$CELTYPE
  6
Continuous
  9
$CECOLOR
 62
   256
  9
$CELTSCALE
 40
1.0
  9
$DISPSILH
 70
     0
  9
$DIMSCALE
 40
1.0
  9
$DIMASZ
 40
0.18
  9
$DIMEXO
 40
0.0625
  9
$DIMDLI
 40
0.38
  9
$DIMRND
 40
0.0
  9
$DIMDLE
 40
0.0
  9
$DIMEXE
 40
0.18
  9
$DIMTP
 40
0.0
  9
$DIMTM
 40
0.0
  9
$DIMTXT
 40
0.18
  9
$DIMCEN
 40
0.09
  9
$DIMTSZ
 40
0.0
  9
$DIMTOL
 70
     0
  9
$DIMLIM
 70
     0
  9
$DIMTIH
 70
     1
  9
$DIMTOH
 70
     1
  9
$DIMSE1
 70
     0
  9
$DIMSE2
 70
     0
  9
$DIMTAD
 70
     0
  9
$DIMZIN
 70
     0
  9
$DIMBLK
  1

  9
$DIMASO
 70
     1
  9
$DIMSHO
 70
     1
  9
$DIMPOST
  1

  9
$DIMAPOST
  1

  9
$DIMALT
 70
     0
  9
$DIMALTD
 70
     2
  9
$DIMALTF
 40
25.4
  9
$DIMLFAC
 40
1.0
  9
$DIMTOFL
 70
     0
  9
$DIMTVP
 40
0.0
  9
$DIMTIX
 70
     0
  9
$DIMSOXD
 70
     0
  9
$DIMSAH
 70
     0
  9
$DIMBLK1
  1

  9
$DIMBLK2
  1

  9
$DIMSTYLE
  2
Standard
  9
$DIMCLRD
 70
     0
  9
$DIMCLRE
 70
     0
  9
$DIMCLRT
 70
     0
  9
$DIMTFAC
 40
1.0
  9
$DIMGAP
 40
0.09
  9
$DIMJUST
 70
     0
  9
$DIMSD1
 70
     0
  9
$DIMSD2
 70
     0
  9
$DIMTOLJ
 70
     1
  9
$DIMTZIN
 70
     0
  9
$DIMALTZ
 70
     0
  9
$DIMALTTZ
 70
     0
  9
$DIMUPT
 70
     0
  9
$DIMDEC
 70
     4
  9
$DIMTDEC
 70
     4
  9
$DIMALTU
 70
     2
  9
$DIMALTTD
 70
     2
  9
$DIMTXSTY
  7
Standard
  9
$DIMAUNIT
 70
     0
  9
$DIMADEC
 70
     0
  9
$DIMALTRND
 40
0.0
  9
$DIMAZIN
 70
     0
  9
$DIMDSEP
 70
     0
  9
$DIMATFIT
 70
     3
  9
$DIMFRAC
 70
     0
  9
$DIMLDRBLK
  1

  9
$DIMLUNIT
 70
     2
  9
$DIMLWD
 70
     0
  9
$DIMLWE
 70
     0
  9
$DIMTMOVE
 70
     0
  9
$LUNITS
 70
     2
  9
$LUPREC
 70
     4
  9
$SKETCHINC
 40
0.1
  9
$FILLETRAD
 40
0.0
  9
$AUNITS
 70
     0
  9
$AUPREC
 70
     0
  9
$MENU
  1
acad
  9
$ELEVATION
 40
0.0
  9
$PELEVATION
 40
0.0
  9
$THICKNESS
 40
0.0
  9
$LIMCHECK
 70
     0
  9
$CHAMFERA
 40
0.0
  9
$CHAMFERB
 40
0.0
  9
$CHAMFERC
 40
0.0
  9
$CHAMFERD
 40
0.0
  9
$SKPOLY
 70
     0
  9
$TDCREATE
 40
0.000000000
  9
$TDUCREATE
 40
0.000000000
  9
$TDUPDATE
 40
0.000000000
  9
$TDUUPDATE
 40
0.000000000
  9
$TDINDWG
 40
0.0000000000
  9
$TDUSRTIMER
 40
0.0000000000
  9
$USRTIMER
 70
     1
  9
$ANGBASE
 50
0.0
  9
$ANGDIR
 70
     0
  9
$PDMODE
 70
     0
  9
$PDSIZE
 40
0.0
  9
$PLINEWID
 40
0.0
  9
$SPLFRAME
 70
     0
  9
$SPLINETYPE
 70
     6
  9
$SPLINESEGS
 70
     8
  9
$HANDSEED
  5
338
  9
$SURFTAB1
 70
     6
  9
$SURFTAB2
 70
     6
  9
$SURFTYPE
 70
     6
  9
$SURFU
 70
     6
  9
$SURFV
 70
     6
  9
$UCSBASE
  2

  9
$UCSNAME
  2

  9
$UCSORG
 10
0.0
 20
0.0
 30
0.0
  9
$UCSXDIR
 10
1.0
 20
0.0
 30
0.0
  9
$UCSYDIR
 10
0.0
 20
1.0
 30
0.0
  9
$UCSORTHOREF
  2

  9
$UCSORTHOVIEW
 70
     0
  9
$UCSORGTOP
 10
0.0
 20
0.0
 30
0.0
  9
$UCSORGBOTTOM
 10
0.0
 20
0.0
 30
0.0
  9
$UCSORGLEFT
 10
0.0
 20
0.0
 30
0.0
  9
$UCSORGRIGHT
 10
0.0
 20
0.0
 30
0.0
  9
$UCSORGFRONT
 10
0.0
 20
0.0
 30
0.0
  9
$UCSORGBACK
 10
0.0
 20
0.0
 30
0.0
  9
$PUCSBASE
  2

  9
$PUCSNAME
  2

  9
$PUCSORG
 10
0.0
 20
0.0
 30
0.0
  9
$PUCSXDIR
 10
1.0
 20
0.0
 30
0.0
  9
$PUCSYDIR
 10
0.0
 20
1.0
 30
0.0
  9
$PUCSORTHOREF
  2

  9
$PUCSORTHOVIEW
 70
     0
  9
$PUCSORGTOP
 10
0.0
 20
0.0
 30
0.0
  9
$PUCSORGBOTTOM
 10
0.0
 20
0.0
 30
0.0
  9
$PUCSORGLEFT
 10
0.0
 20
0.0
 30
0.0
  9
$PUCSORGRIGHT
 10
0.0
 20
0.0
 30
0.0
  9
$PUCSORGFRONT
 10
0.0
 20
0.0
 30
0.0
  9
$PUCSORGBACK
 10
0.0
 20
0.0
 30
0.0
  9
$USERI1
 70
     0
  9
$USERI2
 70
     0
  9
$USERI3
 70
     0
  9
$USERI4
 70
     0
  9
$USERI5
 70
     0
  9
$USERR1
 40
0.0
  9
$USERR2
 40
0.0
  9
$USERR3
 40
0.0
  9
$USERR4
 40
0.0
  9
$USERR5
 40
0.0
  9
$WORLDVIEW
 70
     1
  9
$SHADEDGE
 70
     3
  9
$SHADEDIF
 70
    70
  9
$TILEMODE
 70
     1
  9
$MAXACTVP
 70
    16
  9
$PINSBASE
 10
0.0
 20
0.0
 30
0.0
  9
$PLIMCHECK
 70
     0
  9
$PEXTMIN
 10
1.000000E+20
 20
1.000000E+20
 30
1.000000E+20
  9
$PEXTMAX
 10
-1.000000E+20
 20
-1.000000E+20
 30
-1.000000E+20
  9
$PLIMMIN
 10
0.0
 20
0.0
  9
$PLIMMAX
 10
12.0
 20
9.0
  9
$UNITMODE
 70
     0
  9
$VISRETAIN
 70
     0
  9
$PLINEGEN
 70
     1
  9
$PSLTSCALE
 70
     0
  9
$TREEDEPTH
 70
  3020
  9
$CMLSTYLE
  2
Standard
  9
$CMLJUST
 70
     0
  9
$CMLSCALE
 40
1.0
  9
$PROXYGRAPHICS
 70
     0
  9
$MEASUREMENT
 70
     0
  9
$CELWEIGHT
370
     0
  9
$ENDCAPS
280
     0
  9
$JOINSTYLE
280
     0
  9
$LWDISPLAY
290
     0
  9
$INSUNITS
 70
     0
  9
$HYPERLINKBASE
  1

  9
$XEDIT
290
     1
  9
$CEPSNTYPE
380
     0
  9
$PSTYLEMODE
290
     1
  9
$FINGERPRINTGUID
  2

  9
$VERSIONGUID
  2

  9
$EXTNAMES
290
     1
  9
$PSVPSCALE
 40
0.0
  0
ENDSEC
  0
SECTION
  2
CLASSES
  0
CLASS
  1
LWPOLYLINE
  2
AcDbPolyline
  3
AutoCAD 2000
 90
        0
280
     0
281
     1
  0
CLASS
  1
IMAGE
  2
AcDbRasterImage
  3
ISM
 90
    32895
280
     0
281
     1
  0
CLASS
  1
OLE2FRAME
  2
AcDbOle2Frame
  3
AutoCAD 2000
 90
    32768
280
     0
281
     1
  0
CLASS
  1
HATCH
  2
AcDbHatch
  3
AutoCAD 2000
 90
    32768
280
     0
281
     1
  0
CLASS
  1
DICTIONARYVAR
  2
AcDbDictionaryVar
  3
AutoCAD 2000
 90
    32768
280
     0
281
     0
  0
CLASS
  1
RASTERVARIABLES
  2
AcDbRasterVariables
  3
ISM
 90
    32768
280
     0
281
     0
  0
CLASS
  1
IMAGEDEF
  2
AcDbRasterImageDef
  3
ISM
 90
    32768
280
     0
281
     0
  0
CLASS
  1
IMAGEDEF_REACTOR
  2
AcDbRasterImageDefReactor
  3
ISM
 90
    32769
280
     0
281
     0
  0
CLASS
  1
IDBUFFER
  2
AcDbIdBuffer
  3
AutoCAD 2000
 90
    32768
280
     0
281
     0
  0
CLASS
  1
SPATIAL_FILTER
  2
AcDbSpatialFilter
  3
AutoCAD 2000
 90
    32768
280
     0
281
     0
  0
CLASS
  1
XRECORD
  2
AcDbXrecord
  3
AutoCAD 2000
 90
    32768
280
     0
281
     0
  0
CLASS
  1
SORTENTSTABLE
  2
AcDbSortentsTable
  3
AutoCAD 2000
 90
    32768
280
     0
281
     0
  0
CLASS
  1
LAYER_INDEX
  2
AcDbLayerIndex
  3
AutoCAD 2000
 90
    32768
280
     0
281
     0
  0
CLASS
  1
SPATIAL_INDEX
  2
AcDbSpatialIndex
  3
AutoCAD 2000
 90
    32768
280
     0
281
     0
  0
CLASS
  1
OBJECT_PTR
  2
CAseDLPNTableRecord
  3
"ASE-LPNTableRecord"
 90
    32769
280
     0
281
     0
  0
CLASS
  1
LAYOUT
  2
AcDbLayout
  3
AutoCAD 2000
 90
        0
280
     0
281
     0
  0
CLASS
  1
PLOTSETTINGS
  2
AcDbPlotSettings
  3
AutoCAD 2000
 90
    32768
280
     0
281
     0
  0
CLASS
  1
ACDBDICTIONARYWDFLT
  2
AcDbDictionaryWithDefault
  3
AutoCAD 2000
 90
        0
280
     0
281
     0
  0
CLASS
  1
ACDBPLACEHOLDER
  2
AcDbPlaceHolder
  3
AutoCAD 2000
 90
        0
280
     0
281
     0
  0
CLASS
  1
VBA_PROJECT
  2
AcDbVbaProject
  3
acadvba
 90
    32768
280
     0
281
     0
  0
CLASS
  1
WIPEOUT
  2
AcDbWipeout
  3
WipeOut|AutoCAD Express Tool|expresstools@autodesk.com
 90
    32895
280
     0
281
     1
  0
CLASS
  1
WIPEOUTVARIABLES
  2
AcDbWipeoutVariables
  3
WipeOut|AutoCAD Express Tool|expresstools@autodesk.com
 90
        0
280
     0
281
     0
  0
CLASS
  1
RTEXT
  2
RText
  3
RText|AutoCAD Express Tool|expresstools@autodesk.com
 90
    32768
280
     0
281
     1
  0
CLASS
  1
ARCALIGNEDTEXT
  2
AcDbArcAlignedText
  3
ATEXT|AutoCAD Express Tool|expresstools@autodesk.com
 90
    32768
280
     0
281
     1
  0
ENDSEC
  0
SECTION
  2
TABLES
  0
TABLE
  2
VPORT
  5
7
100
AcDbSymbolTable
 70
     1
  0
VPORT
  5
15
100
AcDbSymbolTableRecord
100
AcDbViewportTableRecord
  2
*ACTIVE
 70
     0
 10
0.0
 20
0.0
 11
1.0
 21
1.0
 12
6.591288
 22
4.579184
 13
0.0
 23
0.0
 14
1.0
 24
1.0
 15
0.0
 25
0.0
 16
0.0
 26
0.0
 36
1.0
 17
0.0
 27
0.0
 37
0.0
 40
9.158369
 41
0.688564
 42
50.0
 43
0.0
 44
0.0
 50
0.0
 51
0.0
 71
     0
 72
   100
 73
     1
 74
     1
 75
     0
 76
     0
 77
     0
 78
     0
281
     0
 65
     0
110
0.0
120
0.0
130
0.0
111
1.0
121
0.0
131
0.0
112
0.0
122
1.0
132
0.0
345
0
346
0
 79
     0
146
0.0
  0
ENDTAB
  0
TABLE
  2
LTYPE
  5
4
100
AcDbSymbolTable
 70
     3
  0
LTYPE
  5
11
100
AcDbSymbolTableRecord
100
AcDbLinetypeTableRecord
  2
ByBlock
 70
    64
  3

 72
    65
 73
     0
 40
0.0
  0
LTYPE
  5
12
100
AcDbSymbolTableRecord
100
AcDbLinetypeTableRecord
  2
ByLayer
 70
    64
  3

 72
    65
 73
     0
 40
0.0
  0
LTYPE
  5
13
100
AcDbSymbolTableRecord
100
AcDbLinetypeTableRecord
  2
Continuous
 70
    64
  3
Solid line
 72
    65
 73
     0
 40
0.0
  0
ENDTAB
  0
TABLE
  2
LAYER
  5
2
100
AcDbSymbolTable
 70
     1
  0
LAYER
  5
14
100
AcDbSymbolTableRecord
100
AcDbLayerTableRecord
  2
0
 70
     0
 62
     7
  6
Continuous
290
     1
370
    -3
390
1D
  0
ENDTAB
  0
TABLE
  2
STYLE
  5
3
100
AcDbSymbolTable
 70
     1
  0
STYLE
  5
17
100
AcDbSymbolTableRecord
100
AcDbTextStyleTableRecord
  2
Standard
 70
     0
 40
0.0
 41
1.0
 50
0.0
 71
     0
 42
0.0
  3
txt
  4

  0
ENDTAB
  0
TABLE
  2
VIEW
  5
5
100
AcDbSymbolTable
 70
     0
  0
ENDTAB
  0
TABLE
  2
UCS
  5
6
100
AcDbSymbolTable
 70
     0
  0
ENDTAB
  0
TABLE
  2
APPID
  5
8
100
AcDbSymbolTable
 70
     1
  0
APPID
  5
16
100
AcDbSymbolTableRecord
100
AcDbRegAppTableRecord
  2
ACAD
 70
     0
  0
ENDTAB
  0
TABLE
  2
DIMSTYLE
  5
9
100
AcDbSymbolTable
 70
     1
100
AcDbDimStyleTable
 71
     0
  0
DIMSTYLE
105
18
100
AcDbSymbolTableRecord
100
AcDbDimStyleTableRecord
  2
Standard
 70
     0
  3

  4

 40
1.0
 41
0.18
 42
0.0625
 43
0.38
 44
0.18
 45
0.0
 46
0.0
 47
0.0
 48
0.0
 71
     0
 72
     0
 73
     1
 74
     1
 75
     0
 76
     0
 77
     0
 78
     0
 79
     0
140
0.18
141
0.09
142
0.0
143
25.4
144
1.0
145
0.0
146
1.0
147
0.09
148
0.0
170
     0
171
     2
172
     0
173
     0
174
     0
175
     0
176
     0
177
     0
178
     0
179
     0
271
     4
272
     4
273
     2
274
     2
275
     0
276
     0
277
     2
278
    46
279
     0
280
     0
281
     0
282
     0
283
     1
284
     0
285
     0
286
     0
288
     0
340
17
341
0
342
0
343
0
344
0
371
    -2
372
    -2
  0
ENDTAB
  0
TABLE
  2
BLOCK_RECORD
  5
1
100
AcDbSymbolTable
 70
     0
  0
BLOCK_RECORD
  5
A
100
AcDbSymbolTableRecord
100
AcDbBlockTableRecord
  2
*MODEL_SPACE
340
20
  0
BLOCK_RECORD
  5
B
100
AcDbSymbolTableRecord
100
AcDbBlockTableRecord
  2
*PAPER_SPACE
340
21
  0
ENDTAB
  0
ENDSEC
  0
SECTION
  2
BLOCKS
  0
BLOCK
  5
D
100
AcDbEntity
  8
0
100
AcDbBlockBegin
  2
*MODEL_SPACE
 70
     0
 10
0.0
 20
0.0
 30
0.0
  3
*MODEL_SPACE
  1

  0
ENDBLK
  5
E
100
AcDbEntity
  8
0
100
AcDbBlockEnd
  0
BLOCK
  5
F
100
AcDbEntity
 67
     1
  8
0
100
AcDbBlockBegin
  2
*PAPER_SPACE
 70
     0
 10
0.0
 20
0.0
 30
0.0
  3
*PAPER_SPACE
  1

  0
ENDBLK
  5
10
100
AcDbEntity
 67
     1
  8
0
100
AcDbBlockEnd
  0
ENDSEC
  0
SECTION
  2
ENTITIES
  0
SPLINE
  5
24
100
AcDbEntity
  8
0
 62
     0
100
AcDbSpline
210
0.0
220
0.0
230
1.0
 70
     0
 71
     3
 72
     0
 73
     0
 74
    32
 44
0.0000000001
 11
-0.9518070866141732
 21
1.7994409448818898
 31
0.0
 11
-0.9468700787401575
 21
1.878003937007874
 31
0.0
 11
-0.9336456692913386
 21
1.9449212598425196
 31
0.0
 11
-0.9128228346456693
 21
2.0012440944881891
 31
0.0
 11
-0.8851181102362205
 21
2.048027559055118
 31
0.0
 11
-0.8512283464566929
 21
2.0863267716535434
 31
0.0
 11
-0.8118740157480315
 21
2.1172086614173229
 31
0.0
 11
-0.767748031496063
 21
2.1417244094488188
 31
0.0
 11
-0.7195669291338582
 21
2.1609370078740158
 31
0.0
 11
-0.6680236220472441
 21
2.1758897637795274
 31
0.0
 11
-0.6138346456692914
 21
2.1876535433070865
 31
0.0
 11
-0.5577007874015748
 21
2.1972755905511812
 31
0.0
 11
-0.5003385826771654
 21
2.2058228346456694
 31
0.0
 11
-0.4424409448818898
 21
2.2143425196850393
 31
0.0
 11
-0.3847244094488189
 21
2.2239055118110236
 31
0.0
 11
-0.3278858267716536
 21
2.2355551181102364
 31
0.0
 11
-0.2726417322834646
 21
2.2503622047244094
 31
0.0
 11
-0.2313661417322835
 21
2.2676692913385827
 31
0.0
 11
-0.190748031496063
 21
2.2927834645669289
 31
0.0
 11
-0.1504212598425197
 21
2.3240748031496063
 31
0.0
 11
-0.1100511811023622
 21
2.3599251968503938
 31
0.0
 11
-0.0692677165354331
 21
2.3986929133858266
 31
0.0
 11
-0.0277322834645669
 21
2.438771653543307
 31
0.0
 11
0.0149094488188976
 21
2.4785275590551179
 31
0.0
 11
0.0590196850393701
 21
2.5163425196850393
 31
0.0
 11
0.1049370078740158
 21
2.5505748031496065
 31
0.0
 11
0.1530275590551181
 21
2.5796181102362206
 31
0.0
 11
0.2036299212598425
 21
2.6018346456692911
 31
0.0
 11
0.2571062992125984
 21
2.6156141732283467
 31
0.0
 11
0.3137952755905512
 21
2.6193149606299211
 31
0.0
 11
0.3740629921259843
 21
2.6113267716535433
 31
0.0
 11
0.438255905511811
 21
2.5900118110236221
 31
0.0
  0
LWPOLYLINE
  5
25
100
AcDbEntity
  8
0
 62
     0
100
AcDbPolyline
 90
        2
 70
     0
 39
0.003
 10
0.438256
 20
2.590012
 40
0.003
 41
0.003
 10
0.506728
 20
2.55376
 40
0.003
 41
0.003
  0
LWPOLYLINE
  5
26
100
AcDbEntity
  8
0
 62
     0
100
AcDbPolyline
 90
        2
 70
     0
 39
0.003
 10
0.506728
 20
2.55376
 40
0.003
 41
0.003
 10
0.506728
 20
2.367268
 40
0.003
 41
0.003
  0
LWPOLYLINE
  5
27
100
AcDbEntity
  8
0
 62
     0
100
AcDbPolyline
 90
        2
 70
     0
 39
0.003
 10
0.506728
 20
2.367268
 40
0.003
 41
0.003
 10
0.323
 20
2.367268
 40
0.003
 41
0.003
  0
LWPOLYLINE
  5
28
100
AcDbEntity
  8
0
 62
     0
100
AcDbPolyline
 90
        2
 70
     0
 39
0.003
 10
0.323
 20
2.367268
 40
0.003
 41
0.003
 10
0.323
 20
1.802197
 40
0.003
 41
0.003
  0
LWPOLYLINE
  5
29
100
AcDbEntity
  8
0
 62
     0
100
AcDbPolyline
 90
        2
 70
     0
 39
0.003
 10
0.323
 20
1.802197
 40
0.003
 41
0.003
 10
-0.951807
 20
1.799441
 40
0.003
 41
0.003
  0
LWPOLYLINE
  5
2A
100
AcDbEntity
  8
0
 62
   253
100
AcDbPolyline
 90
        2
 70
     0
 39
0.003
 10
-0.799531
 20
0.685858
 40
0.003
 41
0.003
 10
-0.155217
 20
1.062787
 40
0.003
 41
0.003
  0
LWPOLYLINE
  5
2B
100
AcDbEntity
  8
0
 62
   253
100
AcDbPolyline
 90
        2
 70
     0
 39
0.003
 10
-0.155217
 20
1.062787
 40
0.003
 41
0.003
 10
-0.114402
 20
1.061398
 40
0.003
 41
0.003
  0
LWPOLYLINE
  5
2C
100
AcDbEntity
  8
0
 62
   253
100
AcDbPolyline
 90
        2
 70
     0
 39
0.003
 10
-0.114402
 20
1.061398
 40
0.003
 41
0.003
 10
-0.758717
 20
0.684469
 40
0.003
 41
0.003
  0
LWPOLYLINE
  5
2D
100
AcDbEntity
  8
0
 62
   253
100
AcDbPolyline
 90
        2
 70
     0
 39
0.003
 10
-0.758717
 20
0.684469
 40
0.003
 41
0.003
 10
-0.799531
 20
0.685858
 40
0.003
 41
0.003
  0
LWPOLYLINE
  5
2E
100
AcDbEntity
  8
0
 62
   253
100
AcDbPolyline
 90
        2
 70
     0
 39
0.003
 10
-0.758717
 20
0.684469
 40
0.003
 41
0.003
 10
-0.114402
 20
1.061398
 40
0.003
 41
0.003
  0
LWPOLYLINE
  5
2F
100
AcDbEntity
  8
0
 62
   253
100
AcDbPolyline
 90
        2
 70
     0
 39
0.003
 10
-0.114402
 20
1.061398
 40
0.003
 41
0.003
 10
-0.076642
 20
1.05785
 40
0.003
 41
0.003
  0
LWPOLYLINE
  5
30
100
AcDbEntity
  8
0
 62
   253
100
AcDbPolyline
 90
        2
 70
     0
 39
0.003
 10
-0.076642
 20
1.05785
 40
0.003
 41
0.003
 10
-0.720957
 20
0.680921
 40
0.003
 41
0.003
  0
LWPOLYLINE
  5
31
100
AcDbEntity
  8
0
 62
   253
100
AcDbPolyline
 90
        2
 70
     0
 39
0.003
 10
-0.720957
 20
0.680921
 40
0.003
 41
0.003
 10
-0.758717
 20
0.684469
 40
0.003
 41
0.003
  0
LWPOLYLINE
  5
32
100
AcDbEntity
  8
0
 62
     9
100
AcDbPolyline
 90
        2
 70
     0
 39
0.003
 10
-0.720957
 20
0.680921
 40
0.003
 41
0.003
 10
-0.076642
 20
1.05785
 40
0.003
 41
0.003
  0
LWPOLYLINE
  5
33
100
AcDbEntity
  8
0
 62
     9
100
AcDbPolyline
 90
        2
 70
     0
 39
0.003
 10
-0.076642
 20
1.05785
 40
0.003
 41
0.003
 10
-0.041791
 20
1.052228
 40
0.003
 41
0.003
  0
LWPOLYLINE
  5
34
100
AcDbEntity
  8
0
 62
     9
100
AcDbPolyline
 90
        2
 70
     0
 39
0.003
 10
-0.041791
 20
1.052228
 40
0.003
 41
0.003
 10
-0.686106
 20
0.675299
 40
0.003
 41
0.003
  0
LWPOLYLINE
  5
35
100
AcDbEntity
  8
0
 62
     9
100
AcDbPolyline
 90
        2
 70
     0
 39
0.003
 10
-0.686106
 20
0.675299
 40
0.003
 41
0.003
 10
-0.720957
 20
0.680921
 40
0.003
 41
0.003
  0
LWPOLYLINE
  5
36
100
AcDbEntity
  8
0
 62
     9
100
AcDbPolyline
 90
        2
 70
     0
 39
0.003
 10
-0.686106
 20
0.675299
 40
0.003
 41
0.003
 10
-0.041791
 20
1.052228
 40
0.003
 41
0.003
  0
LWPOLYLINE
  5
37
100
AcDbEntity
  8
0
 62
     9
100
AcDbPolyline
 90
        2
 70
     0
 39
0.003
 10
-0.041791
 20
1.052228
 40
0.003
 41
0.003
 10
-0.009724
 20
1.044626
 40
0.003
 41
0.003
  0
LWPOLYLINE
  5
38
100
AcDbEntity
  8
0
 62
     9
100
AcDbPolyline
 90
        2
 70
     0
 39
0.003
 10
-0.009724
 20
1.044626
 40
0.003
 41
0.003
 10
-0.654039
 20
0.667697
 40
0.003
 41
0.003
  0
LWPOLYLINE
  5
39
100
AcDbEntity
  8
0
 62
     9
100
AcDbPolyline
 90
        2
 70
     0
 39
0.003
 10
-0.654039
 20
0.667697
 40
0.003
 41
0.003
 10
-0.686106
 20
0.675299
 40
0.003
 41
0.003
  0
LWPOLYLINE
  5
3A
100
AcDbEntity
  8
0
 62
     9
100
AcDbPolyline
 90
        2
 70
     0
 39
0.003
 10
-0.654039
 20
0.667697
 40
0.003
 41
0.003
 10
-0.009724
 20
1.044626
 40
0.003
 41
0.003
  0
LWPOLYLINE
  5
3B
100
AcDbEntity
  8
0
 62
     9
100
AcDbPolyline
 90
        2
 70
     0
 39
0.003
 10
-0.009724
 20
1.044626
 40
0.003
 41
0.003
 10
0.019701
 20
1.035114
 40
0.003
 41
0.003
  0
LWPOLYLINE
  5
3C
100
AcDbEntity
  8
0
 62
     9
100
AcDbPolyline
 90
        2
 70
     0
 39
0.003
 10
0.019701
 20
1.035114
 40
0.003
 41
0.003
 10
-0.624614
 20
0.658185
 40
0.003
 41
0.003
  0
LWPOLYLINE
  5
3D
100
AcDbEntity
  8
0
 62
     9
100
AcDbPolyline
 90
        2
 70
     0
 39
0.003
 10
-0.624614
 20
0.658185
 40
0.003
 41
0.003
 10
-0.654039
 20
0.667697
 40
0.003
 41
0.003
  0
LWPOLYLINE
  5
3E
100
AcDbEntity
  8
0
 62
     9
100
AcDbPolyline
 90
        2
 70
     0
 39
0.003
 10
-0.624614
 20
0.658185
 40
0.003
 41
0.003
 10
0.019701
 20
1.035114
 40
0.003
 41
0.003
  0
LWPOLYLINE
  5
3F
100
AcDbEntity
  8
0
 62
     9
100
AcDbPolyline
 90
        2
 70
     0
 39
0.003
 10
0.019701
 20
1.035114
 40
0.003
 41
0.003
 10
0.046602
 20
1.023803
 40
0.003
 41
0.003
  0
LWPOLYLINE
  5
40
100
AcDbEntity
  8
0
 62
     9
100
AcDbPolyline
 90
        2
 70
     0
 39
0.003
 10
0.046602
 20
1.023803
 40
0.003
 41
0.003
 10
-0.597713
 20
0.646874
 40
0.003
 41
0.003
  0
LWPOLYLINE
  5
41
100
AcDbEntity
  8
0
 62
     9
100
AcDbPolyline
 90
        2
 70
     0
 39
0.003
 10
-0.597713
 20
0.646874
 40
0.003
 41
0.003
 10
-0.624614
 20
0.658185
 40
0.003
 41
0.003
  0
LWPOLYLINE
  5
42
100
AcDbEntity
  8
0
 62
     9
100
AcDbPolyline
 90
        2
 70
     0
 39
0.003
 10
-0.597713
 20
0.646874
 40
0.003
 41
0.003
 10
0.046602
 20
1.023803
 40
0.003
 41
0.003
  0
LWPOLYLINE
  5
43
100
AcDbEntity
  8
0
 62
     9
100
AcDbPolyline
 90
        2
 70
     0
 39
0.003
 10
0.046602
 20
1.023803
 40
0.003
 41
0.003
 10
0.071122
 20
1.010764
 40
0.003
 41
0.003
  0
LWPOLYLINE
  5
44
100
AcDbEntity
  8
0
 62
     9
100
AcDbPolyline
 90
        2
 70
     0
 39
0.003
 10
0.071122
 20
1.010764
 40
0.003
 41
0.003
 10
-0.573193
 20
0.633835
 40
0.003
 41
0.003
  0
LWPOLYLINE
  5
45
100
AcDbEntity
  8
0
 62
     9
100
AcDbPolyline
 90
        2
 70
     0
 39
0.003
 10
-0.573193
 20
0.633835
 40
0.003
 41
0.003
 10
-0.597713
 20
0.646874
 40
0.003
 41
0.003
  0
LWPOLYLINE
  5
46
100
AcDbEntity
  8
0
 62
     9
100
AcDbPolyline
 90
        2
 70
     0
 39
0.003
 10
-0.573193
 20
0.633835
 40
0.003
 41
0.003
 10
0.071122
 20
1.010764
 40
0.003
 41
0.003
  0
LWPOLYLINE
  5
47
100
AcDbEntity
  8
0
 62
     9
100
AcDbPolyline
 90
        2
 70
     0
 39
0.003
 10
0.071122
 20
1.010764
 40
0.003
 41
0.003
 10
0.093382
 20
0.996098
 40
0.003
 41
0.003
  0
LWPOLYLINE
  5
48
100
AcDbEntity
  8
0
 62
     9
100
AcDbPolyline
 90
        2
 70
     0
 39
0.003
 10
0.093382
 20
0.996098
 40
0.003
 41
0.003
 10
-0.550933
 20
0.619169
 40
0.003
 41
0.003
  0
LWPOLYLINE
  5
49
100
AcDbEntity
  8
0
 62
     9
100
AcDbPolyline
 90
        2
 70
     0
 39
0.003
 10
-0.550933
 20
0.619169
 40
0.003
 41
0.003
 10
-0.573193
 20
0.633835
 40
0.003
 41
0.003
  0
LWPOLYLINE
  5
4A
100
AcDbEntity
  8
0
 62
     9
100
AcDbPolyline
 90
        2
 70
     0
 39
0.003
 10
-0.550933
 20
0.619169
 40
0.003
 41
0.003
 10
0.093382
 20
0.996098
 40
0.003
 41
0.003
  0
LWPOLYLINE
  5
4B
100
AcDbEntity
  8
0
 62
     9
100
AcDbPolyline
 90
        2
 70
     0
 39
0.003
 10
0.093382
 20
0.996098
 40
0.003
 41
0.003
 10
0.113531
 20
0.979878
 40
0.003
 41
0.003
  0
LWPOLYLINE
  5
4C
100
AcDbEntity
  8
0
 62
     9
100
AcDbPolyline
 90
        2
 70
     0
 39
0.003
 10
0.113531
 20
0.979878
 40
0.003
 41
0.003
 10
-0.530783
 20
0.602949
 40
0.003
 41
0.003
  0
LWPOLYLINE
  5
4D
100
AcDbEntity
  8
0
 62
     9
100
AcDbPolyline
 90
        2
 70
     0
 39
0.003
 10
-0.530783
 20
0.602949
 40
0.003
 41
0.003
 10
-0.550933
 20
0.619169
 40
0.003
 41
0.003
  0
LWPOLYLINE
  5
4E
100
AcDbEntity
  8
0
 62
     9
100
AcDbPolyline
 90
        2
 70
     0
 39
0.003
 10
-0.530783
 20
0.602949
 40
0.003
 41
0.003
 10
0.113531
 20
0.979878
 40
0.003
 41
0.003
  0
LWPOLYLINE
  5
4F
100
AcDbEntity
  8
0
 62
     9
100
AcDbPolyline
 90
        2
 70
     0
 39
0.003
 10
0.113531
 20
0.979878
 40
0.003
 41
0.003
 10
0.131689
 20
0.962209
 40
0.003
 41
0.003
  0
LWPOLYLINE
  5
50
100
AcDbEntity
  8
0
 62
     9
100
AcDbPolyline
 90
        2
 70
     0
 39
0.003
 10
0.131689
 20
0.962209
 40
0.003
 41
0.003
 10
-0.512626
 20
0.58528
 40
0.003
 41
0.003
  0
LWPOLYLINE
  5
51
100
AcDbEntity
  8
0
 62
     9
100
AcDbPolyline
 90
        2
 70
     0
 39
0.003
 10
-0.512626
 20
0.58528
 40
0.003
 41
0.003
 10
-0.530783
 20
0.602949
 40
0.003
 41
0.003
  0
LWPOLYLINE
  5
52
100
AcDbEntity
  8
0
 62
     9
100
AcDbPolyline
 90
        2
 70
     0
 39
0.003
 10
-0.512626
 20
0.58528
 40
0.003
 41
0.003
 10
0.131689
 20
0.962209
 40
0.003
 41
0.003
  0
LWPOLYLINE
  5
53
100
AcDbEntity
  8
0
 62
     9
100
AcDbPolyline
 90
        2
 70
     0
 39
0.003
 10
0.131689
 20
0.962209
 40
0.003
 41
0.003
 10
0.147996
 20
0.943169
 40
0.003
 41
0.003
  0
LWPOLYLINE
  5
54
100
AcDbEntity
  8
0
 62
     9
100
AcDbPolyline
 90
        2
 70
     0
 39
0.003
 10
0.147996
 20
0.943169
 40
0.003
 41
0.003
 10
-0.496319
 20
0.56624
 40
0.003
 41
0.003
  0
LWPOLYLINE
  5
55
100
AcDbEntity
  8
0
 62
     9
100
AcDbPolyline
 90
        2
 70
     0
 39
0.003
 10
-0.496319
 20
0.56624
 40
0.003
 41
0.003
 10
-0.512626
 20
0.58528
 40
0.003
 41
0.003
  0
LWPOLYLINE
  5
56
100
AcDbEntity
  8
0
 62
     9
100
AcDbPolyline
 90
        2
 70
     0
 39
0.003
 10
-0.496319
 20
0.56624
 40
0.003
 41
0.003
 10
0.147996
 20
0.943169
 40
0.003
 41
0.003
  0
LWPOLYLINE
  5
57
100
AcDbEntity
  8
0
 62
     9
100
AcDbPolyline
 90
        2
 70
     0
 39
0.003
 10
0.147996
 20
0.943169
 40
0.003
 41
0.003
 10
0.162571
 20
0.922854
 40
0.003
 41
0.003
  0
LWPOLYLINE
  5
58
100
AcDbEntity
  8
0
 62
     9
100
AcDbPolyline
 90
        2
 70
     0
 39
0.003
 10
0.162571
 20
0.922854
 40
0.003
 41
0.003
 10
-0.481744
 20
0.545925
 40
0.003
 41
0.003
  0
LWPOLYLINE
  5
59
100
AcDbEntity
  8
0
 62
     9
100
AcDbPolyline
 90
        2
 70
     0
 39
0.003
 10
-0.481744
 20
0.545925
 40
0.003
 41
0.003
 10
-0.496319
 20
0.56624
 40
0.003
 41
0.003
  0
LWPOLYLINE
  5
5A
100
AcDbEntity
  8
0
 62
     9
100
AcDbPolyline
 90
        2
 70
     0
 39
0.003
 10
-0.481744
 20
0.545925
 40
0.003
 41
0.003
 10
0.162571
 20
0.922854
 40
0.003
 41
0.003
  0
LWPOLYLINE
  5
5B
100
AcDbEntity
  8
0
 62
     9
100
AcDbPolyline
 90
        2
 70
     0
 39
0.003
 10
0.162571
 20
0.922854
 40
0.003
 41
0.003
 10
0.175559
 20
0.901343
 40
0.003
 41
0.003
  0
LWPOLYLINE
  5
5C
100
AcDbEntity
  8
0
 62
     9
100
AcDbPolyline
 90
        2
 70
     0
 39
0.003
 10
0.175559
 20
0.901343
 40
0.003
 41
0.003
 10
-0.468756
 20
0.524413
 40
0.003
 41
0.003
  0
LWPOLYLINE
  5
5D
100
AcDbEntity
  8
0
 62
     9
100
AcDbPolyline
 90
        2
 70
     0
 39
0.003
 10
-0.468756
 20
0.524413
 40
0.003
 41
0.003
 10
-0.481744
 20
0.545925
 40
0.003
 41
0.003
  0
LWPOLYLINE
  5
5E
100
AcDbEntity
  8
0
 62
     9
100
AcDbPolyline
 90
        2
 70
     0
 39
0.003
 10
-0.468756
 20
0.524413
 40
0.003
 41
0.003
 10
0.175559
 20
0.901343
 40
0.003
 41
0.003
  0
LWPOLYLINE
  5
5F
100
AcDbEntity
  8
0
 62
     9
100
AcDbPolyline
 90
        2
 70
     0
 39
0.003
 10
0.175559
 20
0.901343
 40
0.003
 41
0.003
 10
0.187087
 20
0.878728
 40
0.003
 41
0.003
  0
LWPOLYLINE
  5
60
100
AcDbEntity
  8
0
 62
     9
100
AcDbPolyline
 90
        2
 70
     0
 39
0.003
 10
0.187087
 20
0.878728
 40
0.003
 41
0.003
 10
-0.457228
 20
0.501799
 40
0.003
 41
0.003
  0
LWPOLYLINE
  5
61
100
AcDbEntity
  8
0
 62
     9
100
AcDbPolyline
 90
        2
 70
     0
 39
0.003
 10
-0.457228
 20
0.501799
 40
0.003
 41
0.003
 10
-0.468756
 20
0.524413
 40
0.003
 41
0.003
  0
LWPOLYLINE
  5
62
100
AcDbEntity
  8
0
 62
     9
100
AcDbPolyline
 90
        2
 70
     0
 39
0.003
 10
-0.457228
 20
0.501799
 40
0.003
 41
0.003
 10
0.187087
 20
0.878728
 40
0.003
 41
0.003
  0
LWPOLYLINE
  5
63
100
AcDbEntity
  8
0
 62
     9
100
AcDbPolyline
 90
        2
 70
     0
 39
0.003
 10
0.187087
 20
0.878728
 40
0.003
 41
0.003
 10
0.197287
 20
0.855098
 40
0.003
 41
0.003
  0
LWPOLYLINE
  5
64
100
AcDbEntity
  8
0
 62
     9
100
AcDbPolyline
 90
        2
 70
     0
 39
0.003
 10
0.197287
 20
0.855098
 40
0.003
 41
0.003
 10
-0.447028
 20
0.478169
 40
0.003
 41
0.003
  0
LWPOLYLINE
  5
65
100
AcDbEntity
  8
0
 62
     9
100
AcDbPolyline
 90
        2
 70
     0
 39
0.003
 10
-0.447028
 20
0.478169
 40
0.003
 41
0.003
 10
-0.457228
 20
0.501799
 40
0.003
 41
0.003
  0
LWPOLYLINE
  5
66
100
AcDbEntity
  8
0
 62
     9
100
AcDbPolyline
 90
        2
 70
     0
 39
0.003
 10
-0.447028
 20
0.478169
 40
0.003
 41
0.003
 10
0.197287
 20
0.855098
 40
0.003
 41
0.003
  0
LWPOLYLINE
  5
67
100
AcDbEntity
  8
0
 62
     9
100
AcDbPolyline
 90
        2
 70
     0
 39
0.003
 10
0.197287
 20
0.855098
 40
0.003
 41
0.003
 10
0.206287
 20
0.830547
 40
0.003
 41
0.003
  0
LWPOLYLINE
  5
68
100
AcDbEntity
  8
0
 62
     9
100
AcDbPolyline
 90
        2
 70
     0
 39
0.003
 10
0.206287
 20
0.830547
 40
0.003
 41
0.003
 10
-0.438028
 20
0.453618
 40
0.003
 41
0.003
  0
LWPOLYLINE
  5
69
100
AcDbEntity
  8
0
 62
     9
100
AcDbPolyline
 90
        2
 70
     0
 39
0.003
 10
-0.438028
 20
0.453618
 40
0.003
 41
0.003
 10
-0.447028
 20
0.478169
 40
0.003
 41
0.003
  0
LWPOLYLINE
  5
6A
100
AcDbEntity
  8
0
 62
     9
100
AcDbPolyline
 90
        2
 70
     0
 39
0.003
 10
-0.438028
 20
0.453618
 40
0.003
 41
0.003
 10
0.206287
 20
0.830547
 40
0.003
 41
0.003
  0
LWPOLYLINE
  5
6B
100
AcDbEntity
  8
0
 62
     9
100
AcDbPolyline
 90
        2
 70
     0
 39
0.003
 10
0.206287
 20
0.830547
 40
0.003
 41
0.003
 10
0.214236
 20
0.80515
 40
0.003
 41
0.003
  0
LWPOLYLINE
  5
6C
100
AcDbEntity
  8
0
 62
     9
100
AcDbPolyline
 90
        2
 70
     0
 39
0.003
 10
0.214236
 20
0.80515
 40
0.003
 41
0.003
 10
-0.430079
 20
0.42822
 40
0.003
 41
0.003
  0
LWPOLYLINE
  5
6D
100
AcDbEntity
  8
0
 62
     9
100
AcDbPolyline
 90
        2
 70
     0
 39
0.003
 10
-0.430079
 20
0.42822
 40
0.003
 41
0.003
 10
-0.438028
 20
0.453618
 40
0.003
 41
0.003
  0
LWPOLYLINE
  5
6E
100
AcDbEntity
  8
0
 62
     9
100
AcDbPolyline
 90
        2
 70
     0
 39
0.003
 10
-0.430079
 20
0.42822
 40
0.003
 41
0.003
 10
0.214236
 20
0.80515
 40
0.003
 41
0.003
  0
LWPOLYLINE
  5
6F
100
AcDbEntity
  8
0
 62
     9
100
AcDbPolyline
 90
        2
 70
     0
 39
0.003
 10
0.214236
 20
0.80515
 40
0.003
 41
0.003
 10
0.221248
 20
0.779004
 40
0.003
 41
0.003
  0
LWPOLYLINE
  5
70
100
AcDbEntity
  8
0
 62
     9
100
AcDbPolyline
 90
        2
 70
     0
 39
0.003
 10
0.221248
 20
0.779004
 40
0.003
 41
0.003
 10
-0.423067
 20
0.402075
 40
0.003
 41
0.003
  0
LWPOLYLINE
  5
71
100
AcDbEntity
  8
0
 62
     9
100
AcDbPolyline
 90
        2
 70
     0
 39
0.003
 10
-0.423067
 20
0.402075
 40
0.003
 41
0.003
 10
-0.430079
 20
0.42822
 40
0.003
 41
0.003
  0
LWPOLYLINE
  5
72
100
AcDbEntity
  8
0
 62
     9
100
AcDbPolyline
 90
        2
 70
     0
 39
0.003
 10
-0.423067
 20
0.402075
 40
0.003
 41
0.003
 10
0.221248
 20
0.779004
 40
0.003
 41
0.003
  0
LWPOLYLINE
  5
73
100
AcDbEntity
  8
0
 62
     9
100
AcDbPolyline
 90
        2
 70
     0
 39
0.003
 10
0.221248
 20
0.779004
 40
0.003
 41
0.003
 10
0.227465
 20
0.752193
 40
0.003
 41
0.003
  0
LWPOLYLINE
  5
74
100
AcDbEntity
  8
0
 62
     9
100
AcDbPolyline
 90
        2
 70
     0
 39
0.003
 10
0.227465
 20
0.752193
 40
0.003
 41
0.003
 10
-0.41685
 20
0.375264
 40
0.003
 41
0.003
  0
LWPOLYLINE
  5
75
100
AcDbEntity
  8
0
 62
     9
100
AcDbPolyline
 90
        2
 70
     0
 39
0.003
 10
-0.41685
 20
0.375264
 40
0.003
 41
0.003
 10
-0.423067
 20
0.402075
 40
0.003
 41
0.003
  0
LWPOLYLINE
  5
76
100
AcDbEntity
  8
0
 62
     9
100
AcDbPolyline
 90
        2
 70
     0
 39
0.003
 10
-0.41685
 20
0.375264
 40
0.003
 41
0.003
 10
0.227465
 20
0.752193
 40
0.003
 41
0.003
  0
LWPOLYLINE
  5
77
100
AcDbEntity
  8
0
 62
     9
100
AcDbPolyline
 90
        2
 70
     0
 39
0.003
 10
0.227465
 20
0.752193
 40
0.003
 41
0.003
 10
0.233008
 20
0.724815
 40
0.003
 41
0.003
  0
LWPOLYLINE
  5
78
100
AcDbEntity
  8
0
 62
     9
100
AcDbPolyline
 90
        2
 70
     0
 39
0.003
 10
0.233008
 20
0.724815
 40
0.003
 41
0.003
 10
-0.411307
 20
0.347886
 40
0.003
 41
0.003
  0
LWPOLYLINE
  5
79
100
AcDbEntity
  8
0
 62
     9
100
AcDbPolyline
 90
        2
 70
     0
 39
0.003
 10
-0.411307
 20
0.347886
 40
0.003
 41
0.003
 10
-0.41685
 20
0.375264
 40
0.003
 41
0.003
  0
LWPOLYLINE
  5
7A
100
AcDbEntity
  8
0
 62
     9
100
AcDbPolyline
 90
        2
 70
     0
 39
0.003
 10
-0.411307
 20
0.347886
 40
0.003
 41
0.003
 10
0.233008
 20
0.724815
 40
0.003
 41
0.003
  0
LWPOLYLINE
  5
7B
100
AcDbEntity
  8
0
 62
     9
100
AcDbPolyline
 90
        2
 70
     0
 39
0.003
 10
0.233008
 20
0.724815
 40
0.003
 41
0.003
 10
0.238028
 20
0.696945
 40
0.003
 41
0.003
  0
LWPOLYLINE
  5
7C
100
AcDbEntity
  8
0
 62
     9
100
AcDbPolyline
 90
        2
 70
     0
 39
0.003
 10
0.238028
 20
0.696945
 40
0.003
 41
0.003
 10
-0.406287
 20
0.320016
 40
0.003
 41
0.003
  0
LWPOLYLINE
  5
7D
100
AcDbEntity
  8
0
 62
     9
100
AcDbPolyline
 90
        2
 70
     0
 39
0.003
 10
-0.406287
 20
0.320016
 40
0.003
 41
0.003
 10
-0.411307
 20
0.347886
 40
0.003
 41
0.003
  0
LWPOLYLINE
  5
7E
100
AcDbEntity
  8
0
 62
     9
100
AcDbPolyline
 90
        2
 70
     0
 39
0.003
 10
-0.406287
 20
0.320016
 40
0.003
 41
0.003
 10
0.238028
 20
0.696945
 40
0.003
 41
0.003
  0
LWPOLYLINE
  5
7F
100
AcDbEntity
  8
0
 62
     9
100
AcDbPolyline
 90
        2
 70
     0
 39
0.003
 10
0.238028
 20
0.696945
 40
0.003
 41
0.003
 10
0.242638
 20
0.668681
 40
0.003
 41
0.003
  0
LWPOLYLINE
  5
80
100
AcDbEntity
  8
0
 62
     9
100
AcDbPolyline
 90
        2
 70
     0
 39
0.003
 10
0.242638
 20
0.668681
 40
0.003
 41
0.003
 10
-0.401677
 20
0.291752
 40
0.003
 41
0.003
  0
LWPOLYLINE
  5
81
100
AcDbEntity
  8
0
 62
     9
100
AcDbPolyline
 90
        2
 70
     0
 39
0.003
 10
-0.401677
 20
0.291752
 40
0.003
 41
0.003
 10
-0.406287
 20
0.320016
 40
0.003
 41
0.003
  0
LWPOLYLINE
  5
82
100
AcDbEntity
  8
0
 62
     9
100
AcDbPolyline
 90
        2
 70
     0
 39
0.003
 10
-0.401677
 20
0.291752
 40
0.003
 41
0.003
 10
0.242638
 20
0.668681
 40
0.003
 41
0.003
  0
LWPOLYLINE
  5
83
100
AcDbEntity
  8
0
 62
     9
100
AcDbPolyline
 90
        2
 70
     0
 39
0.003
 10
0.242638
 20
0.668681
 40
0.003
 41
0.003
 10
0.24698
 20
0.640106
 40
0.003
 41
0.003
  0
LWPOLYLINE
  5
84
100
AcDbEntity
  8
0
 62
     9
100
AcDbPolyline
 90
        2
 70
     0
 39
0.003
 10
0.24698
 20
0.640106
 40
0.003
 41
0.003
 10
-0.397335
 20
0.263177
 40
0.003
 41
0.003
  0
LWPOLYLINE
  5
85
100
AcDbEntity
  8
0
 62
     9
100
AcDbPolyline
 90
        2
 70
     0
 39
0.003
 10
-0.397335
 20
0.263177
 40
0.003
 41
0.003
 10
-0.401677
 20
0.291752
 40
0.003
 41
0.003
  0
LWPOLYLINE
  5
86
100
AcDbEntity
  8
0
 62
     9
100
AcDbPolyline
 90
        2
 70
     0
 39
0.003
 10
-0.397335
 20
0.263177
 40
0.003
 41
0.003
 10
0.24698
 20
0.640106
 40
0.003
 41
0.003
  0
LWPOLYLINE
  5
87
100
AcDbEntity
  8
0
 62
     9
100
AcDbPolyline
 90
        2
 70
     0
 39
0.003
 10
0.24698
 20
0.640106
 40
0.003
 41
0.003
 10
0.251177
 20
0.611319
 40
0.003
 41
0.003
  0
LWPOLYLINE
  5
88
100
AcDbEntity
  8
0
 62
     9
100
AcDbPolyline
 90
        2
 70
     0
 39
0.003
 10
0.251177
 20
0.611319
 40
0.003
 41
0.003
 10
-0.393138
 20
0.23439
 40
0.003
 41
0.003
  0
LWPOLYLINE
  5
89
100
AcDbEntity
  8
0
 62
     9
100
AcDbPolyline
 90
        2
 70
     0
 39
0.003
 10
-0.393138
 20
0.23439
 40
0.003
 41
0.003
 10
-0.397335
 20
0.263177
 40
0.003
 41
0.003
  0
LWPOLYLINE
  5
8A
100
AcDbEntity
  8
0
 62
     9
100
AcDbPolyline
 90
        2
 70
     0
 39
0.003
 10
-0.393138
 20
0.23439
 40
0.003
 41
0.003
 10
0.251177
 20
0.611319
 40
0.003
 41
0.003
  0
LWPOLYLINE
  5
8B
100
AcDbEntity
  8
0
 62
     9
100
AcDbPolyline
 90
        2
 70
     0
 39
0.003
 10
0.251177
 20
0.611319
 40
0.003
 41
0.003
 10
0.255382
 20
0.58239
 40
0.003
 41
0.003
  0
LWPOLYLINE
  5
8C
100
AcDbEntity
  8
0
 62
     9
100
AcDbPolyline
 90
        2
 70
     0
 39
0.003
 10
0.255382
 20
0.58239
 40
0.003
 41
0.003
 10
-0.388933
 20
0.205461
 40
0.003
 41
0.003
  0
LWPOLYLINE
  5
8D
100
AcDbEntity
  8
0
 62
     9
100
AcDbPolyline
 90
        2
 70
     0
 39
0.003
 10
-0.388933
 20
0.205461
 40
0.003
 41
0.003
 10
-0.393138
 20
0.23439
 40
0.003
 41
0.003
  0
LWPOLYLINE
  5
8E
100
AcDbEntity
  8
0
 62
     9
100
AcDbPolyline
 90
        2
 70
     0
 39
0.003
 10
-0.388933
 20
0.205461
 40
0.003
 41
0.003
 10
0.255382
 20
0.58239
 40
0.003
 41
0.003
  0
LWPOLYLINE
  5
8F
100
AcDbEntity
  8
0
 62
     9
100
AcDbPolyline
 90
        2
 70
     0
 39
0.003
 10
0.255382
 20
0.58239
 40
0.003
 41
0.003
 10
0.259705
 20
0.553421
 40
0.003
 41
0.003
  0
LWPOLYLINE
  5
90
100
AcDbEntity
  8
0
 62
     9
100
AcDbPolyline
 90
        2
 70
     0
 39
0.003
 10
0.259705
 20
0.553421
 40
0.003
 41
0.003
 10
-0.38461
 20
0.176492
 40
0.003
 41
0.003
  0
LWPOLYLINE
  5
91
100
AcDbEntity
  8
0
 62
     9
100
AcDbPolyline
 90
        2
 70
     0
 39
0.003
 10
-0.38461
 20
0.176492
 40
0.003
 41
0.003
 10
-0.388933
 20
0.205461
 40
0.003
 41
0.003
  0
LWPOLYLINE
  5
92
100
AcDbEntity
  8
0
 62
     9
100
AcDbPolyline
 90
        2
 70
     0
 39
0.003
 10
-0.38461
 20
0.176492
 40
0.003
 41
0.003
 10
0.259705
 20
0.553421
 40
0.003
 41
0.003
  0
LWPOLYLINE
  5
93
100
AcDbEntity
  8
0
 62
     9
100
AcDbPolyline
 90
        2
 70
     0
 39
0.003
 10
0.259705
 20
0.553421
 40
0.003
 41
0.003
 10
0.264287
 20
0.524492
 40
0.003
 41
0.003
  0
LWPOLYLINE
  5
94
100
AcDbEntity
  8
0
 62
     9
100
AcDbPolyline
 90
        2
 70
     0
 39
0.003
 10
0.264287
 20
0.524492
 40
0.003
 41
0.003
 10
-0.380028
 20
0.147563
 40
0.003
 41
0.003
  0
LWPOLYLINE
  5
95
100
AcDbEntity
  8
0
 62
     9
100
AcDbPolyline
 90
        2
 70
     0
 39
0.003
 10
-0.380028
 20
0.147563
 40
0.003
 41
0.003
 10
-0.38461
 20
0.176492
 40
0.003
 41
0.003
  0
LWPOLYLINE
  5
96
100
AcDbEntity
  8
0
 62
     9
100
AcDbPolyline
 90
        2
 70
     0
 39
0.003
 10
-0.380028
 20
0.147563
 40
0.003
 41
0.003
 10
0.264287
 20
0.524492
 40
0.003
 41
0.003
  0
LWPOLYLINE
  5
97
100
AcDbEntity
  8
0
 62
     9
100
AcDbPolyline
 90
        2
 70
     0
 39
0.003
 10
0.264287
 20
0.524492
 40
0.003
 41
0.003
 10
0.26926
 20
0.495705
 40
0.003
 41
0.003
  0
LWPOLYLINE
  5
98
100
AcDbEntity
  8
0
 62
     9
100
AcDbPolyline
 90
        2
 70
     0
 39
0.003
 10
0.26926
 20
0.495705
 40
0.003
 41
0.003
 10
-0.375055
 20
0.118776
 40
0.003
 41
0.003
  0
LWPOLYLINE
  5
99
100
AcDbEntity
  8
0
 62
     9
100
AcDbPolyline
 90
        2
 70
     0
 39
0.003
 10
-0.375055
 20
0.118776
 40
0.003
 41
0.003
 10
-0.380028
 20
0.147563
 40
0.003
 41
0.003
  0
LWPOLYLINE
  5
9A
100
AcDbEntity
  8
0
 62
     9
100
AcDbPolyline
 90
        2
 70
     0
 39
0.003
 10
-0.375055
 20
0.118776
 40
0.003
 41
0.003
 10
0.26926
 20
0.495705
 40
0.003
 41
0.003
  0
LWPOLYLINE
  5
9B
100
AcDbEntity
  8
0
 62
     9
100
AcDbPolyline
 90
        2
 70
     0
 39
0.003
 10
0.26926
 20
0.495705
 40
0.003
 41
0.003
 10
0.27476
 20
0.467126
 40
0.003
 41
0.003
  0
LWPOLYLINE
  5
9C
100
AcDbEntity
  8
0
 62
     9
100
AcDbPolyline
 90
        2
 70
     0
 39
0.003
 10
0.27476
 20
0.467126
 40
0.003
 41
0.003
 10
-0.369555
 20
0.090197
 40
0.003
 41
0.003
  0
LWPOLYLINE
  5
9D
100
AcDbEntity
  8
0
 62
     9
100
AcDbPolyline
 90
        2
 70
     0
 39
0.003
 10
-0.369555
 20
0.090197
 40
0.003
 41
0.003
 10
-0.375055
 20
0.118776
 40
0.003
 41
0.003
  0
LWPOLYLINE
  5
9E
100
AcDbEntity
  8
0
 62
     9
100
AcDbPolyline
 90
        2
 70
     0
 39
0.003
 10
-0.369555
 20
0.090197
 40
0.003
 41
0.003
 10
0.27476
 20
0.467126
 40
0.003
 41
0.003
  0
LWPOLYLINE
  5
9F
100
AcDbEntity
  8
0
 62
     9
100
AcDbPolyline
 90
        2
 70
     0
 39
0.003
 10
0.27476
 20
0.467126
 40
0.003
 41
0.003
 10
0.280909
 20
0.438866
 40
0.003
 41
0.003
  0
LWPOLYLINE
  5
A0
100
AcDbEntity
  8
0
 62
     9
100
AcDbPolyline
 90
        2
 70
     0
 39
0.003
 10
0.280909
 20
0.438866
 40
0.003
 41
0.003
 10
-0.363406
 20
0.061937
 40
0.003
 41
0.003
  0
LWPOLYLINE
  5
A1
100
AcDbEntity
  8
0
 62
     9
100
AcDbPolyline
 90
        2
 70
     0
 39
0.003
 10
-0.363406
 20
0.061937
 40
0.003
 41
0.003
 10
-0.369555
 20
0.090197
 40
0.003
 41
0.003
  0
LWPOLYLINE
  5
A2
100
AcDbEntity
  8
0
 62
     9
100
AcDbPolyline
 90
        2
 70
     0
 39
0.003
 10
-0.363406
 20
0.061937
 40
0.003
 41
0.003
 10
0.280909
 20
0.438866
 40
0.003
 41
0.003
  0
LWPOLYLINE
  5
A3
100
AcDbEntity
  8
0
 62
     9
100
AcDbPolyline
 90
        2
 70
     0
 39
0.003
 10
0.280909
 20
0.438866
 40
0.003
 41
0.003
 10
0.28785
 20
0.410996
 40
0.003
 41
0.003
  0
LWPOLYLINE
  5
A4
100
AcDbEntity
  8
0
 62
     9
100
AcDbPolyline
 90
        2
 70
     0
 39
0.003
 10
0.28785
 20
0.410996
 40
0.003
 41
0.003
 10
-0.356465
 20
0.034067
 40
0.003
 41
0.003
  0
LWPOLYLINE
  5
A5
100
AcDbEntity
  8
0
 62
     9
100
AcDbPolyline
 90
        2
 70
     0
 39
0.003
 10
-0.356465
 20
0.034067
 40
0.003
 41
0.003
 10
-0.363406
 20
0.061937
 40
0.003
 41
0.003
  0
LWPOLYLINE
  5
A6
100
AcDbEntity
  8
0
 62
     9
100
AcDbPolyline
 90
        2
 70
     0
 39
0.003
 10
-0.356465
 20
0.034067
 40
0.003
 41
0.003
 10
0.28785
 20
0.410996
 40
0.003
 41
0.003
  0
LWPOLYLINE
  5
A7
100
AcDbEntity
  8
0
 62
     9
100
AcDbPolyline
 90
        2
 70
     0
 39
0.003
 10
0.28785
 20
0.410996
 40
0.003
 41
0.003
 10
0.295705
 20
0.383622
 40
0.003
 41
0.003
  0
LWPOLYLINE
  5
A8
100
AcDbEntity
  8
0
 62
     9
100
AcDbPolyline
 90
        2
 70
     0
 39
0.003
 10
0.295705
 20
0.383622
 40
0.003
 41
0.003
 10
-0.34861
 20
0.006693
 40
0.003
 41
0.003
  0
LWPOLYLINE
  5
A9
100
AcDbEntity
  8
0
 62
     9
100
AcDbPolyline
 90
        2
 70
     0
 39
0.003
 10
-0.34861
 20
0.006693
 40
0.003
 41
0.003
 10
-0.356465
 20
0.034067
 40
0.003
 41
0.003
  0
LWPOLYLINE
  5
AA
100
AcDbEntity
  8
0
 62
     9
100
AcDbPolyline
 90
        2
 70
     0
 39
0.003
 10
-0.34861
 20
0.006693
 40
0.003
 41
0.003
 10
0.295705
 20
0.383622
 40
0.003
 41
0.003
  0
LWPOLYLINE
  5
AB
100
AcDbEntity
  8
0
 62
     9
100
AcDbPolyline
 90
        2
 70
     0
 39
0.003
 10
0.295705
 20
0.383622
 40
0.003
 41
0.003
 10
0.303287
 20
0.362878
 40
0.003
 41
0.003
  0
LWPOLYLINE
  5
AC
100
AcDbEntity
  8
0
 62
     9
100
AcDbPolyline
 90
        2
 70
     0
 39
0.003
 10
0.303287
 20
0.362878
 40
0.003
 41
0.003
 10
-0.341028
 20
-0.014051
 40
0.003
 41
0.003
  0
LWPOLYLINE
  5
AD
100
AcDbEntity
  8
0
 62
     9
100
AcDbPolyline
 90
        2
 70
     0
 39
0.003
 10
-0.341028
 20
-0.014051
 40
0.003
 41
0.003
 10
-0.34861
 20
0.006693
 40
0.003
 41
0.003
  0
LWPOLYLINE
  5
AE
100
AcDbEntity
  8
0
 62
     9
100
AcDbPolyline
 90
        2
 70
     0
 39
0.003
 10
-0.341028
 20
-0.014051
 40
0.003
 41
0.003
 10
0.303287
 20
0.362878
 40
0.003
 41
0.003
  0
LWPOLYLINE
  5
AF
100
AcDbEntity
  8
0
 62
     9
100
AcDbPolyline
 90
        2
 70
     0
 39
0.003
 10
0.303287
 20
0.362878
 40
0.003
 41
0.003
 10
0.313024
 20
0.342346
 40
0.003
 41
0.003
  0
LWPOLYLINE
  5
B0
100
AcDbEntity
  8
0
 62
     9
100
AcDbPolyline
 90
        2
 70
     0
 39
0.003
 10
0.313024
 20
0.342346
 40
0.003
 41
0.003
 10
-0.331291
 20
-0.034583
 40
0.003
 41
0.003
  0
LWPOLYLINE
  5
B1
100
AcDbEntity
  8
0
 62
     9
100
AcDbPolyline
 90
        2
 70
     0
 39
0.003
 10
-0.331291
 20
-0.034583
 40
0.003
 41
0.003
 10
-0.341028
 20
-0.014051
 40
0.003
 41
0.003
  0
LWPOLYLINE
  5
B2
100
AcDbEntity
  8
0
 62
     9
100
AcDbPolyline
 90
        2
 70
     0
 39
0.003
 10
-0.331291
 20
-0.034583
 40
0.003
 41
0.003
 10
0.313024
 20
0.342346
 40
0.003
 41
0.003
  0
LWPOLYLINE
  5
B3
100
AcDbEntity
  8
0
 62
     9
100
AcDbPolyline
 90
        2
 70
     0
 39
0.003
 10
0.313024
 20
0.342346
 40
0.003
 41
0.003
 10
0.324709
 20
0.321976
 40
0.003
 41
0.003
  0
LWPOLYLINE
  5
B4
100
AcDbEntity
  8
0
 62
     9
100
AcDbPolyline
 90
        2
 70
     0
 39
0.003
 10
0.324709
 20
0.321976
 40
0.003
 41
0.003
 10
-0.319606
 20
-0.054953
 40
0.003
 41
0.003
  0
LWPOLYLINE
  5
B5
100
AcDbEntity
  8
0
 62
     9
100
AcDbPolyline
 90
        2
 70
     0
 39
0.003
 10
-0.319606
 20
-0.054953
 40
0.003
 41
0.003
 10
-0.331291
 20
-0.034583
 40
0.003
 41
0.003
  0
LWPOLYLINE
  5
B6
100
AcDbEntity
  8
0
 62
     9
100
AcDbPolyline
 90
        2
 70
     0
 39
0.003
 10
-0.319606
 20
-0.054953
 40
0.003
 41
0.003
 10
0.324709
 20
0.321976
 40
0.003
 41
0.003
  0
LWPOLYLINE
  5
B7
100
AcDbEntity
  8
0
 62
     9
100
AcDbPolyline
 90
        2
 70
     0
 39
0.003
 10
0.324709
 20
0.321976
 40
0.003
 41
0.003
 10
0.338138
 20
0.301724
 40
0.003
 41
0.003
  0
LWPOLYLINE
  5
B8
100
AcDbEntity
  8
0
 62
     9
100
AcDbPolyline
 90
        2
 70
     0
 39
0.003
 10
0.338138
 20
0.301724
 40
0.003
 41
0.003
 10
-0.306177
 20
-0.075205
 40
0.003
 41
0.003
  0
LWPOLYLINE
  5
B9
100
AcDbEntity
  8
0
 62
     9
100
AcDbPolyline
 90
        2
 70
     0
 39
0.003
 10
-0.306177
 20
-0.075205
 40
0.003
 41
0.003
 10
-0.319606
 20
-0.054953
 40
0.003
 41
0.003
  0
LWPOLYLINE
  5
BA
100
AcDbEntity
  8
0
 62
     9
100
AcDbPolyline
 90
        2
 70
     0
 39
0.003
 10
-0.306177
 20
-0.075205
 40
0.003
 41
0.003
 10
0.338138
 20
0.301724
 40
0.003
 41
0.003
  0
LWPOLYLINE
  5
BB
100
AcDbEntity
  8
0
 62
     9
100
AcDbPolyline
 90
        2
 70
     0
 39
0.003
 10
0.338138
 20
0.301724
 40
0.003
 41
0.003
 10
0.353118
 20
0.281543
 40
0.003
 41
0.003
  0
LWPOLYLINE
  5
BC
100
AcDbEntity
  8
0
 62
     9
100
AcDbPolyline
 90
        2
 70
     0
 39
0.003
 10
0.353118
 20
0.281543
 40
0.003
 41
0.003
 10
-0.291197
 20
-0.095386
 40
0.003
 41
0.003
  0
LWPOLYLINE
  5
BD
100
AcDbEntity
  8
0
 62
     9
100
AcDbPolyline
 90
        2
 70
     0
 39
0.003
 10
-0.291197
 20
-0.095386
 40
0.003
 41
0.003
 10
-0.306177
 20
-0.075205
 40
0.003
 41
0.003
  0
LWPOLYLINE
  5
BE
100
AcDbEntity
  8
0
 62
     9
100
AcDbPolyline
 90
        2
 70
     0
 39
0.003
 10
-0.291197
 20
-0.095386
 40
0.003
 41
0.003
 10
0.353118
 20
0.281543
 40
0.003
 41
0.003
  0
LWPOLYLINE
  5
BF
100
AcDbEntity
  8
0
 62
     9
100
AcDbPolyline
 90
        2
 70
     0
 39
0.003
 10
0.353118
 20
0.281543
 40
0.003
 41
0.003
 10
0.369429
 20
0.261398
 40
0.003
 41
0.003
  0
LWPOLYLINE
  5
C0
100
AcDbEntity
  8
0
 62
     9
100
AcDbPolyline
 90
        2
 70
     0
 39
0.003
 10
0.369429
 20
0.261398
 40
0.003
 41
0.003
 10
-0.274886
 20
-0.115531
 40
0.003
 41
0.003
  0
LWPOLYLINE
  5
C1
100
AcDbEntity
  8
0
 62
     9
100
AcDbPolyline
 90
        2
 70
     0
 39
0.003
 10
-0.274886
 20
-0.115531
 40
0.003
 41
0.003
 10
-0.291197
 20
-0.095386
 40
0.003
 41
0.003
  0
LWPOLYLINE
  5
C2
100
AcDbEntity
  8
0
 62
     9
100
AcDbPolyline
 90
        2
 70
     0
 39
0.003
 10
-0.274886
 20
-0.115531
 40
0.003
 41
0.003
 10
0.369429
 20
0.261398
 40
0.003
 41
0.003
  0
LWPOLYLINE
  5
C3
100
AcDbEntity
  8
0
 62
     9
100
AcDbPolyline
 90
        2
 70
     0
 39
0.003
 10
0.369429
 20
0.261398
 40
0.003
 41
0.003
 10
0.386886
 20
0.241236
 40
0.003
 41
0.003
  0
LWPOLYLINE
  5
C4
100
AcDbEntity
  8
0
 62
     9
100
AcDbPolyline
 90
        2
 70
     0
 39
0.003
 10
0.386886
 20
0.241236
 40
0.003
 41
0.003
 10
-0.257429
 20
-0.135693
 40
0.003
 41
0.003
  0
LWPOLYLINE
  5
C5
100
AcDbEntity
  8
0
 62
     9
100
AcDbPolyline
 90
        2
 70
     0
 39
0.003
 10
-0.257429
 20
-0.135693
 40
0.003
 41
0.003
 10
-0.274886
 20
-0.115531
 40
0.003
 41
0.003
  0
LWPOLYLINE
  5
C6
100
AcDbEntity
  8
0
 62
     9
100
AcDbPolyline
 90
        2
 70
     0
 39
0.003
 10
-0.257429
 20
-0.135693
 40
0.003
 41
0.003
 10
0.386886
 20
0.241236
 40
0.003
 41
0.003
  0
LWPOLYLINE
  5
C7
100
AcDbEntity
  8
0
 62
     9
100
AcDbPolyline
 90
        2
 70
     0
 39
0.003
 10
0.386886
 20
0.241236
 40
0.003
 41
0.003
 10
0.405268
 20
0.221028
 40
0.003
 41
0.003
  0
LWPOLYLINE
  5
C8
100
AcDbEntity
  8
0
 62
     9
100
AcDbPolyline
 90
        2
 70
     0
 39
0.003
 10
0.405268
 20
0.221028
 40
0.003
 41
0.003
 10
-0.239047
 20
-0.155902
 40
0.003
 41
0.003
  0
LWPOLYLINE
  5
C9
100
AcDbEntity
  8
0
 62
     9
100
AcDbPolyline
 90
        2
 70
     0
 39
0.003
 10
-0.239047
 20
-0.155902
 40
0.003
 41
0.003
 10
-0.257429
 20
-0.135693
 40
0.003
 41
0.003
  0
LWPOLYLINE
  5
CA
100
AcDbEntity
  8
0
 62
     9
100
AcDbPolyline
 90
        2
 70
     0
 39
0.003
 10
-0.239047
 20
-0.155902
 40
0.003
 41
0.003
 10
0.405268
 20
0.221028
 40
0.003
 41
0.003
  0
LWPOLYLINE
  5
CB
100
AcDbEntity
  8
0
 62
     9
100
AcDbPolyline
 90
        2
 70
     0
 39
0.003
 10
0.405268
 20
0.221028
 40
0.003
 41
0.003
 10
0.424382
 20
0.200705
 40
0.003
 41
0.003
  0
LWPOLYLINE
  5
CC
100
AcDbEntity
  8
0
 62
     9
100
AcDbPolyline
 90
        2
 70
     0
 39
0.003
 10
0.424382
 20
0.200705
 40
0.003
 41
0.003
 10
-0.219933
 20
-0.176224
 40
0.003
 41
0.003
  0
LWPOLYLINE
  5
CD
100
AcDbEntity
  8
0
 62
     9
100
AcDbPolyline
 90
        2
 70
     0
 39
0.003
 10
-0.219933
 20
-0.176224
 40
0.003
 41
0.003
 10
-0.239047
 20
-0.155902
 40
0.003
 41
0.003
  0
LWPOLYLINE
  5
CE
100
AcDbEntity
  8
0
 62
     9
100
AcDbPolyline
 90
        2
 70
     0
 39
0.003
 10
-0.219933
 20
-0.176224
 40
0.003
 41
0.003
 10
0.424382
 20
0.200705
 40
0.003
 41
0.003
  0
LWPOLYLINE
  5
CF
100
AcDbEntity
  8
0
 62
     9
100
AcDbPolyline
 90
        2
 70
     0
 39
0.003
 10
0.424382
 20
0.200705
 40
0.003
 41
0.003
 10
0.444035
 20
0.180244
 40
0.003
 41
0.003
  0
LWPOLYLINE
  5
D0
100
AcDbEntity
  8
0
 62
     9
100
AcDbPolyline
 90
        2
 70
     0
 39
0.003
 10
0.444035
 20
0.180244
 40
0.003
 41
0.003
 10
-0.20028
 20
-0.196685
 40
0.003
 41
0.003
  0
LWPOLYLINE
  5
D1
100
AcDbEntity
  8
0
 62
     9
100
AcDbPolyline
 90
        2
 70
     0
 39
0.003
 10
-0.20028
 20
-0.196685
 40
0.003
 41
0.003
 10
-0.219933
 20
-0.176224
 40
0.003
 41
0.003
  0
LWPOLYLINE
  5
D2
100
AcDbEntity
  8
0
 62
     9
100
AcDbPolyline
 90
        2
 70
     0
 39
0.003
 10
-0.20028
 20
-0.196685
 40
0.003
 41
0.003
 10
0.444035
 20
0.180244
 40
0.003
 41
0.003
  0
LWPOLYLINE
  5
D3
100
AcDbEntity
  8
0
 62
     9
100
AcDbPolyline
 90
        2
 70
     0
 39
0.003
 10
0.444035
 20
0.180244
 40
0.003
 41
0.003
 10
0.464008
 20
0.159591
 40
0.003
 41
0.003
  0
LWPOLYLINE
  5
D4
100
AcDbEntity
  8
0
 62
     9
100
AcDbPolyline
 90
        2
 70
     0
 39
0.003
 10
0.464008
 20
0.159591
 40
0.003
 41
0.003
 10
-0.180307
 20
-0.217339
 40
0.003
 41
0.003
  0
LWPOLYLINE
  5
D5
100
AcDbEntity
  8
0
 62
     9
100
AcDbPolyline
 90
        2
 70
     0
 39
0.003
 10
-0.180307
 20
-0.217339
 40
0.003
 41
0.003
 10
-0.20028
 20
-0.196685
 40
0.003
 41
0.003
  0
LWPOLYLINE
  5
D6
100
AcDbEntity
  8
0
 62
     9
100
AcDbPolyline
 90
        2
 70
     0
 39
0.003
 10
-0.180307
 20
-0.217339
 40
0.003
 41
0.003
 10
0.464008
 20
0.159591
 40
0.003
 41
0.003
  0
LWPOLYLINE
  5
D7
100
AcDbEntity
  8
0
 62
     9
100
AcDbPolyline
 90
        2
 70
     0
 39
0.003
 10
0.464008
 20
0.159591
 40
0.003
 41
0.003
 10
0.484114
 20
0.138705
 40
0.003
 41
0.003
  0
LWPOLYLINE
  5
D8
100
AcDbEntity
  8
0
 62
     9
100
AcDbPolyline
 90
        2
 70
     0
 39
0.003
 10
0.484114
 20
0.138705
 40
0.003
 41
0.003
 10
-0.160201
 20
-0.238224
 40
0.003
 41
0.003
  0
LWPOLYLINE
  5
D9
100
AcDbEntity
  8
0
 62
     9
100
AcDbPolyline
 90
        2
 70
     0
 39
0.003
 10
-0.160201
 20
-0.238224
 40
0.003
 41
0.003
 10
-0.180307
 20
-0.217339
 40
0.003
 41
0.003
  0
LWPOLYLINE
  5
DA
100
AcDbEntity
  8
0
 62
     9
100
AcDbPolyline
 90
        2
 70
     0
 39
0.003
 10
-0.160201
 20
-0.238224
 40
0.003
 41
0.003
 10
0.484114
 20
0.138705
 40
0.003
 41
0.003
  0
LWPOLYLINE
  5
DB
100
AcDbEntity
  8
0
 62
     9
100
AcDbPolyline
 90
        2
 70
     0
 39
0.003
 10
0.484114
 20
0.138705
 40
0.003
 41
0.003
 10
0.504134
 20
0.117539
 40
0.003
 41
0.003
  0
LWPOLYLINE
  5
DC
100
AcDbEntity
  8
0
 62
     9
100
AcDbPolyline
 90
        2
 70
     0
 39
0.003
 10
0.504134
 20
0.117539
 40
0.003
 41
0.003
 10
-0.140181
 20
-0.25939
 40
0.003
 41
0.003
  0
LWPOLYLINE
  5
DD
100
AcDbEntity
  8
0
 62
     9
100
AcDbPolyline
 90
        2
 70
     0
 39
0.003
 10
-0.140181
 20
-0.25939
 40
0.003
 41
0.003
 10
-0.160201
 20
-0.238224
 40
0.003
 41
0.003
  0
LWPOLYLINE
  5
DE
100
AcDbEntity
  8
0
 62
     9
100
AcDbPolyline
 90
        2
 70
     0
 39
0.003
 10
-0.140181
 20
-0.25939
 40
0.003
 41
0.003
 10
0.504134
 20
0.117539
 40
0.003
 41
0.003
  0
LWPOLYLINE
  5
DF
100
AcDbEntity
  8
0
 62
     9
100
AcDbPolyline
 90
        2
 70
     0
 39
0.003
 10
0.504134
 20
0.117539
 40
0.003
 41
0.003
 10
0.52387
 20
0.096055
 40
0.003
 41
0.003
  0
LWPOLYLINE
  5
E0
100
AcDbEntity
  8
0
 62
     9
100
AcDbPolyline
 90
        2
 70
     0
 39
0.003
 10
0.52387
 20
0.096055
 40
0.003
 41
0.003
 10
-0.120445
 20
-0.280874
 40
0.003
 41
0.003
  0
LWPOLYLINE
  5
E1
100
AcDbEntity
  8
0
 62
     9
100
AcDbPolyline
 90
        2
 70
     0
 39
0.003
 10
-0.120445
 20
-0.280874
 40
0.003
 41
0.003
 10
-0.140181
 20
-0.25939
 40
0.003
 41
0.003
  0
LWPOLYLINE
  5
E2
100
AcDbEntity
  8
0
 62
     9
100
AcDbPolyline
 90
        2
 70
     0
 39
0.003
 10
-0.120445
 20
-0.280874
 40
0.003
 41
0.003
 10
0.52387
 20
0.096055
 40
0.003
 41
0.003
  0
LWPOLYLINE
  5
E3
100
AcDbEntity
  8
0
 62
     9
100
AcDbPolyline
 90
        2
 70
     0
 39
0.003
 10
0.52387
 20
0.096055
 40
0.003
 41
0.003
 10
0.543118
 20
0.074205
 40
0.003
 41
0.003
  0
LWPOLYLINE
  5
E4
100
AcDbEntity
  8
0
 62
     9
100
AcDbPolyline
 90
        2
 70
     0
 39
0.003
 10
0.543118
 20
0.074205
 40
0.003
 41
0.003
 10
-0.101197
 20
-0.302724
 40
0.003
 41
0.003
  0
LWPOLYLINE
  5
E5
100
AcDbEntity
  8
0
 62
     9
100
AcDbPolyline
 90
        2
 70
     0
 39
0.003
 10
-0.101197
 20
-0.302724
 40
0.003
 41
0.003
 10
-0.120445
 20
-0.280874
 40
0.003
 41
0.003
  0
LWPOLYLINE
  5
E6
100
AcDbEntity
  8
0
 62
     9
100
AcDbPolyline
 90
        2
 70
     0
 39
0.003
 10
-0.101197
 20
-0.302724
 40
0.003
 41
0.003
 10
0.543118
 20
0.074205
 40
0.003
 41
0.003
  0
LWPOLYLINE
  5
E7
100
AcDbEntity
  8
0
 62
     9
100
AcDbPolyline
 90
        2
 70
     0
 39
0.003
 10
0.543118
 20
0.074205
 40
0.003
 41
0.003
 10
0.561685
 20
0.051953
 40
0.003
 41
0.003
  0
LWPOLYLINE
  5
E8
100
AcDbEntity
  8
0
 62
     9
100
AcDbPolyline
 90
        2
 70
     0
 39
0.003
 10
0.561685
 20
0.051953
 40
0.003
 41
0.003
 10
-0.08263
 20
-0.324976
 40
0.003
 41
0.003
  0
LWPOLYLINE
  5
E9
100
AcDbEntity
  8
0
 62
     9
100
AcDbPolyline
 90
        2
 70
     0
 39
0.003
 10
-0.08263
 20
-0.324976
 40
0.003
 41
0.003
 10
-0.101197
 20
-0.302724
 40
0.003
 41
0.003
  0
LWPOLYLINE
  5
EA
100
AcDbEntity
  8
0
 62
     9
100
AcDbPolyline
 90
        2
 70
     0
 39
0.003
 10
-0.08263
 20
-0.324976
 40
0.003
 41
0.003
 10
0.561685
 20
0.051953
 40
0.003
 41
0.003
  0
LWPOLYLINE
  5
EB
100
AcDbEntity
  8
0
 62
     9
100
AcDbPolyline
 90
        2
 70
     0
 39
0.003
 10
0.561685
 20
0.051953
 40
0.003
 41
0.003
 10
0.579346
 20
0.029232
 40
0.003
 41
0.003
  0
LWPOLYLINE
  5
EC
100
AcDbEntity
  8
0
 62
     9
100
AcDbPolyline
 90
        2
 70
     0
 39
0.003
 10
0.579346
 20
0.029232
 40
0.003
 41
0.003
 10
-0.064969
 20
-0.347697
 40
0.003
 41
0.003
  0
LWPOLYLINE
  5
ED
100
AcDbEntity
  8
0
 62
     9
100
AcDbPolyline
 90
        2
 70
     0
 39
0.003
 10
-0.064969
 20
-0.347697
 40
0.003
 41
0.003
 10
-0.08263
 20
-0.324976
 40
0.003
 41
0.003
  0
LWPOLYLINE
  5
EE
100
AcDbEntity
  8
0
 62
     9
100
AcDbPolyline
 90
        2
 70
     0
 39
0.003
 10
-0.064969
 20
-0.347697
 40
0.003
 41
0.003
 10
0.579346
 20
0.029232
 40
0.003
 41
0.003
  0
LWPOLYLINE
  5
EF
100
AcDbEntity
  8
0
 62
     9
100
AcDbPolyline
 90
        2
 70
     0
 39
0.003
 10
0.579346
 20
0.029232
 40
0.003
 41
0.003
 10
0.595917
 20
0.006028
 40
0.003
 41
0.003
  0
LWPOLYLINE
  5
F0
100
AcDbEntity
  8
0
 62
     9
100
AcDbPolyline
 90
        2
 70
     0
 39
0.003
 10
0.595917
 20
0.006028
 40
0.003
 41
0.003
 10
-0.048398
 20
-0.370902
 40
0.003
 41
0.003
  0
LWPOLYLINE
  5
F1
100
AcDbEntity
  8
0
 62
     9
100
AcDbPolyline
 90
        2
 70
     0
 39
0.003
 10
-0.048398
 20
-0.370902
 40
0.003
 41
0.003
 10
-0.064969
 20
-0.347697
 40
0.003
 41
0.003
  0
LWPOLYLINE
  5
F2
100
AcDbEntity
  8
0
 62
     9
100
AcDbPolyline
 90
        2
 70
     0
 39
0.003
 10
-0.048398
 20
-0.370902
 40
0.003
 41
0.003
 10
0.595917
 20
0.006028
 40
0.003
 41
0.003
  0
LWPOLYLINE
  5
F3
100
AcDbEntity
  8
0
 62
     9
100
AcDbPolyline
 90
        2
 70
     0
 39
0.003
 10
0.595917
 20
0.006028
 40
0.003
 41
0.003
 10
0.611189
 20
-0.017724
 40
0.003
 41
0.003
  0
LWPOLYLINE
  5
F4
100
AcDbEntity
  8
0
 62
     9
100
AcDbPolyline
 90
        2
 70
     0
 39
0.003
 10
0.611189
 20
-0.017724
 40
0.003
 41
0.003
 10
-0.033126
 20
-0.394654
 40
0.003
 41
0.003
  0
LWPOLYLINE
  5
F5
100
AcDbEntity
  8
0
 62
     9
100
AcDbPolyline
 90
        2
 70
     0
 39
0.003
 10
-0.033126
 20
-0.394654
 40
0.003
 41
0.003
 10
-0.048398
 20
-0.370902
 40
0.003
 41
0.003
  0
LWPOLYLINE
  5
F6
100
AcDbEntity
  8
0
 62
     9
100
AcDbPolyline
 90
        2
 70
     0
 39
0.003
 10
-0.033126
 20
-0.394654
 40
0.003
 41
0.003
 10
0.611189
 20
-0.017724
 40
0.003
 41
0.003
  0
LWPOLYLINE
  5
F7
100
AcDbEntity
  8
0
 62
     9
100
AcDbPolyline
 90
        2
 70
     0
 39
0.003
 10
0.611189
 20
-0.017724
 40
0.003
 41
0.003
 10
0.624961
 20
-0.042059
 40
0.003
 41
0.003
  0
LWPOLYLINE
  5
F8
100
AcDbEntity
  8
0
 62
     9
100
AcDbPolyline
 90
        2
 70
     0
 39
0.003
 10
0.624961
 20
-0.042059
 40
0.003
 41
0.003
 10
-0.019354
 20
-0.418988
 40
0.003
 41
0.003
  0
LWPOLYLINE
  5
F9
100
AcDbEntity
  8
0
 62
     9
100
AcDbPolyline
 90
        2
 70
     0
 39
0.003
 10
-0.019354
 20
-0.418988
 40
0.003
 41
0.003
 10
-0.033126
 20
-0.394654
 40
0.003
 41
0.003
  0
LWPOLYLINE
  5
FA
100
AcDbEntity
  8
0
 62
     9
100
AcDbPolyline
 90
        2
 70
     0
 39
0.003
 10
-0.019354
 20
-0.418988
 40
0.003
 41
0.003
 10
0.624961
 20
-0.042059
 40
0.003
 41
0.003
  0
LWPOLYLINE
  5
FB
100
AcDbEntity
  8
0
 62
     9
100
AcDbPolyline
 90
        2
 70
     0
 39
0.003
 10
0.624961
 20
-0.042059
 40
0.003
 41
0.003
 10
0.63702
 20
-0.067028
 40
0.003
 41
0.003
  0
LWPOLYLINE
  5
FC
100
AcDbEntity
  8
0
 62
     9
100
AcDbPolyline
 90
        2
 70
     0
 39
0.003
 10
0.63702
 20
-0.067028
 40
0.003
 41
0.003
 10
-0.007295
 20
-0.443957
 40
0.003
 41
0.003
  0
LWPOLYLINE
  5
FD
100
AcDbEntity
  8
0
 62
     9
100
AcDbPolyline
 90
        2
 70
     0
 39
0.003
 10
-0.007295
 20
-0.443957
 40
0.003
 41
0.003
 10
-0.019354
 20
-0.418988
 40
0.003
 41
0.003
  0
LWPOLYLINE
  5
FE
100
AcDbEntity
  8
0
 62
     9
100
AcDbPolyline
 90
        2
 70
     0
 39
0.003
 10
-0.007295
 20
-0.443957
 40
0.003
 41
0.003
 10
0.63702
 20
-0.067028
 40
0.003
 41
0.003
  0
LWPOLYLINE
  5
FF
100
AcDbEntity
  8
0
 62
     9
100
AcDbPolyline
 90
        2
 70
     0
 39
0.003
 10
0.63702
 20
-0.067028
 40
0.003
 41
0.003
 10
0.647177
 20
-0.092665
 40
0.003
 41
0.003
  0
LWPOLYLINE
  5
100
100
AcDbEntity
  8
0
 62
     9
100
AcDbPolyline
 90
        2
 70
     0
 39
0.003
 10
0.647177
 20
-0.092665
 40
0.003
 41
0.003
 10
0.002862
 20
-0.469594
 40
0.003
 41
0.003
  0
LWPOLYLINE
  5
101
100
AcDbEntity
  8
0
 62
     9
100
AcDbPolyline
 90
        2
 70
     0
 39
0.003
 10
0.002862
 20
-0.469594
 40
0.003
 41
0.003
 10
-0.007295
 20
-0.443957
 40
0.003
 41
0.003
  0
LWPOLYLINE
  5
102
100
AcDbEntity
  8
0
 62
     9
100
AcDbPolyline
 90
        2
 70
     0
 39
0.003
 10
0.002862
 20
-0.469594
 40
0.003
 41
0.003
 10
0.647177
 20
-0.092665
 40
0.003
 41
0.003
  0
LWPOLYLINE
  5
103
100
AcDbEntity
  8
0
 62
     9
100
AcDbPolyline
 90
        2
 70
     0
 39
0.003
 10
0.647177
 20
-0.092665
 40
0.003
 41
0.003
 10
0.65522
 20
-0.119024
 40
0.003
 41
0.003
  0
LWPOLYLINE
  5
104
100
AcDbEntity
  8
0
 62
     9
100
AcDbPolyline
 90
        2
 70
     0
 39
0.003
 10
0.65522
 20
-0.119024
 40
0.003
 41
0.003
 10
0.010906
 20
-0.495953
 40
0.003
 41
0.003
  0
LWPOLYLINE
  5
105
100
AcDbEntity
  8
0
 62
     9
100
AcDbPolyline
 90
        2
 70
     0
 39
0.003
 10
0.010906
 20
-0.495953
 40
0.003
 41
0.003
 10
0.002862
 20
-0.469594
 40
0.003
 41
0.003
  0
LWPOLYLINE
  5
106
100
AcDbEntity
  8
0
 62
     9
100
AcDbPolyline
 90
        2
 70
     0
 39
0.003
 10
0.010906
 20
-0.495953
 40
0.003
 41
0.003
 10
0.65522
 20
-0.119024
 40
0.003
 41
0.003
  0
LWPOLYLINE
  5
107
100
AcDbEntity
  8
0
 62
     9
100
AcDbPolyline
 90
        2
 70
     0
 39
0.003
 10
0.65522
 20
-0.119024
 40
0.003
 41
0.003
 10
0.660957
 20
-0.146134
 40
0.003
 41
0.003
  0
LWPOLYLINE
  5
108
100
AcDbEntity
  8
0
 62
     9
100
AcDbPolyline
 90
        2
 70
     0
 39
0.003
 10
0.660957
 20
-0.146134
 40
0.003
 41
0.003
 10
0.016642
 20
-0.523063
 40
0.003
 41
0.003
  0
LWPOLYLINE
  5
109
100
AcDbEntity
  8
0
 62
     9
100
AcDbPolyline
 90
        2
 70
     0
 39
0.003
 10
0.016642
 20
-0.523063
 40
0.003
 41
0.003
 10
0.010906
 20
-0.495953
 40
0.003
 41
0.003
  0
LWPOLYLINE
  5
10A
100
AcDbEntity
  8
0
 62
     9
100
AcDbPolyline
 90
        2
 70
     0
 39
0.003
 10
0.016642
 20
-0.523063
 40
0.003
 41
0.003
 10
0.660957
 20
-0.146134
 40
0.003
 41
0.003
  0
LWPOLYLINE
  5
10B
100
AcDbEntity
  8
0
 62
     9
100
AcDbPolyline
 90
        2
 70
     0
 39
0.003
 10
0.660957
 20
-0.146134
 40
0.003
 41
0.003
 10
0.664165
 20
-0.174063
 40
0.003
 41
0.003
  0
LWPOLYLINE
  5
10C
100
AcDbEntity
  8
0
 62
     9
100
AcDbPolyline
 90
        2
 70
     0
 39
0.003
 10
0.664165
 20
-0.174063
 40
0.003
 41
0.003
 10
0.01985
 20
-0.550992
 40
0.003
 41
0.003
  0
LWPOLYLINE
  5
10D
100
AcDbEntity
  8
0
 62
     9
100
AcDbPolyline
 90
        2
 70
     0
 39
0.003
 10
0.01985
 20
-0.550992
 40
0.003
 41
0.003
 10
0.016642
 20
-0.523063
 40
0.003
 41
0.003
  0
LWPOLYLINE
  5
10E
100
AcDbEntity
  8
0
 62
     9
100
AcDbPolyline
 90
        2
 70
     0
 39
0.003
 10
0.01985
 20
-0.550992
 40
0.003
 41
0.003
 10
0.664165
 20
-0.174063
 40
0.003
 41
0.003
  0
LWPOLYLINE
  5
10F
100
AcDbEntity
  8
0
 62
     9
100
AcDbPolyline
 90
        2
 70
     0
 39
0.003
 10
0.664165
 20
-0.174063
 40
0.003
 41
0.003
 10
0.664657
 20
-0.202835
 40
0.003
 41
0.003
  0
LWPOLYLINE
  5
110
100
AcDbEntity
  8
0
 62
     9
100
AcDbPolyline
 90
        2
 70
     0
 39
0.003
 10
0.664657
 20
-0.202835
 40
0.003
 41
0.003
 10
0.020343
 20
-0.579764
 40
0.003
 41
0.003
  0
LWPOLYLINE
  5
111
100
AcDbEntity
  8
0
 62
     9
100
AcDbPolyline
 90
        2
 70
     0
 39
0.003
 10
0.020343
 20
-0.579764
 40
0.003
 41
0.003
 10
0.01985
 20
-0.550992
 40
0.003
 41
0.003
  0
LWPOLYLINE
  5
112
100
AcDbEntity
  8
0
 62
     9
100
AcDbPolyline
 90
        2
 70
     0
 39
0.003
 10
0.020343
 20
-0.579764
 40
0.003
 41
0.003
 10
0.664657
 20
-0.202835
 40
0.003
 41
0.003
  0
LWPOLYLINE
  5
113
100
AcDbEntity
  8
0
 62
     9
100
AcDbPolyline
 90
        2
 70
     0
 39
0.003
 10
0.664657
 20
-0.202835
 40
0.003
 41
0.003
 10
0.662224
 20
-0.2325
 40
0.003
 41
0.003
  0
LWPOLYLINE
  5
114
100
AcDbEntity
  8
0
 62
     9
100
AcDbPolyline
 90
        2
 70
     0
 39
0.003
 10
0.662224
 20
-0.2325
 40
0.003
 41
0.003
 10
0.017909
 20
-0.609429
 40
0.003
 41
0.003
  0
LWPOLYLINE
  5
115
100
AcDbEntity
  8
0
 62
     9
100
AcDbPolyline
 90
        2
 70
     0
 39
0.003
 10
0.017909
 20
-0.609429
 40
0.003
 41
0.003
 10
0.020343
 20
-0.579764
 40
0.003
 41
0.003
  0
LWPOLYLINE
  5
116
100
AcDbEntity
  8
0
 62
   253
100
AcDbPolyline
 90
        2
 70
     0
 39
0.003
 10
0.017909
 20
-0.609429
 40
0.003
 41
0.003
 10
0.662224
 20
-0.2325
 40
0.003
 41
0.003
  0
LWPOLYLINE
  5
117
100
AcDbEntity
  8
0
 62
   253
100
AcDbPolyline
 90
        2
 70
     0
 39
0.003
 10
0.662224
 20
-0.2325
 40
0.003
 41
0.003
 10
0.656669
 20
-0.263094
 40
0.003
 41
0.003
  0
LWPOLYLINE
  5
118
100
AcDbEntity
  8
0
 62
   253
100
AcDbPolyline
 90
        2
 70
     0
 39
0.003
 10
0.656669
 20
-0.263094
 40
0.003
 41
0.003
 10
0.012354
 20
-0.640024
 40
0.003
 41
0.003
  0
LWPOLYLINE
  5
119
100
AcDbEntity
  8
0
 62
   253
100
AcDbPolyline
 90
        2
 70
     0
 39
0.003
 10
0.012354
 20
-0.640024
 40
0.003
 41
0.003
 10
0.017909
 20
-0.609429
 40
0.003
 41
0.003
  0
LWPOLYLINE
  5
11A
100
AcDbEntity
  8
0
 62
   253
100
AcDbPolyline
 90
        2
 70
     0
 39
0.003
 10
0.012354
 20
-0.640024
 40
0.003
 41
0.003
 10
0.656669
 20
-0.263094
 40
0.003
 41
0.003
  0
LWPOLYLINE
  5
11B
100
AcDbEntity
  8
0
 62
   253
100
AcDbPolyline
 90
        2
 70
     0
 39
0.003
 10
0.656669
 20
-0.263094
 40
0.003
 41
0.003
 10
0.647776
 20
-0.294681
 40
0.003
 41
0.003
  0
LWPOLYLINE
  5
11C
100
AcDbEntity
  8
0
 62
   253
100
AcDbPolyline
 90
        2
 70
     0
 39
0.003
 10
0.647776
 20
-0.294681
 40
0.003
 41
0.003
 10
0.003461
 20
-0.67161
 40
0.003
 41
0.003
  0
LWPOLYLINE
  5
11D
100
AcDbEntity
  8
0
 62
   253
100
AcDbPolyline
 90
        2
 70
     0
 39
0.003
 10
0.003461
 20
-0.67161
 40
0.003
 41
0.003
 10
0.012354
 20
-0.640024
 40
0.003
 41
0.003
  0
LWPOLYLINE
  5
11E
100
AcDbEntity
  8
0
 62
   253
100
AcDbPolyline
 90
        2
 70
     0
 39
0.003
 10
0.003461
 20
-0.67161
 40
0.003
 41
0.003
 10
0.647776
 20
-0.294681
 40
0.003
 41
0.003
  0
LWPOLYLINE
  5
11F
100
AcDbEntity
  8
0
 62
   253
100
AcDbPolyline
 90
        2
 70
     0
 39
0.003
 10
0.647776
 20
-0.294681
 40
0.003
 41
0.003
 10
0.635354
 20
-0.327287
 40
0.003
 41
0.003
  0
LWPOLYLINE
  5
120
100
AcDbEntity
  8
0
 62
   253
100
AcDbPolyline
 90
        2
 70
     0
 39
0.003
 10
0.635354
 20
-0.327287
 40
0.003
 41
0.003
 10
-0.008961
 20
-0.704217
 40
0.003
 41
0.003
  0
LWPOLYLINE
  5
121
100
AcDbEntity
  8
0
 62
   253
100
AcDbPolyline
 90
        2
 70
     0
 39
0.003
 10
-0.008961
 20
-0.704217
 40
0.003
 41
0.003
 10
0.003461
 20
-0.67161
 40
0.003
 41
0.003
  0
LWPOLYLINE
  5
122
100
AcDbEntity
  8
0
 62
   252
100
AcDbPolyline
 90
        2
 70
     0
 39
0.003
 10
-0.008961
 20
-0.704217
 40
0.003
 41
0.003
 10
0.635354
 20
-0.327287
 40
0.003
 41
0.003
  0
LWPOLYLINE
  5
123
100
AcDbEntity
  8
0
 62
   252
100
AcDbPolyline
 90
        2
 70
     0
 39
0.003
 10
0.635354
 20
-0.327287
 40
0.003
 41
0.003
 10
0.619197
 20
-0.360965
 40
0.003
 41
0.003
  0
LWPOLYLINE
  5
124
100
AcDbEntity
  8
0
 62
   252
100
AcDbPolyline
 90
        2
 70
     0
 39
0.003
 10
0.619197
 20
-0.360965
 40
0.003
 41
0.003
 10
-0.025118
 20
-0.737894
 40
0.003
 41
0.003
  0
LWPOLYLINE
  5
125
100
AcDbEntity
  8
0
 62
   252
100
AcDbPolyline
 90
        2
 70
     0
 39
0.003
 10
-0.025118
 20
-0.737894
 40
0.003
 41
0.003
 10
-0.008961
 20
-0.704217
 40
0.003
 41
0.003
  0
LWPOLYLINE
  5
126
100
AcDbEntity
  8
0
 62
     8
100
AcDbPolyline
 90
        2
 70
     0
 39
0.003
 10
-0.025118
 20
-0.737894
 40
0.003
 41
0.003
 10
0.619197
 20
-0.360965
 40
0.003
 41
0.003
  0
LWPOLYLINE
  5
127
100
AcDbEntity
  8
0
 62
     8
100
AcDbPolyline
 90
        2
 70
     0
 39
0.003
 10
0.619197
 20
-0.360965
 40
0.003
 41
0.003
 10
0.599102
 20
-0.395748
 40
0.003
 41
0.003
  0
LWPOLYLINE
  5
128
100
AcDbEntity
  8
0
 62
     8
100
AcDbPolyline
 90
        2
 70
     0
 39
0.003
 10
0.599102
 20
-0.395748
 40
0.003
 41
0.003
 10
-0.045213
 20
-0.772677
 40
0.003
 41
0.003
  0
LWPOLYLINE
  5
129
100
AcDbEntity
  8
0
 62
     8
100
AcDbPolyline
 90
        2
 70
     0
 39
0.003
 10
-0.045213
 20
-0.772677
 40
0.003
 41
0.003
 10
-0.025118
 20
-0.737894
 40
0.003
 41
0.003
  0
LWPOLYLINE
  5
12A
100
AcDbEntity
  8
0
 62
     0
100
AcDbPolyline
 90
        2
 70
     0
 39
0.003
 10
-0.799531
 20
0.685858
 40
0.003
 41
0.003
 10
-0.155217
 20
1.062787
 40
0.003
 41
0.003
  0
LWPOLYLINE
  5
12B
100
AcDbEntity
  8
0
 62
     0
100
AcDbPolyline
 90
        2
 70
     0
 39
0.003
 10
-0.155217
 20
1.062787
 40
0.003
 41
0.003
 10
-0.114402
 20
1.061398
 40
0.003
 41
0.003
  0
LWPOLYLINE
  5
12C
100
AcDbEntity
  8
0
 62
     0
100
AcDbPolyline
 90
        2
 70
     0
 39
0.003
 10
-0.114402
 20
1.061398
 40
0.003
 41
0.003
 10
-0.076642
 20
1.05785
 40
0.003
 41
0.003
  0
LWPOLYLINE
  5
12D
100
AcDbEntity
  8
0
 62
     0
100
AcDbPolyline
 90
        2
 70
     0
 39
0.003
 10
-0.076642
 20
1.05785
 40
0.003
 41
0.003
 10
-0.041791
 20
1.052228
 40
0.003
 41
0.003
  0
LWPOLYLINE
  5
12E
100
AcDbEntity
  8
0
 62
     0
100
AcDbPolyline
 90
        2
 70
     0
 39
0.003
 10
-0.041791
 20
1.052228
 40
0.003
 41
0.003
 10
-0.009724
 20
1.044626
 40
0.003
 41
0.003
  0
LWPOLYLINE
  5
12F
100
AcDbEntity
  8
0
 62
     0
100
AcDbPolyline
 90
        2
 70
     0
 39
0.003
 10
-0.009724
 20
1.044626
 40
0.003
 41
0.003
 10
0.019701
 20
1.035114
 40
0.003
 41
0.003
  0
LWPOLYLINE
  5
130
100
AcDbEntity
  8
0
 62
     0
100
AcDbPolyline
 90
        2
 70
     0
 39
0.003
 10
0.019701
 20
1.035114
 40
0.003
 41
0.003
 10
0.046602
 20
1.023803
 40
0.003
 41
0.003
  0
LWPOLYLINE
  5
131
100
AcDbEntity
  8
0
 62
     0
100
AcDbPolyline
 90
        2
 70
     0
 39
0.003
 10
0.046602
 20
1.023803
 40
0.003
 41
0.003
 10
0.071122
 20
1.010764
 40
0.003
 41
0.003
  0
LWPOLYLINE
  5
132
100
AcDbEntity
  8
0
 62
     0
100
AcDbPolyline
 90
        2
 70
     0
 39
0.003
 10
0.071122
 20
1.010764
 40
0.003
 41
0.003
 10
0.093382
 20
0.996098
 40
0.003
 41
0.003
  0
LWPOLYLINE
  5
133
100
AcDbEntity
  8
0
 62
     0
100
AcDbPolyline
 90
        2
 70
     0
 39
0.003
 10
0.093382
 20
0.996098
 40
0.003
 41
0.003
 10
0.113531
 20
0.979878
 40
0.003
 41
0.003
  0
LWPOLYLINE
  5
134
100
AcDbEntity
  8
0
 62
     0
100
AcDbPolyline
 90
        2
 70
     0
 39
0.003
 10
0.113531
 20
0.979878
 40
0.003
 41
0.003
 10
0.131689
 20
0.962209
 40
0.003
 41
0.003
  0
LWPOLYLINE
  5
135
100
AcDbEntity
  8
0
 62
     0
100
AcDbPolyline
 90
        2
 70
     0
 39
0.003
 10
0.131689
 20
0.962209
 40
0.003
 41
0.003
 10
0.147996
 20
0.943169
 40
0.003
 41
0.003
  0
LWPOLYLINE
  5
136
100
AcDbEntity
  8
0
 62
     0
100
AcDbPolyline
 90
        2
 70
     0
 39
0.003
 10
0.147996
 20
0.943169
 40
0.003
 41
0.003
 10
0.162571
 20
0.922854
 40
0.003
 41
0.003
  0
LWPOLYLINE
  5
137
100
AcDbEntity
  8
0
 62
     0
100
AcDbPolyline
 90
        2
 70
     0
 39
0.003
 10
0.162571
 20
0.922854
 40
0.003
 41
0.003
 10
0.175559
 20
0.901343
 40
0.003
 41
0.003
  0
LWPOLYLINE
  5
138
100
AcDbEntity
  8
0
 62
     0
100
AcDbPolyline
 90
        2
 70
     0
 39
0.003
 10
0.175559
 20
0.901343
 40
0.003
 41
0.003
 10
0.187087
 20
0.878728
 40
0.003
 41
0.003
  0
LWPOLYLINE
  5
139
100
AcDbEntity
  8
0
 62
     0
100
AcDbPolyline
 90
        2
 70
     0
 39
0.003
 10
0.187087
 20
0.878728
 40
0.003
 41
0.003
 10
0.197287
 20
0.855098
 40
0.003
 41
0.003
  0
LWPOLYLINE
  5
13A
100
AcDbEntity
  8
0
 62
     0
100
AcDbPolyline
 90
        2
 70
     0
 39
0.003
 10
0.197287
 20
0.855098
 40
0.003
 41
0.003
 10
0.206287
 20
0.830547
 40
0.003
 41
0.003
  0
LWPOLYLINE
  5
13B
100
AcDbEntity
  8
0
 62
     0
100
AcDbPolyline
 90
        2
 70
     0
 39
0.003
 10
0.206287
 20
0.830547
 40
0.003
 41
0.003
 10
0.214236
 20
0.80515
 40
0.003
 41
0.003
  0
LWPOLYLINE
  5
13C
100
AcDbEntity
  8
0
 62
     0
100
AcDbPolyline
 90
        2
 70
     0
 39
0.003
 10
0.214236
 20
0.80515
 40
0.003
 41
0.003
 10
0.221248
 20
0.779004
 40
0.003
 41
0.003
  0
LWPOLYLINE
  5
13D
100
AcDbEntity
  8
0
 62
     0
100
AcDbPolyline
 90
        2
 70
     0
 39
0.003
 10
0.221248
 20
0.779004
 40
0.003
 41
0.003
 10
0.227465
 20
0.752193
 40
0.003
 41
0.003
  0
LWPOLYLINE
  5
13E
100
AcDbEntity
  8
0
 62
     0
100
AcDbPolyline
 90
        2
 70
     0
 39
0.003
 10
0.227465
 20
0.752193
 40
0.003
 41
0.003
 10
0.233008
 20
0.724815
 40
0.003
 41
0.003
  0
LWPOLYLINE
  5
13F
100
AcDbEntity
  8
0
 62
     0
100
AcDbPolyline
 90
        2
 70
     0
 39
0.003
 10
0.233008
 20
0.724815
 40
0.003
 41
0.003
 10
0.238028
 20
0.696945
 40
0.003
 41
0.003
  0
LWPOLYLINE
  5
140
100
AcDbEntity
  8
0
 62
     0
100
AcDbPolyline
 90
        2
 70
     0
 39
0.003
 10
0.238028
 20
0.696945
 40
0.003
 41
0.003
 10
0.242638
 20
0.668681
 40
0.003
 41
0.003
  0
LWPOLYLINE
  5
141
100
AcDbEntity
  8
0
 62
     0
100
AcDbPolyline
 90
        2
 70
     0
 39
0.003
 10
0.242638
 20
0.668681
 40
0.003
 41
0.003
 10
0.24698
 20
0.640106
 40
0.003
 41
0.003
  0
LWPOLYLINE
  5
142
100
AcDbEntity
  8
0
 62
     0
100
AcDbPolyline
 90
        2
 70
     0
 39
0.003
 10
0.24698
 20
0.640106
 40
0.003
 41
0.003
 10
0.251177
 20
0.611319
 40
0.003
 41
0.003
  0
LWPOLYLINE
  5
143
100
AcDbEntity
  8
0
 62
     0
100
AcDbPolyline
 90
        2
 70
     0
 39
0.003
 10
0.251177
 20
0.611319
 40
0.003
 41
0.003
 10
0.255382
 20
0.58239
 40
0.003
 41
0.003
  0
LWPOLYLINE
  5
144
100
AcDbEntity
  8
0
 62
     0
100
AcDbPolyline
 90
        2
 70
     0
 39
0.003
 10
0.255382
 20
0.58239
 40
0.003
 41
0.003
 10
0.259705
 20
0.553421
 40
0.003
 41
0.003
  0
LWPOLYLINE
  5
145
100
AcDbEntity
  8
0
 62
     0
100
AcDbPolyline
 90
        2
 70
     0
 39
0.003
 10
0.259705
 20
0.553421
 40
0.003
 41
0.003
 10
0.264287
 20
0.524492
 40
0.003
 41
0.003
  0
LWPOLYLINE
  5
146
100
AcDbEntity
  8
0
 62
     0
100
AcDbPolyline
 90
        2
 70
     0
 39
0.003
 10
0.264287
 20
0.524492
 40
0.003
 41
0.003
 10
0.26926
 20
0.495705
 40
0.003
 41
0.003
  0
LWPOLYLINE
  5
147
100
AcDbEntity
  8
0
 62
     0
100
AcDbPolyline
 90
        2
 70
     0
 39
0.003
 10
0.26926
 20
0.495705
 40
0.003
 41
0.003
 10
0.27476
 20
0.467126
 40
0.003
 41
0.003
  0
LWPOLYLINE
  5
148
100
AcDbEntity
  8
0
 62
     0
100
AcDbPolyline
 90
        2
 70
     0
 39
0.003
 10
0.27476
 20
0.467126
 40
0.003
 41
0.003
 10
0.280909
 20
0.438866
 40
0.003
 41
0.003
  0
LWPOLYLINE
  5
149
100
AcDbEntity
  8
0
 62
     0
100
AcDbPolyline
 90
        2
 70
     0
 39
0.003
 10
0.280909
 20
0.438866
 40
0.003
 41
0.003
 10
0.28785
 20
0.410996
 40
0.003
 41
0.003
  0
LWPOLYLINE
  5
14A
100
AcDbEntity
  8
0
 62
     0
100
AcDbPolyline
 90
        2
 70
     0
 39
0.003
 10
0.28785
 20
0.410996
 40
0.003
 41
0.003
 10
0.295705
 20
0.383622
 40
0.003
 41
0.003
  0
LWPOLYLINE
  5
14B
100
AcDbEntity
  8
0
 62
     0
100
AcDbPolyline
 90
        2
 70
     0
 39
0.003
 10
0.295705
 20
0.383622
 40
0.003
 41
0.003
 10
0.303287
 20
0.362878
 40
0.003
 41
0.003
  0
LWPOLYLINE
  5
14C
100
AcDbEntity
  8
0
 62
     0
100
AcDbPolyline
 90
        2
 70
     0
 39
0.003
 10
0.303287
 20
0.362878
 40
0.003
 41
0.003
 10
0.313024
 20
0.342346
 40
0.003
 41
0.003
  0
LWPOLYLINE
  5
14D
100
AcDbEntity
  8
0
 62
     0
100
AcDbPolyline
 90
        2
 70
     0
 39
0.003
 10
0.313024
 20
0.342346
 40
0.003
 41
0.003
 10
0.324709
 20
0.321976
 40
0.003
 41
0.003
  0
LWPOLYLINE
  5
14E
100
AcDbEntity
  8
0
 62
     0
100
AcDbPolyline
 90
        2
 70
     0
 39
0.003
 10
0.324709
 20
0.321976
 40
0.003
 41
0.003
 10
0.338138
 20
0.301724
 40
0.003
 41
0.003
  0
LWPOLYLINE
  5
14F
100
AcDbEntity
  8
0
 62
     0
100
AcDbPolyline
 90
        2
 70
     0
 39
0.003
 10
0.338138
 20
0.301724
 40
0.003
 41
0.003
 10
0.353118
 20
0.281543
 40
0.003
 41
0.003
  0
LWPOLYLINE
  5
150
100
AcDbEntity
  8
0
 62
     0
100
AcDbPolyline
 90
        2
 70
     0
 39
0.003
 10
0.353118
 20
0.281543
 40
0.003
 41
0.003
 10
0.369429
 20
0.261398
 40
0.003
 41
0.003
  0
LWPOLYLINE
  5
151
100
AcDbEntity
  8
0
 62
     0
100
AcDbPolyline
 90
        2
 70
     0
 39
0.003
 10
0.369429
 20
0.261398
 40
0.003
 41
0.003
 10
0.386886
 20
0.241236
 40
0.003
 41
0.003
  0
LWPOLYLINE
  5
152
100
AcDbEntity
  8
0
 62
     0
100
AcDbPolyline
 90
        2
 70
     0
 39
0.003
 10
0.386886
 20
0.241236
 40
0.003
 41
0.003
 10
0.405268
 20
0.221028
 40
0.003
 41
0.003
  0
LWPOLYLINE
  5
153
100
AcDbEntity
  8
0
 62
     0
100
AcDbPolyline
 90
        2
 70
     0
 39
0.003
 10
0.405268
 20
0.221028
 40
0.003
 41
0.003
 10
0.424382
 20
0.200705
 40
0.003
 41
0.003
  0
LWPOLYLINE
  5
154
100
AcDbEntity
  8
0
 62
     0
100
AcDbPolyline
 90
        2
 70
     0
 39
0.003
 10
0.424382
 20
0.200705
 40
0.003
 41
0.003
 10
0.444035
 20
0.180244
 40
0.003
 41
0.003
  0
LWPOLYLINE
  5
155
100
AcDbEntity
  8
0
 62
     0
100
AcDbPolyline
 90
        2
 70
     0
 39
0.003
 10
0.444035
 20
0.180244
 40
0.003
 41
0.003
 10
0.464008
 20
0.159591
 40
0.003
 41
0.003
  0
LWPOLYLINE
  5
156
100
AcDbEntity
  8
0
 62
     0
100
AcDbPolyline
 90
        2
 70
     0
 39
0.003
 10
0.464008
 20
0.159591
 40
0.003
 41
0.003
 10
0.484114
 20
0.138705
 40
0.003
 41
0.003
  0
LWPOLYLINE
  5
157
100
AcDbEntity
  8
0
 62
     0
100
AcDbPolyline
 90
        2
 70
     0
 39
0.003
 10
0.484114
 20
0.138705
 40
0.003
 41
0.003
 10
0.504134
 20
0.117539
 40
0.003
 41
0.003
  0
LWPOLYLINE
  5
158
100
AcDbEntity
  8
0
 62
     0
100
AcDbPolyline
 90
        2
 70
     0
 39
0.003
 10
0.504134
 20
0.117539
 40
0.003
 41
0.003
 10
0.52387
 20
0.096055
 40
0.003
 41
0.003
  0
LWPOLYLINE
  5
159
100
AcDbEntity
  8
0
 62
     0
100
AcDbPolyline
 90
        2
 70
     0
 39
0.003
 10
0.52387
 20
0.096055
 40
0.003
 41
0.003
 10
0.543118
 20
0.074205
 40
0.003
 41
0.003
  0
LWPOLYLINE
  5
15A
100
AcDbEntity
  8
0
 62
     0
100
AcDbPolyline
 90
        2
 70
     0
 39
0.003
 10
0.543118
 20
0.074205
 40
0.003
 41
0.003
 10
0.561685
 20
0.051953
 40
0.003
 41
0.003
  0
LWPOLYLINE
  5
15B
100
AcDbEntity
  8
0
 62
     0
100
AcDbPolyline
 90
        2
 70
     0
 39
0.003
 10
0.561685
 20
0.051953
 40
0.003
 41
0.003
 10
0.579346
 20
0.029232
 40
0.003
 41
0.003
  0
LWPOLYLINE
  5
15C
100
AcDbEntity
  8
0
 62
     0
100
AcDbPolyline
 90
        2
 70
     0
 39
0.003
 10
0.579346
 20
0.029232
 40
0.003
 41
0.003
 10
0.595917
 20
0.006028
 40
0.003
 41
0.003
  0
LWPOLYLINE
  5
15D
100
AcDbEntity
  8
0
 62
     0
100
AcDbPolyline
 90
        2
 70
     0
 39
0.003
 10
0.595917
 20
0.006028
 40
0.003
 41
0.003
 10
0.611189
 20
-0.017724
 40
0.003
 41
0.003
  0
LWPOLYLINE
  5
15E
100
AcDbEntity
  8
0
 62
     0
100
AcDbPolyline
 90
        2
 70
     0
 39
0.003
 10
0.611189
 20
-0.017724
 40
0.003
 41
0.003
 10
0.624961
 20
-0.042059
 40
0.003
 41
0.003
  0
LWPOLYLINE
  5
15F
100
AcDbEntity
  8
0
 62
     0
100
AcDbPolyline
 90
        2
 70
     0
 39
0.003
 10
0.624961
 20
-0.042059
 40
0.003
 41
0.003
 10
0.63702
 20
-0.067028
 40
0.003
 41
0.003
  0
LWPOLYLINE
  5
160
100
AcDbEntity
  8
0
 62
     0
100
AcDbPolyline
 90
        2
 70
     0
 39
0.003
 10
0.63702
 20
-0.067028
 40
0.003
 41
0.003
 10
0.647177
 20
-0.092665
 40
0.003
 41
0.003
  0
LWPOLYLINE
  5
161
100
AcDbEntity
  8
0
 62
     0
100
AcDbPolyline
 90
        2
 70
     0
 39
0.003
 10
0.647177
 20
-0.092665
 40
0.003
 41
0.003
 10
0.65522
 20
-0.119024
 40
0.003
 41
0.003
  0
LWPOLYLINE
  5
162
100
AcDbEntity
  8
0
 62
     0
100
AcDbPolyline
 90
        2
 70
     0
 39
0.003
 10
0.65522
 20
-0.119024
 40
0.003
 41
0.003
 10
0.660957
 20
-0.146134
 40
0.003
 41
0.003
  0
LWPOLYLINE
  5
163
100
AcDbEntity
  8
0
 62
     0
100
AcDbPolyline
 90
        2
 70
     0
 39
0.003
 10
0.660957
 20
-0.146134
 40
0.003
 41
0.003
 10
0.664165
 20
-0.174063
 40
0.003
 41
0.003
  0
LWPOLYLINE
  5
164
100
AcDbEntity
  8
0
 62
     0
100
AcDbPolyline
 90
        2
 70
     0
 39
0.003
 10
0.664165
 20
-0.174063
 40
0.003
 41
0.003
 10
0.664657
 20
-0.202835
 40
0.003
 41
0.003
  0
LWPOLYLINE
  5
165
100
AcDbEntity
  8
0
 62
     0
100
AcDbPolyline
 90
        2
 70
     0
 39
0.003
 10
0.664657
 20
-0.202835
 40
0.003
 41
0.003
 10
0.662224
 20
-0.2325
 40
0.003
 41
0.003
  0
LWPOLYLINE
  5
166
100
AcDbEntity
  8
0
 62
     0
100
AcDbPolyline
 90
        2
 70
     0
 39
0.003
 10
0.662224
 20
-0.2325
 40
0.003
 41
0.003
 10
0.656669
 20
-0.263094
 40
0.003
 41
0.003
  0
LWPOLYLINE
  5
167
100
AcDbEntity
  8
0
 62
     0
100
AcDbPolyline
 90
        2
 70
     0
 39
0.003
 10
0.656669
 20
-0.263094
 40
0.003
 41
0.003
 10
0.647776
 20
-0.294681
 40
0.003
 41
0.003
  0
LWPOLYLINE
  5
168
100
AcDbEntity
  8
0
 62
     0
100
AcDbPolyline
 90
        2
 70
     0
 39
0.003
 10
0.647776
 20
-0.294681
 40
0.003
 41
0.003
 10
0.635354
 20
-0.327287
 40
0.003
 41
0.003
  0
LWPOLYLINE
  5
169
100
AcDbEntity
  8
0
 62
     0
100
AcDbPolyline
 90
        2
 70
     0
 39
0.003
 10
0.635354
 20
-0.327287
 40
0.003
 41
0.003
 10
0.619197
 20
-0.360965
 40
0.003
 41
0.003
  0
LWPOLYLINE
  5
16A
100
AcDbEntity
  8
0
 62
     0
100
AcDbPolyline
 90
        2
 70
     0
 39
0.003
 10
0.619197
 20
-0.360965
 40
0.003
 41
0.003
 10
0.599102
 20
-0.395748
 40
0.003
 41
0.003
  0
LWPOLYLINE
  5
16B
100
AcDbEntity
  8
0
 62
     0
100
AcDbPolyline
 90
        2
 70
     0
 39
0.003
 10
0.599102
 20
-0.395748
 40
0.003
 41
0.003
 10
-0.045213
 20
-0.772677
 40
0.003
 41
0.003
  0
LWPOLYLINE
  5
16C
100
AcDbEntity
  8
0
 62
     0
100
AcDbPolyline
 90
        2
 70
     0
 39
0.003
 10
-0.045213
 20
-0.772677
 40
0.003
 41
0.003
 10
-0.025118
 20
-0.737894
 40
0.003
 41
0.003
  0
LWPOLYLINE
  5
16D
100
AcDbEntity
  8
0
 62
     0
100
AcDbPolyline
 90
        2
 70
     0
 39
0.003
 10
-0.025118
 20
-0.737894
 40
0.003
 41
0.003
 10
-0.008961
 20
-0.704217
 40
0.003
 41
0.003
  0
LWPOLYLINE
  5
16E
100
AcDbEntity
  8
0
 62
     0
100
AcDbPolyline
 90
        2
 70
     0
 39
0.003
 10
-0.008961
 20
-0.704217
 40
0.003
 41
0.003
 10
0.003461
 20
-0.67161
 40
0.003
 41
0.003
  0
LWPOLYLINE
  5
16F
100
AcDbEntity
  8
0
 62
     0
100
AcDbPolyline
 90
        2
 70
     0
 39
0.003
 10
0.003461
 20
-0.67161
 40
0.003
 41
0.003
 10
0.012354
 20
-0.640024
 40
0.003
 41
0.003
  0
LWPOLYLINE
  5
170
100
AcDbEntity
  8
0
 62
     0
100
AcDbPolyline
 90
        2
 70
     0
 39
0.003
 10
0.012354
 20
-0.640024
 40
0.003
 41
0.003
 10
0.017909
 20
-0.609429
 40
0.003
 41
0.003
  0
LWPOLYLINE
  5
171
100
AcDbEntity
  8
0
 62
     0
100
AcDbPolyline
 90
        2
 70
     0
 39
0.003
 10
0.017909
 20
-0.609429
 40
0.003
 41
0.003
 10
0.020343
 20
-0.579764
 40
0.003
 41
0.003
  0
LWPOLYLINE
  5
172
100
AcDbEntity
  8
0
 62
     0
100
AcDbPolyline
 90
        2
 70
     0
 39
0.003
 10
0.020343
 20
-0.579764
 40
0.003
 41
0.003
 10
0.01985
 20
-0.550992
 40
0.003
 41
0.003
  0
LWPOLYLINE
  5
173
100
AcDbEntity
  8
0
 62
     0
100
AcDbPolyline
 90
        2
 70
     0
 39
0.003
 10
0.01985
 20
-0.550992
 40
0.003
 41
0.003
 10
0.016642
 20
-0.523063
 40
0.003
 41
0.003
  0
LWPOLYLINE
  5
174
100
AcDbEntity
  8
0
 62
     0
100
AcDbPolyline
 90
        2
 70
     0
 39
0.003
 10
0.016642
 20
-0.523063
 40
0.003
 41
0.003
 10
0.010906
 20
-0.495953
 40
0.003
 41
0.003
  0
LWPOLYLINE
  5
175
100
AcDbEntity
  8
0
 62
     0
100
AcDbPolyline
 90
        2
 70
     0
 39
0.003
 10
0.010906
 20
-0.495953
 40
0.003
 41
0.003
 10
0.002862
 20
-0.469594
 40
0.003
 41
0.003
  0
LWPOLYLINE
  5
176
100
AcDbEntity
  8
0
 62
     0
100
AcDbPolyline
 90
        2
 70
     0
 39
0.003
 10
0.002862
 20
-0.469594
 40
0.003
 41
0.003
 10
-0.007295
 20
-0.443957
 40
0.003
 41
0.003
  0
LWPOLYLINE
  5
177
100
AcDbEntity
  8
0
 62
     0
100
AcDbPolyline
 90
        2
 70
     0
 39
0.003
 10
-0.007295
 20
-0.443957
 40
0.003
 41
0.003
 10
-0.019354
 20
-0.418988
 40
0.003
 41
0.003
  0
LWPOLYLINE
  5
178
100
AcDbEntity
  8
0
 62
     0
100
AcDbPolyline
 90
        2
 70
     0
 39
0.003
 10
-0.019354
 20
-0.418988
 40
0.003
 41
0.003
 10
-0.033126
 20
-0.394654
 40
0.003
 41
0.003
  0
LWPOLYLINE
  5
179
100
AcDbEntity
  8
0
 62
     0
100
AcDbPolyline
 90
        2
 70
     0
 39
0.003
 10
-0.033126
 20
-0.394654
 40
0.003
 41
0.003
 10
-0.048398
 20
-0.370902
 40
0.003
 41
0.003
  0
LWPOLYLINE
  5
17A
100
AcDbEntity
  8
0
 62
     0
100
AcDbPolyline
 90
        2
 70
     0
 39
0.003
 10
-0.048398
 20
-0.370902
 40
0.003
 41
0.003
 10
-0.064969
 20
-0.347697
 40
0.003
 41
0.003
  0
LWPOLYLINE
  5
17B
100
AcDbEntity
  8
0
 62
     0
100
AcDbPolyline
 90
        2
 70
     0
 39
0.003
 10
-0.064969
 20
-0.347697
 40
0.003
 41
0.003
 10
-0.08263
 20
-0.324976
 40
0.003
 41
0.003
  0
LWPOLYLINE
  5
17C
100
AcDbEntity
  8
0
 62
     0
100
AcDbPolyline
 90
        2
 70
     0
 39
0.003
 10
-0.08263
 20
-0.324976
 40
0.003
 41
0.003
 10
-0.101197
 20
-0.302724
 40
0.003
 41
0.003
  0
LWPOLYLINE
  5
17D
100
AcDbEntity
  8
0
 62
     0
100
AcDbPolyline
 90
        2
 70
     0
 39
0.003
 10
-0.101197
 20
-0.302724
 40
0.003
 41
0.003
 10
-0.120445
 20
-0.280874
 40
0.003
 41
0.003
  0
LWPOLYLINE
  5
17E
100
AcDbEntity
  8
0
 62
     0
100
AcDbPolyline
 90
        2
 70
     0
 39
0.003
 10
-0.120445
 20
-0.280874
 40
0.003
 41
0.003
 10
-0.140181
 20
-0.25939
 40
0.003
 41
0.003
  0
LWPOLYLINE
  5
17F
100
AcDbEntity
  8
0
 62
     0
100
AcDbPolyline
 90
        2
 70
     0
 39
0.003
 10
-0.140181
 20
-0.25939
 40
0.003
 41
0.003
 10
-0.160201
 20
-0.238224
 40
0.003
 41
0.003
  0
LWPOLYLINE
  5
180
100
AcDbEntity
  8
0
 62
     0
100
AcDbPolyline
 90
        2
 70
     0
 39
0.003
 10
-0.160201
 20
-0.238224
 40
0.003
 41
0.003
 10
-0.180307
 20
-0.217339
 40
0.003
 41
0.003
  0
LWPOLYLINE
  5
181
100
AcDbEntity
  8
0
 62
     0
100
AcDbPolyline
 90
        2
 70
     0
 39
0.003
 10
-0.180307
 20
-0.217339
 40
0.003
 41
0.003
 10
-0.20028
 20
-0.196685
 40
0.003
 41
0.003
  0
LWPOLYLINE
  5
182
100
AcDbEntity
  8
0
 62
     0
100
AcDbPolyline
 90
        2
 70
     0
 39
0.003
 10
-0.20028
 20
-0.196685
 40
0.003
 41
0.003
 10
-0.219933
 20
-0.176224
 40
0.003
 41
0.003
  0
LWPOLYLINE
  5
183
100
AcDbEntity
  8
0
 62
     0
100
AcDbPolyline
 90
        2
 70
     0
 39
0.003
 10
-0.219933
 20
-0.176224
 40
0.003
 41
0.003
 10
-0.239047
 20
-0.155902
 40
0.003
 41
0.003
  0
LWPOLYLINE
  5
184
100
AcDbEntity
  8
0
 62
     0
100
AcDbPolyline
 90
        2
 70
     0
 39
0.003
 10
-0.239047
 20
-0.155902
 40
0.003
 41
0.003
 10
-0.257429
 20
-0.135693
 40
0.003
 41
0.003
  0
LWPOLYLINE
  5
185
100
AcDbEntity
  8
0
 62
     0
100
AcDbPolyline
 90
        2
 70
     0
 39
0.003
 10
-0.257429
 20
-0.135693
 40
0.003
 41
0.003
 10
-0.274886
 20
-0.115531
 40
0.003
 41
0.003
  0
LWPOLYLINE
  5
186
100
AcDbEntity
  8
0
 62
     0
100
AcDbPolyline
 90
        2
 70
     0
 39
0.003
 10
-0.274886
 20
-0.115531
 40
0.003
 41
0.003
 10
-0.291197
 20
-0.095386
 40
0.003
 41
0.003
  0
LWPOLYLINE
  5
187
100
AcDbEntity
  8
0
 62
     0
100
AcDbPolyline
 90
        2
 70
     0
 39
0.003
 10
-0.291197
 20
-0.095386
 40
0.003
 41
0.003
 10
-0.306177
 20
-0.075205
 40
0.003
 41
0.003
  0
LWPOLYLINE
  5
188
100
AcDbEntity
  8
0
 62
     0
100
AcDbPolyline
 90
        2
 70
     0
 39
0.003
 10
-0.306177
 20
-0.075205
 40
0.003
 41
0.003
 10
-0.319606
 20
-0.054953
 40
0.003
 41
0.003
  0
LWPOLYLINE
  5
189
100
AcDbEntity
  8
0
 62
     0
100
AcDbPolyline
 90
        2
 70
     0
 39
0.003
 10
-0.319606
 20
-0.054953
 40
0.003
 41
0.003
 10
-0.331291
 20
-0.034583
 40
0.003
 41
0.003
  0
LWPOLYLINE
  5
18A
100
AcDbEntity
  8
0
 62
     0
100
AcDbPolyline
 90
        2
 70
     0
 39
0.003
 10
-0.331291
 20
-0.034583
 40
0.003
 41
0.003
 10
-0.341028
 20
-0.014051
 40
0.003
 41
0.003
  0
LWPOLYLINE
  5
18B
100
AcDbEntity
  8
0
 62
     0
100
AcDbPolyline
 90
        2
 70
     0
 39
0.003
 10
-0.341028
 20
-0.014051
 40
0.003
 41
0.003
 10
-0.34861
 20
0.006693
 40
0.003
 41
0.003
  0
LWPOLYLINE
  5
18C
100
AcDbEntity
  8
0
 62
     0
100
AcDbPolyline
 90
        2
 70
     0
 39
0.003
 10
-0.34861
 20
0.006693
 40
0.003
 41
0.003
 10
-0.356465
 20
0.034067
 40
0.003
 41
0.003
  0
LWPOLYLINE
  5
18D
100
AcDbEntity
  8
0
 62
     0
100
AcDbPolyline
 90
        2
 70
     0
 39
0.003
 10
-0.356465
 20
0.034067
 40
0.003
 41
0.003
 10
-0.363406
 20
0.061937
 40
0.003
 41
0.003
  0
LWPOLYLINE
  5
18E
100
AcDbEntity
  8
0
 62
     0
100
AcDbPolyline
 90
        2
 70
     0
 39
0.003
 10
-0.363406
 20
0.061937
 40
0.003
 41
0.003
 10
-0.369555
 20
0.090197
 40
0.003
 41
0.003
  0
LWPOLYLINE
  5
18F
100
AcDbEntity
  8
0
 62
     0
100
AcDbPolyline
 90
        2
 70
     0
 39
0.003
 10
-0.369555
 20
0.090197
 40
0.003
 41
0.003
 10
-0.375055
 20
0.118776
 40
0.003
 41
0.003
  0
LWPOLYLINE
  5
190
100
AcDbEntity
  8
0
 62
     0
100
AcDbPolyline
 90
        2
 70
     0
 39
0.003
 10
-0.375055
 20
0.118776
 40
0.003
 41
0.003
 10
-0.380028
 20
0.147563
 40
0.003
 41
0.003
  0
LWPOLYLINE
  5
191
100
AcDbEntity
  8
0
 62
     0
100
AcDbPolyline
 90
        2
 70
     0
 39
0.003
 10
-0.380028
 20
0.147563
 40
0.003
 41
0.003
 10
-0.38461
 20
0.176492
 40
0.003
 41
0.003
  0
LWPOLYLINE
  5
192
100
AcDbEntity
  8
0
 62
     0
100
AcDbPolyline
 90
        2
 70
     0
 39
0.003
 10
-0.38461
 20
0.176492
 40
0.003
 41
0.003
 10
-0.388933
 20
0.205461
 40
0.003
 41
0.003
  0
LWPOLYLINE
  5
193
100
AcDbEntity
  8
0
 62
     0
100
AcDbPolyline
 90
        2
 70
     0
 39
0.003
 10
-0.388933
 20
0.205461
 40
0.003
 41
0.003
 10
-0.393138
 20
0.23439
 40
0.003
 41
0.003
  0
LWPOLYLINE
  5
194
100
AcDbEntity
  8
0
 62
     0
100
AcDbPolyline
 90
        2
 70
     0
 39
0.003
 10
-0.393138
 20
0.23439
 40
0.003
 41
0.003
 10
-0.397335
 20
0.263177
 40
0.003
 41
0.003
  0
LWPOLYLINE
  5
195
100
AcDbEntity
  8
0
 62
     0
100
AcDbPolyline
 90
        2
 70
     0
 39
0.003
 10
-0.397335
 20
0.263177
 40
0.003
 41
0.003
 10
-0.401677
 20
0.291752
 40
0.003
 41
0.003
  0
LWPOLYLINE
  5
196
100
AcDbEntity
  8
0
 62
     0
100
AcDbPolyline
 90
        2
 70
     0
 39
0.003
 10
-0.401677
 20
0.291752
 40
0.003
 41
0.003
 10
-0.406287
 20
0.320016
 40
0.003
 41
0.003
  0
LWPOLYLINE
  5
197
100
AcDbEntity
  8
0
 62
     0
100
AcDbPolyline
 90
        2
 70
     0
 39
0.003
 10
-0.406287
 20
0.320016
 40
0.003
 41
0.003
 10
-0.411307
 20
0.347886
 40
0.003
 41
0.003
  0
LWPOLYLINE
  5
198
100
AcDbEntity
  8
0
 62
     0
100
AcDbPolyline
 90
        2
 70
     0
 39
0.003
 10
-0.411307
 20
0.347886
 40
0.003
 41
0.003
 10
-0.41685
 20
0.375264
 40
0.003
 41
0.003
  0
LWPOLYLINE
  5
199
100
AcDbEntity
  8
0
 62
     0
100
AcDbPolyline
 90
        2
 70
     0
 39
0.003
 10
-0.41685
 20
0.375264
 40
0.003
 41
0.003
 10
-0.423067
 20
0.402075
 40
0.003
 41
0.003
  0
LWPOLYLINE
  5
19A
100
AcDbEntity
  8
0
 62
     0
100
AcDbPolyline
 90
        2
 70
     0
 39
0.003
 10
-0.423067
 20
0.402075
 40
0.003
 41
0.003
 10
-0.430079
 20
0.42822
 40
0.003
 41
0.003
  0
LWPOLYLINE
  5
19B
100
AcDbEntity
  8
0
 62
     0
100
AcDbPolyline
 90
        2
 70
     0
 39
0.003
 10
-0.430079
 20
0.42822
 40
0.003
 41
0.003
 10
-0.438028
 20
0.453618
 40
0.003
 41
0.003
  0
LWPOLYLINE
  5
19C
100
AcDbEntity
  8
0
 62
     0
100
AcDbPolyline
 90
        2
 70
     0
 39
0.003
 10
-0.438028
 20
0.453618
 40
0.003
 41
0.003
 10
-0.447028
 20
0.478169
 40
0.003
 41
0.003
  0
LWPOLYLINE
  5
19D
100
AcDbEntity
  8
0
 62
     0
100
AcDbPolyline
 90
        2
 70
     0
 39
0.003
 10
-0.447028
 20
0.478169
 40
0.003
 41
0.003
 10
-0.457228
 20
0.501799
 40
0.003
 41
0.003
  0
LWPOLYLINE
  5
19E
100
AcDbEntity
  8
0
 62
     0
100
AcDbPolyline
 90
        2
 70
     0
 39
0.003
 10
-0.457228
 20
0.501799
 40
0.003
 41
0.003
 10
-0.468756
 20
0.524413
 40
0.003
 41
0.003
  0
LWPOLYLINE
  5
19F
100
AcDbEntity
  8
0
 62
     0
100
AcDbPolyline
 90
        2
 70
     0
 39
0.003
 10
-0.468756
 20
0.524413
 40
0.003
 41
0.003
 10
-0.481744
 20
0.545925
 40
0.003
 41
0.003
  0
LWPOLYLINE
  5
1A0
100
AcDbEntity
  8
0
 62
     0
100
AcDbPolyline
 90
        2
 70
     0
 39
0.003
 10
-0.481744
 20
0.545925
 40
0.003
 41
0.003
 10
-0.496319
 20
0.56624
 40
0.003
 41
0.003
  0
LWPOLYLINE
  5
1A1
100
AcDbEntity
  8
0
 62
     0
100
AcDbPolyline
 90
        2
 70
     0
 39
0.003
 10
-0.496319
 20
0.56624
 40
0.003
 41
0.003
 10
-0.512626
 20
0.58528
 40
0.003
 41
0.003
  0
LWPOLYLINE
  5
1A2
100
AcDbEntity
  8
0
 62
     0
100
AcDbPolyline
 90
        2
 70
     0
 39
0.003
 10
-0.512626
 20
0.58528
 40
0.003
 41
0.003
 10
-0.530783
 20
0.602949
 40
0.003
 41
0.003
  0
LWPOLYLINE
  5
1A3
100
AcDbEntity
  8
0
 62
     0
100
AcDbPolyline
 90
        2
 70
     0
 39
0.003
 10
-0.530783
 20
0.602949
 40
0.003
 41
0.003
 10
-0.550933
 20
0.619169
 40
0.003
 41
0.003
  0
LWPOLYLINE
  5
1A4
100
AcDbEntity
  8
0
 62
     0
100
AcDbPolyline
 90
        2
 70
     0
 39
0.003
 10
-0.550933
 20
0.619169
 40
0.003
 41
0.003
 10
-0.573193
 20
0.633835
 40
0.003
 41
0.003
  0
LWPOLYLINE
  5
1A5
100
AcDbEntity
  8
0
 62
     0
100
AcDbPolyline
 90
        2
 70
     0
 39
0.003
 10
-0.573193
 20
0.633835
 40
0.003
 41
0.003
 10
-0.597713
 20
0.646874
 40
0.003
 41
0.003
  0
LWPOLYLINE
  5
1A6
100
AcDbEntity
  8
0
 62
     0
100
AcDbPolyline
 90
        2
 70
     0
 39
0.003
 10
-0.597713
 20
0.646874
 40
0.003
 41
0.003
 10
-0.624614
 20
0.658185
 40
0.003
 41
0.003
  0
LWPOLYLINE
  5
1A7
100
AcDbEntity
  8
0
 62
     0
100
AcDbPolyline
 90
        2
 70
     0
 39
0.003
 10
-0.624614
 20
0.658185
 40
0.003
 41
0.003
 10
-0.654039
 20
0.667697
 40
0.003
 41
0.003
  0
LWPOLYLINE
  5
1A8
100
AcDbEntity
  8
0
 62
     0
100
AcDbPolyline
 90
        2
 70
     0
 39
0.003
 10
-0.654039
 20
0.667697
 40
0.003
 41
0.003
 10
-0.686106
 20
0.675299
 40
0.003
 41
0.003
  0
LWPOLYLINE
  5
1A9
100
AcDbEntity
  8
0
 62
     0
100
AcDbPolyline
 90
        2
 70
     0
 39
0.003
 10
-0.686106
 20
0.675299
 40
0.003
 41
0.003
 10
-0.720957
 20
0.680921
 40
0.003
 41
0.003
  0
LWPOLYLINE
  5
1AA
100
AcDbEntity
  8
0
 62
     0
100
AcDbPolyline
 90
        2
 70
     0
 39
0.003
 10
-0.720957
 20
0.680921
 40
0.003
 41
0.003
 10
-0.758717
 20
0.684469
 40
0.003
 41
0.003
  0
LWPOLYLINE
  5
1AB
100
AcDbEntity
  8
0
 62
     0
100
AcDbPolyline
 90
        2
 70
     0
 39
0.003
 10
-0.758717
 20
0.684469
 40
0.003
 41
0.003
 10
-0.799531
 20
0.685858
 40
0.003
 41
0.003
  0
LWPOLYLINE
  5
1AC
100
AcDbEntity
  8
0
 62
   253
100
AcDbPolyline
 90
        2
 70
     0
 39
0.003
 10
-0.799531
 20
0.685858
 40
0.003
 41
0.003
 10
-0.155217
 20
1.062787
 40
0.003
 41
0.003
  0
LWPOLYLINE
  5
1AD
100
AcDbEntity
  8
0
 62
   253
100
AcDbPolyline
 90
        2
 70
     0
 39
0.003
 10
-0.155217
 20
1.062787
 40
0.003
 41
0.003
 10
-0.114402
 20
1.061398
 40
0.003
 41
0.003
  0
LWPOLYLINE
  5
1AE
100
AcDbEntity
  8
0
 62
   253
100
AcDbPolyline
 90
        2
 70
     0
 39
0.003
 10
-0.114402
 20
1.061398
 40
0.003
 41
0.003
 10
-0.758717
 20
0.684469
 40
0.003
 41
0.003
  0
LWPOLYLINE
  5
1AF
100
AcDbEntity
  8
0
 62
   253
100
AcDbPolyline
 90
        2
 70
     0
 39
0.003
 10
-0.758717
 20
0.684469
 40
0.003
 41
0.003
 10
-0.799531
 20
0.685858
 40
0.003
 41
0.003
  0
LWPOLYLINE
  5
1B0
100
AcDbEntity
  8
0
 62
   253
100
AcDbPolyline
 90
        2
 70
     0
 39
0.003
 10
-0.758717
 20
0.684469
 40
0.003
 41
0.003
 10
-0.114402
 20
1.061398
 40
0.003
 41
0.003
  0
LWPOLYLINE
  5
1B1
100
AcDbEntity
  8
0
 62
   253
100
AcDbPolyline
 90
        2
 70
     0
 39
0.003
 10
-0.114402
 20
1.061398
 40
0.003
 41
0.003
 10
-0.076642
 20
1.05785
 40
0.003
 41
0.003
  0
LWPOLYLINE
  5
1B2
100
AcDbEntity
  8
0
 62
   253
100
AcDbPolyline
 90
        2
 70
     0
 39
0.003
 10
-0.076642
 20
1.05785
 40
0.003
 41
0.003
 10
-0.720957
 20
0.680921
 40
0.003
 41
0.003
  0
LWPOLYLINE
  5
1B3
100
AcDbEntity
  8
0
 62
   253
100
AcDbPolyline
 90
        2
 70
     0
 39
0.003
 10
-0.720957
 20
0.680921
 40
0.003
 41
0.003
 10
-0.758717
 20
0.684469
 40
0.003
 41
0.003
  0
LWPOLYLINE
  5
1B4
100
AcDbEntity
  8
0
 62
     9
100
AcDbPolyline
 90
        2
 70
     0
 39
0.003
 10
-0.720957
 20
0.680921
 40
0.003
 41
0.003
 10
-0.076642
 20
1.05785
 40
0.003
 41
0.003
  0
LWPOLYLINE
  5
1B5
100
AcDbEntity
  8
0
 62
     9
100
AcDbPolyline
 90
        2
 70
     0
 39
0.003
 10
-0.076642
 20
1.05785
 40
0.003
 41
0.003
 10
-0.041791
 20
1.052228
 40
0.003
 41
0.003
  0
LWPOLYLINE
  5
1B6
100
AcDbEntity
  8
0
 62
     9
100
AcDbPolyline
 90
        2
 70
     0
 39
0.003
 10
-0.041791
 20
1.052228
 40
0.003
 41
0.003
 10
-0.686106
 20
0.675299
 40
0.003
 41
0.003
  0
LWPOLYLINE
  5
1B7
100
AcDbEntity
  8
0
 62
     9
100
AcDbPolyline
 90
        2
 70
     0
 39
0.003
 10
-0.686106
 20
0.675299
 40
0.003
 41
0.003
 10
-0.720957
 20
0.680921
 40
0.003
 41
0.003
  0
LWPOLYLINE
  5
1B8
100
AcDbEntity
  8
0
 62
     9
100
AcDbPolyline
 90
        2
 70
     0
 39
0.003
 10
-0.686106
 20
0.675299
 40
0.003
 41
0.003
 10
-0.041791
 20
1.052228
 40
0.003
 41
0.003
  0
LWPOLYLINE
  5
1B9
100
AcDbEntity
  8
0
 62
     9
100
AcDbPolyline
 90
        2
 70
     0
 39
0.003
 10
-0.041791
 20
1.052228
 40
0.003
 41
0.003
 10
-0.009724
 20
1.044626
 40
0.003
 41
0.003
  0
LWPOLYLINE
  5
1BA
100
AcDbEntity
  8
0
 62
     9
100
AcDbPolyline
 90
        2
 70
     0
 39
0.003
 10
-0.009724
 20
1.044626
 40
0.003
 41
0.003
 10
-0.654039
 20
0.667697
 40
0.003
 41
0.003
  0
LWPOLYLINE
  5
1BB
100
AcDbEntity
  8
0
 62
     9
100
AcDbPolyline
 90
        2
 70
     0
 39
0.003
 10
-0.654039
 20
0.667697
 40
0.003
 41
0.003
 10
-0.686106
 20
0.675299
 40
0.003
 41
0.003
  0
LWPOLYLINE
  5
1BC
100
AcDbEntity
  8
0
 62
     9
100
AcDbPolyline
 90
        2
 70
     0
 39
0.003
 10
-0.654039
 20
0.667697
 40
0.003
 41
0.003
 10
-0.009724
 20
1.044626
 40
0.003
 41
0.003
  0
LWPOLYLINE
  5
1BD
100
AcDbEntity
  8
0
 62
     9
100
AcDbPolyline
 90
        2
 70
     0
 39
0.003
 10
-0.009724
 20
1.044626
 40
0.003
 41
0.003
 10
0.019701
 20
1.035114
 40
0.003
 41
0.003
  0
LWPOLYLINE
  5
1BE
100
AcDbEntity
  8
0
 62
     9
100
AcDbPolyline
 90
        2
 70
     0
 39
0.003
 10
0.019701
 20
1.035114
 40
0.003
 41
0.003
 10
-0.624614
 20
0.658185
 40
0.003
 41
0.003
  0
LWPOLYLINE
  5
1BF
100
AcDbEntity
  8
0
 62
     9
100
AcDbPolyline
 90
        2
 70
     0
 39
0.003
 10
-0.624614
 20
0.658185
 40
0.003
 41
0.003
 10
-0.654039
 20
0.667697
 40
0.003
 41
0.003
  0
LWPOLYLINE
  5
1C0
100
AcDbEntity
  8
0
 62
     9
100
AcDbPolyline
 90
        2
 70
     0
 39
0.003
 10
-0.624614
 20
0.658185
 40
0.003
 41
0.003
 10
0.019701
 20
1.035114
 40
0.003
 41
0.003
  0
LWPOLYLINE
  5
1C1
100
AcDbEntity
  8
0
 62
     9
100
AcDbPolyline
 90
        2
 70
     0
 39
0.003
 10
0.019701
 20
1.035114
 40
0.003
 41
0.003
 10
0.046602
 20
1.023803
 40
0.003
 41
0.003
  0
LWPOLYLINE
  5
1C2
100
AcDbEntity
  8
0
 62
     9
100
AcDbPolyline
 90
        2
 70
     0
 39
0.003
 10
0.046602
 20
1.023803
 40
0.003
 41
0.003
 10
-0.597713
 20
0.646874
 40
0.003
 41
0.003
  0
LWPOLYLINE
  5
1C3
100
AcDbEntity
  8
0
 62
     9
100
AcDbPolyline
 90
        2
 70
     0
 39
0.003
 10
-0.597713
 20
0.646874
 40
0.003
 41
0.003
 10
-0.624614
 20
0.658185
 40
0.003
 41
0.003
  0
LWPOLYLINE
  5
1C4
100
AcDbEntity
  8
0
 62
     9
100
AcDbPolyline
 90
        2
 70
     0
 39
0.003
 10
-0.597713
 20
0.646874
 40
0.003
 41
0.003
 10
0.046602
 20
1.023803
 40
0.003
 41
0.003
  0
LWPOLYLINE
  5
1C5
100
AcDbEntity
  8
0
 62
     9
100
AcDbPolyline
 90
        2
 70
     0
 39
0.003
 10
0.046602
 20
1.023803
 40
0.003
 41
0.003
 10
0.071122
 20
1.010764
 40
0.003
 41
0.003
  0
LWPOLYLINE
  5
1C6
100
AcDbEntity
  8
0
 62
     9
100
AcDbPolyline
 90
        2
 70
     0
 39
0.003
 10
0.071122
 20
1.010764
 40
0.003
 41
0.003
 10
-0.573193
 20
0.633835
 40
0.003
 41
0.003
  0
LWPOLYLINE
  5
1C7
100
AcDbEntity
  8
0
 62
     9
100
AcDbPolyline
 90
        2
 70
     0
 39
0.003
 10
-0.573193
 20
0.633835
 40
0.003
 41
0.003
 10
-0.597713
 20
0.646874
 40
0.003
 41
0.003
  0
LWPOLYLINE
  5
1C8
100
AcDbEntity
  8
0
 62
     9
100
AcDbPolyline
 90
        2
 70
     0
 39
0.003
 10
-0.573193
 20
0.633835
 40
0.003
 41
0.003
 10
0.071122
 20
1.010764
 40
0.003
 41
0.003
  0
LWPOLYLINE
  5
1C9
100
AcDbEntity
  8
0
 62
     9
100
AcDbPolyline
 90
        2
 70
     0
 39
0.003
 10
0.071122
 20
1.010764
 40
0.003
 41
0.003
 10
0.093382
 20
0.996098
 40
0.003
 41
0.003
  0
LWPOLYLINE
  5
1CA
100
AcDbEntity
  8
0
 62
     9
100
AcDbPolyline
 90
        2
 70
     0
 39
0.003
 10
0.093382
 20
0.996098
 40
0.003
 41
0.003
 10
-0.550933
 20
0.619169
 40
0.003
 41
0.003
  0
LWPOLYLINE
  5
1CB
100
AcDbEntity
  8
0
 62
     9
100
AcDbPolyline
 90
        2
 70
     0
 39
0.003
 10
-0.550933
 20
0.619169
 40
0.003
 41
0.003
 10
-0.573193
 20
0.633835
 40
0.003
 41
0.003
  0
LWPOLYLINE
  5
1CC
100
AcDbEntity
  8
0
 62
     9
100
AcDbPolyline
 90
        2
 70
     0
 39
0.003
 10
-0.550933
 20
0.619169
 40
0.003
 41
0.003
 10
0.093382
 20
0.996098
 40
0.003
 41
0.003
  0
LWPOLYLINE
  5
1CD
100
AcDbEntity
  8
0
 62
     9
100
AcDbPolyline
 90
        2
 70
     0
 39
0.003
 10
0.093382
 20
0.996098
 40
0.003
 41
0.003
 10
0.113531
 20
0.979878
 40
0.003
 41
0.003
  0
LWPOLYLINE
  5
1CE
100
AcDbEntity
  8
0
 62
     9
100
AcDbPolyline
 90
        2
 70
     0
 39
0.003
 10
0.113531
 20
0.979878
 40
0.003
 41
0.003
 10
-0.530783
 20
0.602949
 40
0.003
 41
0.003
  0
LWPOLYLINE
  5
1CF
100
AcDbEntity
  8
0
 62
     9
100
AcDbPolyline
 90
        2
 70
     0
 39
0.003
 10
-0.530783
 20
0.602949
 40
0.003
 41
0.003
 10
-0.550933
 20
0.619169
 40
0.003
 41
0.003
  0
LWPOLYLINE
  5
1D0
100
AcDbEntity
  8
0
 62
     9
100
AcDbPolyline
 90
        2
 70
     0
 39
0.003
 10
-0.530783
 20
0.602949
 40
0.003
 41
0.003
 10
0.113531
 20
0.979878
 40
0.003
 41
0.003
  0
LWPOLYLINE
  5
1D1
100
AcDbEntity
  8
0
 62
     9
100
AcDbPolyline
 90
        2
 70
     0
 39
0.003
 10
0.113531
 20
0.979878
 40
0.003
 41
0.003
 10
0.131689
 20
0.962209
 40
0.003
 41
0.003
  0
LWPOLYLINE
  5
1D2
100
AcDbEntity
  8
0
 62
     9
100
AcDbPolyline
 90
        2
 70
     0
 39
0.003
 10
0.131689
 20
0.962209
 40
0.003
 41
0.003
 10
-0.512626
 20
0.58528
 40
0.003
 41
0.003
  0
LWPOLYLINE
  5
1D3
100
AcDbEntity
  8
0
 62
     9
100
AcDbPolyline
 90
        2
 70
     0
 39
0.003
 10
-0.512626
 20
0.58528
 40
0.003
 41
0.003
 10
-0.530783
 20
0.602949
 40
0.003
 41
0.003
  0
LWPOLYLINE
  5
1D4
100
AcDbEntity
  8
0
 62
     9
100
AcDbPolyline
 90
        2
 70
     0
 39
0.003
 10
-0.512626
 20
0.58528
 40
0.003
 41
0.003
 10
0.131689
 20
0.962209
 40
0.003
 41
0.003
  0
LWPOLYLINE
  5
1D5
100
AcDbEntity
  8
0
 62
     9
100
AcDbPolyline
 90
        2
 70
     0
 39
0.003
 10
0.131689
 20
0.962209
 40
0.003
 41
0.003
 10
0.147996
 20
0.943169
 40
0.003
 41
0.003
  0
LWPOLYLINE
  5
1D6
100
AcDbEntity
  8
0
 62
     9
100
AcDbPolyline
 90
        2
 70
     0
 39
0.003
 10
0.147996
 20
0.943169
 40
0.003
 41
0.003
 10
-0.496319
 20
0.56624
 40
0.003
 41
0.003
  0
LWPOLYLINE
  5
1D7
100
AcDbEntity
  8
0
 62
     9
100
AcDbPolyline
 90
        2
 70
     0
 39
0.003
 10
-0.496319
 20
0.56624
 40
0.003
 41
0.003
 10
-0.512626
 20
0.58528
 40
0.003
 41
0.003
  0
LWPOLYLINE
  5
1D8
100
AcDbEntity
  8
0
 62
     9
100
AcDbPolyline
 90
        2
 70
     0
 39
0.003
 10
-0.496319
 20
0.56624
 40
0.003
 41
0.003
 10
0.147996
 20
0.943169
 40
0.003
 41
0.003
  0
LWPOLYLINE
  5
1D9
100
AcDbEntity
  8
0
 62
     9
100
AcDbPolyline
 90
        2
 70
     0
 39
0.003
 10
0.147996
 20
0.943169
 40
0.003
 41
0.003
 10
0.162571
 20
0.922854
 40
0.003
 41
0.003
  0
LWPOLYLINE
  5
1DA
100
AcDbEntity
  8
0
 62
     9
100
AcDbPolyline
 90
        2
 70
     0
 39
0.003
 10
0.162571
 20
0.922854
 40
0.003
 41
0.003
 10
-0.481744
 20
0.545925
 40
0.003
 41
0.003
  0
LWPOLYLINE
  5
1DB
100
AcDbEntity
  8
0
 62
     9
100
AcDbPolyline
 90
        2
 70
     0
 39
0.003
 10
-0.481744
 20
0.545925
 40
0.003
 41
0.003
 10
-0.496319
 20
0.56624
 40
0.003
 41
0.003
  0
LWPOLYLINE
  5
1DC
100
AcDbEntity
  8
0
 62
     9
100
AcDbPolyline
 90
        2
 70
     0
 39
0.003
 10
-0.481744
 20
0.545925
 40
0.003
 41
0.003
 10
0.162571
 20
0.922854
 40
0.003
 41
0.003
  0
LWPOLYLINE
  5
1DD
100
AcDbEntity
  8
0
 62
     9
100
AcDbPolyline
 90
        2
 70
     0
 39
0.003
 10
0.162571
 20
0.922854
 40
0.003
 41
0.003
 10
0.175559
 20
0.901343
 40
0.003
 41
0.003
  0
LWPOLYLINE
  5
1DE
100
AcDbEntity
  8
0
 62
     9
100
AcDbPolyline
 90
        2
 70
     0
 39
0.003
 10
0.175559
 20
0.901343
 40
0.003
 41
0.003
 10
-0.468756
 20
0.524413
 40
0.003
 41
0.003
  0
LWPOLYLINE
  5
1DF
100
AcDbEntity
  8
0
 62
     9
100
AcDbPolyline
 90
        2
 70
     0
 39
0.003
 10
-0.468756
 20
0.524413
 40
0.003
 41
0.003
 10
-0.481744
 20
0.545925
 40
0.003
 41
0.003
  0
LWPOLYLINE
  5
1E0
100
AcDbEntity
  8
0
 62
     9
100
AcDbPolyline
 90
        2
 70
     0
 39
0.003
 10
-0.468756
 20
0.524413
 40
0.003
 41
0.003
 10
0.175559
 20
0.901343
 40
0.003
 41
0.003
  0
LWPOLYLINE
  5
1E1
100
AcDbEntity
  8
0
 62
     9
100
AcDbPolyline
 90
        2
 70
     0
 39
0.003
 10
0.175559
 20
0.901343
 40
0.003
 41
0.003
 10
0.187087
 20
0.878728
 40
0.003
 41
0.003
  0
LWPOLYLINE
  5
1E2
100
AcDbEntity
  8
0
 62
     9
100
AcDbPolyline
 90
        2
 70
     0
 39
0.003
 10
0.187087
 20
0.878728
 40
0.003
 41
0.003
 10
-0.457228
 20
0.501799
 40
0.003
 41
0.003
  0
LWPOLYLINE
  5
1E3
100
AcDbEntity
  8
0
 62
     9
100
AcDbPolyline
 90
        2
 70
     0
 39
0.003
 10
-0.457228
 20
0.501799
 40
0.003
 41
0.003
 10
-0.468756
 20
0.524413
 40
0.003
 41
0.003
  0
LWPOLYLINE
  5
1E4
100
AcDbEntity
  8
0
 62
     9
100
AcDbPolyline
 90
        2
 70
     0
 39
0.003
 10
-0.457228
 20
0.501799
 40
0.003
 41
0.003
 10
0.187087
 20
0.878728
 40
0.003
 41
0.003
  0
LWPOLYLINE
  5
1E5
100
AcDbEntity
  8
0
 62
     9
100
AcDbPolyline
 90
        2
 70
     0
 39
0.003
 10
0.187087
 20
0.878728
 40
0.003
 41
0.003
 10
0.197287
 20
0.855098
 40
0.003
 41
0.003
  0
LWPOLYLINE
  5
1E6
100
AcDbEntity
  8
0
 62
     9
100
AcDbPolyline
 90
        2
 70
     0
 39
0.003
 10
0.197287
 20
0.855098
 40
0.003
 41
0.003
 10
-0.447028
 20
0.478169
 40
0.003
 41
0.003
  0
LWPOLYLINE
  5
1E7
100
AcDbEntity
  8
0
 62
     9
100
AcDbPolyline
 90
        2
 70
     0
 39
0.003
 10
-0.447028
 20
0.478169
 40
0.003
 41
0.003
 10
-0.457228
 20
0.501799
 40
0.003
 41
0.003
  0
LWPOLYLINE
  5
1E8
100
AcDbEntity
  8
0
 62
     9
100
AcDbPolyline
 90
        2
 70
     0
 39
0.003
 10
-0.447028
 20
0.478169
 40
0.003
 41
0.003
 10
0.197287
 20
0.855098
 40
0.003
 41
0.003
  0
LWPOLYLINE
  5
1E9
100
AcDbEntity
  8
0
 62
     9
100
AcDbPolyline
 90
        2
 70
     0
 39
0.003
 10
0.197287
 20
0.855098
 40
0.003
 41
0.003
 10
0.206287
 20
0.830547
 40
0.003
 41
0.003
  0
LWPOLYLINE
  5
1EA
100
AcDbEntity
  8
0
 62
     9
100
AcDbPolyline
 90
        2
 70
     0
 39
0.003
 10
0.206287
 20
0.830547
 40
0.003
 41
0.003
 10
-0.438028
 20
0.453618
 40
0.003
 41
0.003
  0
LWPOLYLINE
  5
1EB
100
AcDbEntity
  8
0
 62
     9
100
AcDbPolyline
 90
        2
 70
     0
 39
0.003
 10
-0.438028
 20
0.453618
 40
0.003
 41
0.003
 10
-0.447028
 20
0.478169
 40
0.003
 41
0.003
  0
LWPOLYLINE
  5
1EC
100
AcDbEntity
  8
0
 62
     9
100
AcDbPolyline
 90
        2
 70
     0
 39
0.003
 10
-0.438028
 20
0.453618
 40
0.003
 41
0.003
 10
0.206287
 20
0.830547
 40
0.003
 41
0.003
  0
LWPOLYLINE
  5
1ED
100
AcDbEntity
  8
0
 62
     9
100
AcDbPolyline
 90
        2
 70
     0
 39
0.003
 10
0.206287
 20
0.830547
 40
0.003
 41
0.003
 10
0.214236
 20
0.80515
 40
0.003
 41
0.003
  0
LWPOLYLINE
  5
1EE
100
AcDbEntity
  8
0
 62
     9
100
AcDbPolyline
 90
        2
 70
     0
 39
0.003
 10
0.214236
 20
0.80515
 40
0.003
 41
0.003
 10
-0.430079
 20
0.42822
 40
0.003
 41
0.003
  0
LWPOLYLINE
  5
1EF
100
AcDbEntity
  8
0
 62
     9
100
AcDbPolyline
 90
        2
 70
     0
 39
0.003
 10
-0.430079
 20
0.42822
 40
0.003
 41
0.003
 10
-0.438028
 20
0.453618
 40
0.003
 41
0.003
  0
LWPOLYLINE
  5
1F0
100
AcDbEntity
  8
0
 62
     9
100
AcDbPolyline
 90
        2
 70
     0
 39
0.003
 10
-0.430079
 20
0.42822
 40
0.003
 41
0.003
 10
0.214236
 20
0.80515
 40
0.003
 41
0.003
  0
LWPOLYLINE
  5
1F1
100
AcDbEntity
  8
0
 62
     9
100
AcDbPolyline
 90
        2
 70
     0
 39
0.003
 10
0.214236
 20
0.80515
 40
0.003
 41
0.003
 10
0.221248
 20
0.779004
 40
0.003
 41
0.003
  0
LWPOLYLINE
  5
1F2
100
AcDbEntity
  8
0
 62
     9
100
AcDbPolyline
 90
        2
 70
     0
 39
0.003
 10
0.221248
 20
0.779004
 40
0.003
 41
0.003
 10
-0.423067
 20
0.402075
 40
0.003
 41
0.003
  0
LWPOLYLINE
  5
1F3
100
AcDbEntity
  8
0
 62
     9
100
AcDbPolyline
 90
        2
 70
     0
 39
0.003
 10
-0.423067
 20
0.402075
 40
0.003
 41
0.003
 10
-0.430079
 20
0.42822
 40
0.003
 41
0.003
  0
LWPOLYLINE
  5
1F4
100
AcDbEntity
  8
0
 62
     9
100
AcDbPolyline
 90
        2
 70
     0
 39
0.003
 10
-0.423067
 20
0.402075
 40
0.003
 41
0.003
 10
0.221248
 20
0.779004
 40
0.003
 41
0.003
  0
LWPOLYLINE
  5
1F5
100
AcDbEntity
  8
0
 62
     9
100
AcDbPolyline
 90
        2
 70
     0
 39
0.003
 10
0.221248
 20
0.779004
 40
0.003
 41
0.003
 10
0.227465
 20
0.752193
 40
0.003
 41
0.003
  0
LWPOLYLINE
  5
1F6
100
AcDbEntity
  8
0
 62
     9
100
AcDbPolyline
 90
        2
 70
     0
 39
0.003
 10
0.227465
 20
0.752193
 40
0.003
 41
0.003
 10
-0.41685
 20
0.375264
 40
0.003
 41
0.003
  0
LWPOLYLINE
  5
1F7
100
AcDbEntity
  8
0
 62
     9
100
AcDbPolyline
 90
        2
 70
     0
 39
0.003
 10
-0.41685
 20
0.375264
 40
0.003
 41
0.003
 10
-0.423067
 20
0.402075
 40
0.003
 41
0.003
  0
LWPOLYLINE
  5
1F8
100
AcDbEntity
  8
0
 62
     9
100
AcDbPolyline
 90
        2
 70
     0
 39
0.003
 10
-0.41685
 20
0.375264
 40
0.003
 41
0.003
 10
0.227465
 20
0.752193
 40
0.003
 41
0.003
  0
LWPOLYLINE
  5
1F9
100
AcDbEntity
  8
0
 62
     9
100
AcDbPolyline
 90
        2
 70
     0
 39
0.003
 10
0.227465
 20
0.752193
 40
0.003
 41
0.003
 10
0.233008
 20
0.724815
 40
0.003
 41
0.003
  0
LWPOLYLINE
  5
1FA
100
AcDbEntity
  8
0
 62
     9
100
AcDbPolyline
 90
        2
 70
     0
 39
0.003
 10
0.233008
 20
0.724815
 40
0.003
 41
0.003
 10
-0.411307
 20
0.347886
 40
0.003
 41
0.003
  0
LWPOLYLINE
  5
1FB
100
AcDbEntity
  8
0
 62
     9
100
AcDbPolyline
 90
        2
 70
     0
 39
0.003
 10
-0.411307
 20
0.347886
 40
0.003
 41
0.003
 10
-0.41685
 20
0.375264
 40
0.003
 41
0.003
  0
LWPOLYLINE
  5
1FC
100
AcDbEntity
  8
0
 62
     9
100
AcDbPolyline
 90
        2
 70
     0
 39
0.003
 10
-0.411307
 20
0.347886
 40
0.003
 41
0.003
 10
0.233008
 20
0.724815
 40
0.003
 41
0.003
  0
LWPOLYLINE
  5
1FD
100
AcDbEntity
  8
0
 62
     9
100
AcDbPolyline
 90
        2
 70
     0
 39
0.003
 10
0.233008
 20
0.724815
 40
0.003
 41
0.003
 10
0.238028
 20
0.696945
 40
0.003
 41
0.003
  0
LWPOLYLINE
  5
1FE
100
AcDbEntity
  8
0
 62
     9
100
AcDbPolyline
 90
        2
 70
     0
 39
0.003
 10
0.238028
 20
0.696945
 40
0.003
 41
0.003
 10
-0.406287
 20
0.320016
 40
0.003
 41
0.003
  0
LWPOLYLINE
  5
1FF
100
AcDbEntity
  8
0
 62
     9
100
AcDbPolyline
 90
        2
 70
     0
 39
0.003
 10
-0.406287
 20
0.320016
 40
0.003
 41
0.003
 10
-0.411307
 20
0.347886
 40
0.003
 41
0.003
  0
LWPOLYLINE
  5
200
100
AcDbEntity
  8
0
 62
     9
100
AcDbPolyline
 90
        2
 70
     0
 39
0.003
 10
-0.406287
 20
0.320016
 40
0.003
 41
0.003
 10
0.238028
 20
0.696945
 40
0.003
 41
0.003
  0
LWPOLYLINE
  5
201
100
AcDbEntity
  8
0
 62
     9
100
AcDbPolyline
 90
        2
 70
     0
 39
0.003
 10
0.238028
 20
0.696945
 40
0.003
 41
0.003
 10
0.242638
 20
0.668681
 40
0.003
 41
0.003
  0
LWPOLYLINE
  5
202
100
AcDbEntity
  8
0
 62
     9
100
AcDbPolyline
 90
        2
 70
     0
 39
0.003
 10
0.242638
 20
0.668681
 40
0.003
 41
0.003
 10
-0.401677
 20
0.291752
 40
0.003
 41
0.003
  0
LWPOLYLINE
  5
203
100
AcDbEntity
  8
0
 62
     9
100
AcDbPolyline
 90
        2
 70
     0
 39
0.003
 10
-0.401677
 20
0.291752
 40
0.003
 41
0.003
 10
-0.406287
 20
0.320016
 40
0.003
 41
0.003
  0
LWPOLYLINE
  5
204
100
AcDbEntity
  8
0
 62
     9
100
AcDbPolyline
 90
        2
 70
     0
 39
0.003
 10
-0.401677
 20
0.291752
 40
0.003
 41
0.003
 10
0.242638
 20
0.668681
 40
0.003
 41
0.003
  0
LWPOLYLINE
  5
205
100
AcDbEntity
  8
0
 62
     9
100
AcDbPolyline
 90
        2
 70
     0
 39
0.003
 10
0.242638
 20
0.668681
 40
0.003
 41
0.003
 10
0.24698
 20
0.640106
 40
0.003
 41
0.003
  0
LWPOLYLINE
  5
206
100
AcDbEntity
  8
0
 62
     9
100
AcDbPolyline
 90
        2
 70
     0
 39
0.003
 10
0.24698
 20
0.640106
 40
0.003
 41
0.003
 10
-0.397335
 20
0.263177
 40
0.003
 41
0.003
  0
LWPOLYLINE
  5
207
100
AcDbEntity
  8
0
 62
     9
100
AcDbPolyline
 90
        2
 70
     0
 39
0.003
 10
-0.397335
 20
0.263177
 40
0.003
 41
0.003
 10
-0.401677
 20
0.291752
 40
0.003
 41
0.003
  0
LWPOLYLINE
  5
208
100
AcDbEntity
  8
0
 62
     9
100
AcDbPolyline
 90
        2
 70
     0
 39
0.003
 10
-0.397335
 20
0.263177
 40
0.003
 41
0.003
 10
0.24698
 20
0.640106
 40
0.003
 41
0.003
  0
LWPOLYLINE
  5
209
100
AcDbEntity
  8
0
 62
     9
100
AcDbPolyline
 90
        2
 70
     0
 39
0.003
 10
0.24698
 20
0.640106
 40
0.003
 41
0.003
 10
0.251177
 20
0.611319
 40
0.003
 41
0.003
  0
LWPOLYLINE
  5
20A
100
AcDbEntity
  8
0
 62
     9
100
AcDbPolyline
 90
        2
 70
     0
 39
0.003
 10
0.251177
 20
0.611319
 40
0.003
 41
0.003
 10
-0.393138
 20
0.23439
 40
0.003
 41
0.003
  0
LWPOLYLINE
  5
20B
100
AcDbEntity
  8
0
 62
     9
100
AcDbPolyline
 90
        2
 70
     0
 39
0.003
 10
-0.393138
 20
0.23439
 40
0.003
 41
0.003
 10
-0.397335
 20
0.263177
 40
0.003
 41
0.003
  0
LWPOLYLINE
  5
20C
100
AcDbEntity
  8
0
 62
     9
100
AcDbPolyline
 90
        2
 70
     0
 39
0.003
 10
-0.393138
 20
0.23439
 40
0.003
 41
0.003
 10
0.251177
 20
0.611319
 40
0.003
 41
0.003
  0
LWPOLYLINE
  5
20D
100
AcDbEntity
  8
0
 62
     9
100
AcDbPolyline
 90
        2
 70
     0
 39
0.003
 10
0.251177
 20
0.611319
 40
0.003
 41
0.003
 10
0.255382
 20
0.58239
 40
0.003
 41
0.003
  0
LWPOLYLINE
  5
20E
100
AcDbEntity
  8
0
 62
     9
100
AcDbPolyline
 90
        2
 70
     0
 39
0.003
 10
0.255382
 20
0.58239
 40
0.003
 41
0.003
 10
-0.388933
 20
0.205461
 40
0.003
 41
0.003
  0
LWPOLYLINE
  5
20F
100
AcDbEntity
  8
0
 62
     9
100
AcDbPolyline
 90
        2
 70
     0
 39
0.003
 10
-0.388933
 20
0.205461
 40
0.003
 41
0.003
 10
-0.393138
 20
0.23439
 40
0.003
 41
0.003
  0
LWPOLYLINE
  5
210
100
AcDbEntity
  8
0
 62
     9
100
AcDbPolyline
 90
        2
 70
     0
 39
0.003
 10
-0.388933
 20
0.205461
 40
0.003
 41
0.003
 10
0.255382
 20
0.58239
 40
0.003
 41
0.003
  0
LWPOLYLINE
  5
211
100
AcDbEntity
  8
0
 62
     9
100
AcDbPolyline
 90
        2
 70
     0
 39
0.003
 10
0.255382
 20
0.58239
 40
0.003
 41
0.003
 10
0.259705
 20
0.553421
 40
0.003
 41
0.003
  0
LWPOLYLINE
  5
212
100
AcDbEntity
  8
0
 62
     9
100
AcDbPolyline
 90
        2
 70
     0
 39
0.003
 10
0.259705
 20
0.553421
 40
0.003
 41
0.003
 10
-0.38461
 20
0.176492
 40
0.003
 41
0.003
  0
LWPOLYLINE
  5
213
100
AcDbEntity
  8
0
 62
     9
100
AcDbPolyline
 90
        2
 70
     0
 39
0.003
 10
-0.38461
 20
0.176492
 40
0.003
 41
0.003
 10
-0.388933
 20
0.205461
 40
0.003
 41
0.003
  0
LWPOLYLINE
  5
214
100
AcDbEntity
  8
0
 62
     9
100
AcDbPolyline
 90
        2
 70
     0
 39
0.003
 10
-0.38461
 20
0.176492
 40
0.003
 41
0.003
 10
0.259705
 20
0.553421
 40
0.003
 41
0.003
  0
LWPOLYLINE
  5
215
100
AcDbEntity
  8
0
 62
     9
100
AcDbPolyline
 90
        2
 70
     0
 39
0.003
 10
0.259705
 20
0.553421
 40
0.003
 41
0.003
 10
0.264287
 20
0.524492
 40
0.003
 41
0.003
  0
LWPOLYLINE
  5
216
100
AcDbEntity
  8
0
 62
     9
100
AcDbPolyline
 90
        2
 70
     0
 39
0.003
 10
0.264287
 20
0.524492
 40
0.003
 41
0.003
 10
-0.380028
 20
0.147563
 40
0.003
 41
0.003
  0
LWPOLYLINE
  5
217
100
AcDbEntity
  8
0
 62
     9
100
AcDbPolyline
 90
        2
 70
     0
 39
0.003
 10
-0.380028
 20
0.147563
 40
0.003
 41
0.003
 10
-0.38461
 20
0.176492
 40
0.003
 41
0.003
  0
LWPOLYLINE
  5
218
100
AcDbEntity
  8
0
 62
     9
100
AcDbPolyline
 90
        2
 70
     0
 39
0.003
 10
-0.380028
 20
0.147563
 40
0.003
 41
0.003
 10
0.264287
 20
0.524492
 40
0.003
 41
0.003
  0
LWPOLYLINE
  5
219
100
AcDbEntity
  8
0
 62
     9
100
AcDbPolyline
 90
        2
 70
     0
 39
0.003
 10
0.264287
 20
0.524492
 40
0.003
 41
0.003
 10
0.26926
 20
0.495705
 40
0.003
 41
0.003
  0
LWPOLYLINE
  5
21A
100
AcDbEntity
  8
0
 62
     9
100
AcDbPolyline
 90
        2
 70
     0
 39
0.003
 10
0.26926
 20
0.495705
 40
0.003
 41
0.003
 10
-0.375055
 20
0.118776
 40
0.003
 41
0.003
  0
LWPOLYLINE
  5
21B
100
AcDbEntity
  8
0
 62
     9
100
AcDbPolyline
 90
        2
 70
     0
 39
0.003
 10
-0.375055
 20
0.118776
 40
0.003
 41
0.003
 10
-0.380028
 20
0.147563
 40
0.003
 41
0.003
  0
LWPOLYLINE
  5
21C
100
AcDbEntity
  8
0
 62
     9
100
AcDbPolyline
 90
        2
 70
     0
 39
0.003
 10
-0.375055
 20
0.118776
 40
0.003
 41
0.003
 10
0.26926
 20
0.495705
 40
0.003
 41
0.003
  0
LWPOLYLINE
  5
21D
100
AcDbEntity
  8
0
 62
     9
100
AcDbPolyline
 90
        2
 70
     0
 39
0.003
 10
0.26926
 20
0.495705
 40
0.003
 41
0.003
 10
0.27476
 20
0.467126
 40
0.003
 41
0.003
  0
LWPOLYLINE
  5
21E
100
AcDbEntity
  8
0
 62
     9
100
AcDbPolyline
 90
        2
 70
     0
 39
0.003
 10
0.27476
 20
0.467126
 40
0.003
 41
0.003
 10
-0.369555
 20
0.090197
 40
0.003
 41
0.003
  0
LWPOLYLINE
  5
21F
100
AcDbEntity
  8
0
 62
     9
100
AcDbPolyline
 90
        2
 70
     0
 39
0.003
 10
-0.369555
 20
0.090197
 40
0.003
 41
0.003
 10
-0.375055
 20
0.118776
 40
0.003
 41
0.003
  0
LWPOLYLINE
  5
220
100
AcDbEntity
  8
0
 62
     9
100
AcDbPolyline
 90
        2
 70
     0
 39
0.003
 10
-0.369555
 20
0.090197
 40
0.003
 41
0.003
 10
0.27476
 20
0.467126
 40
0.003
 41
0.003
  0
LWPOLYLINE
  5
221
100
AcDbEntity
  8
0
 62
     9
100
AcDbPolyline
 90
        2
 70
     0
 39
0.003
 10
0.27476
 20
0.467126
 40
0.003
 41
0.003
 10
0.280909
 20
0.438866
 40
0.003
 41
0.003
  0
LWPOLYLINE
  5
222
100
AcDbEntity
  8
0
 62
     9
100
AcDbPolyline
 90
        2
 70
     0
 39
0.003
 10
0.280909
 20
0.438866
 40
0.003
 41
0.003
 10
-0.363406
 20
0.061937
 40
0.003
 41
0.003
  0
LWPOLYLINE
  5
223
100
AcDbEntity
  8
0
 62
     9
100
AcDbPolyline
 90
        2
 70
     0
 39
0.003
 10
-0.363406
 20
0.061937
 40
0.003
 41
0.003
 10
-0.369555
 20
0.090197
 40
0.003
 41
0.003
  0
LWPOLYLINE
  5
224
100
AcDbEntity
  8
0
 62
     9
100
AcDbPolyline
 90
        2
 70
     0
 39
0.003
 10
-0.363406
 20
0.061937
 40
0.003
 41
0.003
 10
0.280909
 20
0.438866
 40
0.003
 41
0.003
  0
LWPOLYLINE
  5
225
100
AcDbEntity
  8
0
 62
     9
100
AcDbPolyline
 90
        2
 70
     0
 39
0.003
 10
0.280909
 20
0.438866
 40
0.003
 41
0.003
 10
0.28785
 20
0.410996
 40
0.003
 41
0.003
  0
LWPOLYLINE
  5
226
100
AcDbEntity
  8
0
 62
     9
100
AcDbPolyline
 90
        2
 70
     0
 39
0.003
 10
0.28785
 20
0.410996
 40
0.003
 41
0.003
 10
-0.356465
 20
0.034067
 40
0.003
 41
0.003
  0
LWPOLYLINE
  5
227
100
AcDbEntity
  8
0
 62
     9
100
AcDbPolyline
 90
        2
 70
     0
 39
0.003
 10
-0.356465
 20
0.034067
 40
0.003
 41
0.003
 10
-0.363406
 20
0.061937
 40
0.003
 41
0.003
  0
LWPOLYLINE
  5
228
100
AcDbEntity
  8
0
 62
     9
100
AcDbPolyline
 90
        2
 70
     0
 39
0.003
 10
-0.356465
 20
0.034067
 40
0.003
 41
0.003
 10
0.28785
 20
0.410996
 40
0.003
 41
0.003
  0
LWPOLYLINE
  5
229
100
AcDbEntity
  8
0
 62
     9
100
AcDbPolyline
 90
        2
 70
     0
 39
0.003
 10
0.28785
 20
0.410996
 40
0.003
 41
0.003
 10
0.295705
 20
0.383622
 40
0.003
 41
0.003
  0
LWPOLYLINE
  5
22A
100
AcDbEntity
  8
0
 62
     9
100
AcDbPolyline
 90
        2
 70
     0
 39
0.003
 10
0.295705
 20
0.383622
 40
0.003
 41
0.003
 10
-0.34861
 20
0.006693
 40
0.003
 41
0.003
  0
LWPOLYLINE
  5
22B
100
AcDbEntity
  8
0
 62
     9
100
AcDbPolyline
 90
        2
 70
     0
 39
0.003
 10
-0.34861
 20
0.006693
 40
0.003
 41
0.003
 10
-0.356465
 20
0.034067
 40
0.003
 41
0.003
  0
LWPOLYLINE
  5
22C
100
AcDbEntity
  8
0
 62
     9
100
AcDbPolyline
 90
        2
 70
     0
 39
0.003
 10
-0.34861
 20
0.006693
 40
0.003
 41
0.003
 10
0.295705
 20
0.383622
 40
0.003
 41
0.003
  0
LWPOLYLINE
  5
22D
100
AcDbEntity
  8
0
 62
     9
100
AcDbPolyline
 90
        2
 70
     0
 39
0.003
 10
0.295705
 20
0.383622
 40
0.003
 41
0.003
 10
0.303287
 20
0.362878
 40
0.003
 41
0.003
  0
LWPOLYLINE
  5
22E
100
AcDbEntity
  8
0
 62
     9
100
AcDbPolyline
 90
        2
 70
     0
 39
0.003
 10
0.303287
 20
0.362878
 40
0.003
 41
0.003
 10
-0.341028
 20
-0.014051
 40
0.003
 41
0.003
  0
LWPOLYLINE
  5
22F
100
AcDbEntity
  8
0
 62
     9
100
AcDbPolyline
 90
        2
 70
     0
 39
0.003
 10
-0.341028
 20
-0.014051
 40
0.003
 41
0.003
 10
-0.34861
 20
0.006693
 40
0.003
 41
0.003
  0
LWPOLYLINE
  5
230
100
AcDbEntity
  8
0
 62
     9
100
AcDbPolyline
 90
        2
 70
     0
 39
0.003
 10
-0.341028
 20
-0.014051
 40
0.003
 41
0.003
 10
0.303287
 20
0.362878
 40
0.003
 41
0.003
  0
LWPOLYLINE
  5
231
100
AcDbEntity
  8
0
 62
     9
100
AcDbPolyline
 90
        2
 70
     0
 39
0.003
 10
0.303287
 20
0.362878
 40
0.003
 41
0.003
 10
0.313024
 20
0.342346
 40
0.003
 41
0.003
  0
LWPOLYLINE
  5
232
100
AcDbEntity
  8
0
 62
     9
100
AcDbPolyline
 90
        2
 70
     0
 39
0.003
 10
0.313024
 20
0.342346
 40
0.003
 41
0.003
 10
-0.331291
 20
-0.034583
 40
0.003
 41
0.003
  0
LWPOLYLINE
  5
233
100
AcDbEntity
  8
0
 62
     9
100
AcDbPolyline
 90
        2
 70
     0
 39
0.003
 10
-0.331291
 20
-0.034583
 40
0.003
 41
0.003
 10
-0.341028
 20
-0.014051
 40
0.003
 41
0.003
  0
LWPOLYLINE
  5
234
100
AcDbEntity
  8
0
 62
     9
100
AcDbPolyline
 90
        2
 70
     0
 39
0.003
 10
-0.331291
 20
-0.034583
 40
0.003
 41
0.003
 10
0.313024
 20
0.342346
 40
0.003
 41
0.003
  0
LWPOLYLINE
  5
235
100
AcDbEntity
  8
0
 62
     9
100
AcDbPolyline
 90
        2
 70
     0
 39
0.003
 10
0.313024
 20
0.342346
 40
0.003
 41
0.003
 10
0.324709
 20
0.321976
 40
0.003
 41
0.003
  0
LWPOLYLINE
  5
236
100
AcDbEntity
  8
0
 62
     9
100
AcDbPolyline
 90
        2
 70
     0
 39
0.003
 10
0.324709
 20
0.321976
 40
0.003
 41
0.003
 10
-0.319606
 20
-0.054953
 40
0.003
 41
0.003
  0
LWPOLYLINE
  5
237
100
AcDbEntity
  8
0
 62
     9
100
AcDbPolyline
 90
        2
 70
     0
 39
0.003
 10
-0.319606
 20
-0.054953
 40
0.003
 41
0.003
 10
-0.331291
 20
-0.034583
 40
0.003
 41
0.003
  0
LWPOLYLINE
  5
238
100
AcDbEntity
  8
0
 62
     9
100
AcDbPolyline
 90
        2
 70
     0
 39
0.003
 10
-0.319606
 20
-0.054953
 40
0.003
 41
0.003
 10
0.324709
 20
0.321976
 40
0.003
 41
0.003
  0
LWPOLYLINE
  5
239
100
AcDbEntity
  8
0
 62
     9
100
AcDbPolyline
 90
        2
 70
     0
 39
0.003
 10
0.324709
 20
0.321976
 40
0.003
 41
0.003
 10
0.338138
 20
0.301724
 40
0.003
 41
0.003
  0
LWPOLYLINE
  5
23A
100
AcDbEntity
  8
0
 62
     9
100
AcDbPolyline
 90
        2
 70
     0
 39
0.003
 10
0.338138
 20
0.301724
 40
0.003
 41
0.003
 10
-0.306177
 20
-0.075205
 40
0.003
 41
0.003
  0
LWPOLYLINE
  5
23B
100
AcDbEntity
  8
0
 62
     9
100
AcDbPolyline
 90
        2
 70
     0
 39
0.003
 10
-0.306177
 20
-0.075205
 40
0.003
 41
0.003
 10
-0.319606
 20
-0.054953
 40
0.003
 41
0.003
  0
LWPOLYLINE
  5
23C
100
AcDbEntity
  8
0
 62
     9
100
AcDbPolyline
 90
        2
 70
     0
 39
0.003
 10
-0.306177
 20
-0.075205
 40
0.003
 41
0.003
 10
0.338138
 20
0.301724
 40
0.003
 41
0.003
  0
LWPOLYLINE
  5
23D
100
AcDbEntity
  8
0
 62
     9
100
AcDbPolyline
 90
        2
 70
     0
 39
0.003
 10
0.338138
 20
0.301724
 40
0.003
 41
0.003
 10
0.353118
 20
0.281543
 40
0.003
 41
0.003
  0
LWPOLYLINE
  5
23E
100
AcDbEntity
  8
0
 62
     9
100
AcDbPolyline
 90
        2
 70
     0
 39
0.003
 10
0.353118
 20
0.281543
 40
0.003
 41
0.003
 10
-0.291197
 20
-0.095386
 40
0.003
 41
0.003
  0
LWPOLYLINE
  5
23F
100
AcDbEntity
  8
0
 62
     9
100
AcDbPolyline
 90
        2
 70
     0
 39
0.003
 10
-0.291197
 20
-0.095386
 40
0.003
 41
0.003
 10
-0.306177
 20
-0.075205
 40
0.003
 41
0.003
  0
LWPOLYLINE
  5
240
100
AcDbEntity
  8
0
 62
     9
100
AcDbPolyline
 90
        2
 70
     0
 39
0.003
 10
-0.291197
 20
-0.095386
 40
0.003
 41
0.003
 10
0.353118
 20
0.281543
 40
0.003
 41
0.003
  0
LWPOLYLINE
  5
241
100
AcDbEntity
  8
0
 62
     9
100
AcDbPolyline
 90
        2
 70
     0
 39
0.003
 10
0.353118
 20
0.281543
 40
0.003
 41
0.003
 10
0.369429
 20
0.261398
 40
0.003
 41
0.003
  0
LWPOLYLINE
  5
242
100
AcDbEntity
  8
0
 62
     9
100
AcDbPolyline
 90
        2
 70
     0
 39
0.003
 10
0.369429
 20
0.261398
 40
0.003
 41
0.003
 10
-0.274886
 20
-0.115531
 40
0.003
 41
0.003
  0
LWPOLYLINE
  5
243
100
AcDbEntity
  8
0
 62
     9
100
AcDbPolyline
 90
        2
 70
     0
 39
0.003
 10
-0.274886
 20
-0.115531
 40
0.003
 41
0.003
 10
-0.291197
 20
-0.095386
 40
0.003
 41
0.003
  0
LWPOLYLINE
  5
244
100
AcDbEntity
  8
0
 62
     9
100
AcDbPolyline
 90
        2
 70
     0
 39
0.003
 10
-0.274886
 20
-0.115531
 40
0.003
 41
0.003
 10
0.369429
 20
0.261398
 40
0.003
 41
0.003
  0
LWPOLYLINE
  5
245
100
AcDbEntity
  8
0
 62
     9
100
AcDbPolyline
 90
        2
 70
     0
 39
0.003
 10
0.369429
 20
0.261398
 40
0.003
 41
0.003
 10
0.386886
 20
0.241236
 40
0.003
 41
0.003
  0
LWPOLYLINE
  5
246
100
AcDbEntity
  8
0
 62
     9
100
AcDbPolyline
 90
        2
 70
     0
 39
0.003
 10
0.386886
 20
0.241236
 40
0.003
 41
0.003
 10
-0.257429
 20
-0.135693
 40
0.003
 41
0.003
  0
LWPOLYLINE
  5
247
100
AcDbEntity
  8
0
 62
     9
100
AcDbPolyline
 90
        2
 70
     0
 39
0.003
 10
-0.257429
 20
-0.135693
 40
0.003
 41
0.003
 10
-0.274886
 20
-0.115531
 40
0.003
 41
0.003
  0
LWPOLYLINE
  5
248
100
AcDbEntity
  8
0
 62
     9
100
AcDbPolyline
 90
        2
 70
     0
 39
0.003
 10
-0.257429
 20
-0.135693
 40
0.003
 41
0.003
 10
0.386886
 20
0.241236
 40
0.003
 41
0.003
  0
LWPOLYLINE
  5
249
100
AcDbEntity
  8
0
 62
     9
100
AcDbPolyline
 90
        2
 70
     0
 39
0.003
 10
0.386886
 20
0.241236
 40
0.003
 41
0.003
 10
0.405268
 20
0.221028
 40
0.003
 41
0.003
  0
LWPOLYLINE
  5
24A
100
AcDbEntity
  8
0
 62
     9
100
AcDbPolyline
 90
        2
 70
     0
 39
0.003
 10
0.405268
 20
0.221028
 40
0.003
 41
0.003
 10
-0.239047
 20
-0.155902
 40
0.003
 41
0.003
  0
LWPOLYLINE
  5
24B
100
AcDbEntity
  8
0
 62
     9
100
AcDbPolyline
 90
        2
 70
     0
 39
0.003
 10
-0.239047
 20
-0.155902
 40
0.003
 41
0.003
 10
-0.257429
 20
-0.135693
 40
0.003
 41
0.003
  0
LWPOLYLINE
  5
24C
100
AcDbEntity
  8
0
 62
     9
100
AcDbPolyline
 90
        2
 70
     0
 39
0.003
 10
-0.239047
 20
-0.155902
 40
0.003
 41
0.003
 10
0.405268
 20
0.221028
 40
0.003
 41
0.003
  0
LWPOLYLINE
  5
24D
100
AcDbEntity
  8
0
 62
     9
100
AcDbPolyline
 90
        2
 70
     0
 39
0.003
 10
0.405268
 20
0.221028
 40
0.003
 41
0.003
 10
0.424382
 20
0.200705
 40
0.003
 41
0.003
  0
LWPOLYLINE
  5
24E
100
AcDbEntity
  8
0
 62
     9
100
AcDbPolyline
 90
        2
 70
     0
 39
0.003
 10
0.424382
 20
0.200705
 40
0.003
 41
0.003
 10
-0.219933
 20
-0.176224
 40
0.003
 41
0.003
  0
LWPOLYLINE
  5
24F
100
AcDbEntity
  8
0
 62
     9
100
AcDbPolyline
 90
        2
 70
     0
 39
0.003
 10
-0.219933
 20
-0.176224
 40
0.003
 41
0.003
 10
-0.239047
 20
-0.155902
 40
0.003
 41
0.003
  0
LWPOLYLINE
  5
250
100
AcDbEntity
  8
0
 62
     9
100
AcDbPolyline
 90
        2
 70
     0
 39
0.003
 10
-0.219933
 20
-0.176224
 40
0.003
 41
0.003
 10
0.424382
 20
0.200705
 40
0.003
 41
0.003
  0
LWPOLYLINE
  5
251
100
AcDbEntity
  8
0
 62
     9
100
AcDbPolyline
 90
        2
 70
     0
 39
0.003
 10
0.424382
 20
0.200705
 40
0.003
 41
0.003
 10
0.444035
 20
0.180244
 40
0.003
 41
0.003
  0
LWPOLYLINE
  5
252
100
AcDbEntity
  8
0
 62
     9
100
AcDbPolyline
 90
        2
 70
     0
 39
0.003
 10
0.444035
 20
0.180244
 40
0.003
 41
0.003
 10
-0.20028
 20
-0.196685
 40
0.003
 41
0.003
  0
LWPOLYLINE
  5
253
100
AcDbEntity
  8
0
 62
     9
100
AcDbPolyline
 90
        2
 70
     0
 39
0.003
 10
-0.20028
 20
-0.196685
 40
0.003
 41
0.003
 10
-0.219933
 20
-0.176224
 40
0.003
 41
0.003
  0
LWPOLYLINE
  5
254
100
AcDbEntity
  8
0
 62
     9
100
AcDbPolyline
 90
        2
 70
     0
 39
0.003
 10
-0.20028
 20
-0.196685
 40
0.003
 41
0.003
 10
0.444035
 20
0.180244
 40
0.003
 41
0.003
  0
LWPOLYLINE
  5
255
100
AcDbEntity
  8
0
 62
     9
100
AcDbPolyline
 90
        2
 70
     0
 39
0.003
 10
0.444035
 20
0.180244
 40
0.003
 41
0.003
 10
0.464008
 20
0.159591
 40
0.003
 41
0.003
  0
LWPOLYLINE
  5
256
100
AcDbEntity
  8
0
 62
     9
100
AcDbPolyline
 90
        2
 70
     0
 39
0.003
 10
0.464008
 20
0.159591
 40
0.003
 41
0.003
 10
-0.180307
 20
-0.217339
 40
0.003
 41
0.003
  0
LWPOLYLINE
  5
257
100
AcDbEntity
  8
0
 62
     9
100
AcDbPolyline
 90
        2
 70
     0
 39
0.003
 10
-0.180307
 20
-0.217339
 40
0.003
 41
0.003
 10
-0.20028
 20
-0.196685
 40
0.003
 41
0.003
  0
LWPOLYLINE
  5
258
100
AcDbEntity
  8
0
 62
     9
100
AcDbPolyline
 90
        2
 70
     0
 39
0.003
 10
-0.180307
 20
-0.217339
 40
0.003
 41
0.003
 10
0.464008
 20
0.159591
 40
0.003
 41
0.003
  0
LWPOLYLINE
  5
259
100
AcDbEntity
  8
0
 62
     9
100
AcDbPolyline
 90
        2
 70
     0
 39
0.003
 10
0.464008
 20
0.159591
 40
0.003
 41
0.003
 10
0.484114
 20
0.138705
 40
0.003
 41
0.003
  0
LWPOLYLINE
  5
25A
100
AcDbEntity
  8
0
 62
     9
100
AcDbPolyline
 90
        2
 70
     0
 39
0.003
 10
0.484114
 20
0.138705
 40
0.003
 41
0.003
 10
-0.160201
 20
-0.238224
 40
0.003
 41
0.003
  0
LWPOLYLINE
  5
25B
100
AcDbEntity
  8
0
 62
     9
100
AcDbPolyline
 90
        2
 70
     0
 39
0.003
 10
-0.160201
 20
-0.238224
 40
0.003
 41
0.003
 10
-0.180307
 20
-0.217339
 40
0.003
 41
0.003
  0
LWPOLYLINE
  5
25C
100
AcDbEntity
  8
0
 62
     9
100
AcDbPolyline
 90
        2
 70
     0
 39
0.003
 10
-0.160201
 20
-0.238224
 40
0.003
 41
0.003
 10
0.484114
 20
0.138705
 40
0.003
 41
0.003
  0
LWPOLYLINE
  5
25D
100
AcDbEntity
  8
0
 62
     9
100
AcDbPolyline
 90
        2
 70
     0
 39
0.003
 10
0.484114
 20
0.138705
 40
0.003
 41
0.003
 10
0.504134
 20
0.117539
 40
0.003
 41
0.003
  0
LWPOLYLINE
  5
25E
100
AcDbEntity
  8
0
 62
     9
100
AcDbPolyline
 90
        2
 70
     0
 39
0.003
 10
0.504134
 20
0.117539
 40
0.003
 41
0.003
 10
-0.140181
 20
-0.25939
 40
0.003
 41
0.003
  0
LWPOLYLINE
  5
25F
100
AcDbEntity
  8
0
 62
     9
100
AcDbPolyline
 90
        2
 70
     0
 39
0.003
 10
-0.140181
 20
-0.25939
 40
0.003
 41
0.003
 10
-0.160201
 20
-0.238224
 40
0.003
 41
0.003
  0
LWPOLYLINE
  5
260
100
AcDbEntity
  8
0
 62
     9
100
AcDbPolyline
 90
        2
 70
     0
 39
0.003
 10
-0.140181
 20
-0.25939
 40
0.003
 41
0.003
 10
0.504134
 20
0.117539
 40
0.003
 41
0.003
  0
LWPOLYLINE
  5
261
100
AcDbEntity
  8
0
 62
     9
100
AcDbPolyline
 90
        2
 70
     0
 39
0.003
 10
0.504134
 20
0.117539
 40
0.003
 41
0.003
 10
0.52387
 20
0.096055
 40
0.003
 41
0.003
  0
LWPOLYLINE
  5
262
100
AcDbEntity
  8
0
 62
     9
100
AcDbPolyline
 90
        2
 70
     0
 39
0.003
 10
0.52387
 20
0.096055
 40
0.003
 41
0.003
 10
-0.120445
 20
-0.280874
 40
0.003
 41
0.003
  0
LWPOLYLINE
  5
263
100
AcDbEntity
  8
0
 62
     9
100
AcDbPolyline
 90
        2
 70
     0
 39
0.003
 10
-0.120445
 20
-0.280874
 40
0.003
 41
0.003
 10
-0.140181
 20
-0.25939
 40
0.003
 41
0.003
  0
LWPOLYLINE
  5
264
100
AcDbEntity
  8
0
 62
     9
100
AcDbPolyline
 90
        2
 70
     0
 39
0.003
 10
-0.120445
 20
-0.280874
 40
0.003
 41
0.003
 10
0.52387
 20
0.096055
 40
0.003
 41
0.003
  0
LWPOLYLINE
  5
265
100
AcDbEntity
  8
0
 62
     9
100
AcDbPolyline
 90
        2
 70
     0
 39
0.003
 10
0.52387
 20
0.096055
 40
0.003
 41
0.003
 10
0.543118
 20
0.074205
 40
0.003
 41
0.003
  0
LWPOLYLINE
  5
266
100
AcDbEntity
  8
0
 62
     9
100
AcDbPolyline
 90
        2
 70
     0
 39
0.003
 10
0.543118
 20
0.074205
 40
0.003
 41
0.003
 10
-0.101197
 20
-0.302724
 40
0.003
 41
0.003
  0
LWPOLYLINE
  5
267
100
AcDbEntity
  8
0
 62
     9
100
AcDbPolyline
 90
        2
 70
     0
 39
0.003
 10
-0.101197
 20
-0.302724
 40
0.003
 41
0.003
 10
-0.120445
 20
-0.280874
 40
0.003
 41
0.003
  0
LWPOLYLINE
  5
268
100
AcDbEntity
  8
0
 62
     9
100
AcDbPolyline
 90
        2
 70
     0
 39
0.003
 10
-0.101197
 20
-0.302724
 40
0.003
 41
0.003
 10
0.543118
 20
0.074205
 40
0.003
 41
0.003
  0
LWPOLYLINE
  5
269
100
AcDbEntity
  8
0
 62
     9
100
AcDbPolyline
 90
        2
 70
     0
 39
0.003
 10
0.543118
 20
0.074205
 40
0.003
 41
0.003
 10
0.561685
 20
0.051953
 40
0.003
 41
0.003
  0
LWPOLYLINE
  5
26A
100
AcDbEntity
  8
0
 62
     9
100
AcDbPolyline
 90
        2
 70
     0
 39
0.003
 10
0.561685
 20
0.051953
 40
0.003
 41
0.003
 10
-0.08263
 20
-0.324976
 40
0.003
 41
0.003
  0
LWPOLYLINE
  5
26B
100
AcDbEntity
  8
0
 62
     9
100
AcDbPolyline
 90
        2
 70
     0
 39
0.003
 10
-0.08263
 20
-0.324976
 40
0.003
 41
0.003
 10
-0.101197
 20
-0.302724
 40
0.003
 41
0.003
  0
LWPOLYLINE
  5
26C
100
AcDbEntity
  8
0
 62
     9
100
AcDbPolyline
 90
        2
 70
     0
 39
0.003
 10
-0.08263
 20
-0.324976
 40
0.003
 41
0.003
 10
0.561685
 20
0.051953
 40
0.003
 41
0.003
  0
LWPOLYLINE
  5
26D
100
AcDbEntity
  8
0
 62
     9
100
AcDbPolyline
 90
        2
 70
     0
 39
0.003
 10
0.561685
 20
0.051953
 40
0.003
 41
0.003
 10
0.579346
 20
0.029232
 40
0.003
 41
0.003
  0
LWPOLYLINE
  5
26E
100
AcDbEntity
  8
0
 62
     9
100
AcDbPolyline
 90
        2
 70
     0
 39
0.003
 10
0.579346
 20
0.029232
 40
0.003
 41
0.003
 10
-0.064969
 20
-0.347697
 40
0.003
 41
0.003
  0
LWPOLYLINE
  5
26F
100
AcDbEntity
  8
0
 62
     9
100
AcDbPolyline
 90
        2
 70
     0
 39
0.003
 10
-0.064969
 20
-0.347697
 40
0.003
 41
0.003
 10
-0.08263
 20
-0.324976
 40
0.003
 41
0.003
  0
LWPOLYLINE
  5
270
100
AcDbEntity
  8
0
 62
     9
100
AcDbPolyline
 90
        2
 70
     0
 39
0.003
 10
-0.064969
 20
-0.347697
 40
0.003
 41
0.003
 10
0.579346
 20
0.029232
 40
0.003
 41
0.003
  0
LWPOLYLINE
  5
271
100
AcDbEntity
  8
0
 62
     9
100
AcDbPolyline
 90
        2
 70
     0
 39
0.003
 10
0.579346
 20
0.029232
 40
0.003
 41
0.003
 10
0.595917
 20
0.006028
 40
0.003
 41
0.003
  0
LWPOLYLINE
  5
272
100
AcDbEntity
  8
0
 62
     9
100
AcDbPolyline
 90
        2
 70
     0
 39
0.003
 10
0.595917
 20
0.006028
 40
0.003
 41
0.003
 10
-0.048398
 20
-0.370902
 40
0.003
 41
0.003
  0
LWPOLYLINE
  5
273
100
AcDbEntity
  8
0
 62
     9
100
AcDbPolyline
 90
        2
 70
     0
 39
0.003
 10
-0.048398
 20
-0.370902
 40
0.003
 41
0.003
 10
-0.064969
 20
-0.347697
 40
0.003
 41
0.003
  0
LWPOLYLINE
  5
274
100
AcDbEntity
  8
0
 62
     9
100
AcDbPolyline
 90
        2
 70
     0
 39
0.003
 10
-0.048398
 20
-0.370902
 40
0.003
 41
0.003
 10
0.595917
 20
0.006028
 40
0.003
 41
0.003
  0
LWPOLYLINE
  5
275
100
AcDbEntity
  8
0
 62
     9
100
AcDbPolyline
 90
        2
 70
     0
 39
0.003
 10
0.595917
 20
0.006028
 40
0.003
 41
0.003
 10
0.611189
 20
-0.017724
 40
0.003
 41
0.003
  0
LWPOLYLINE
  5
276
100
AcDbEntity
  8
0
 62
     9
100
AcDbPolyline
 90
        2
 70
     0
 39
0.003
 10
0.611189
 20
-0.017724
 40
0.003
 41
0.003
 10
-0.033126
 20
-0.394654
 40
0.003
 41
0.003
  0
LWPOLYLINE
  5
277
100
AcDbEntity
  8
0
 62
     9
100
AcDbPolyline
 90
        2
 70
     0
 39
0.003
 10
-0.033126
 20
-0.394654
 40
0.003
 41
0.003
 10
-0.048398
 20
-0.370902
 40
0.003
 41
0.003
  0
LWPOLYLINE
  5
278
100
AcDbEntity
  8
0
 62
     9
100
AcDbPolyline
 90
        2
 70
     0
 39
0.003
 10
-0.033126
 20
-0.394654
 40
0.003
 41
0.003
 10
0.611189
 20
-0.017724
 40
0.003
 41
0.003
  0
LWPOLYLINE
  5
279
100
AcDbEntity
  8
0
 62
     9
100
AcDbPolyline
 90
        2
 70
     0
 39
0.003
 10
0.611189
 20
-0.017724
 40
0.003
 41
0.003
 10
0.624961
 20
-0.042059
 40
0.003
 41
0.003
  0
LWPOLYLINE
  5
27A
100
AcDbEntity
  8
0
 62
     9
100
AcDbPolyline
 90
        2
 70
     0
 39
0.003
 10
0.624961
 20
-0.042059
 40
0.003
 41
0.003
 10
-0.019354
 20
-0.418988
 40
0.003
 41
0.003
  0
LWPOLYLINE
  5
27B
100
AcDbEntity
  8
0
 62
     9
100
AcDbPolyline
 90
        2
 70
     0
 39
0.003
 10
-0.019354
 20
-0.418988
 40
0.003
 41
0.003
 10
-0.033126
 20
-0.394654
 40
0.003
 41
0.003
  0
LWPOLYLINE
  5
27C
100
AcDbEntity
  8
0
 62
     9
100
AcDbPolyline
 90
        2
 70
     0
 39
0.003
 10
-0.019354
 20
-0.418988
 40
0.003
 41
0.003
 10
0.624961
 20
-0.042059
 40
0.003
 41
0.003
  0
LWPOLYLINE
  5
27D
100
AcDbEntity
  8
0
 62
     9
100
AcDbPolyline
 90
        2
 70
     0
 39
0.003
 10
0.624961
 20
-0.042059
 40
0.003
 41
0.003
 10
0.63702
 20
-0.067028
 40
0.003
 41
0.003
  0
LWPOLYLINE
  5
27E
100
AcDbEntity
  8
0
 62
     9
100
AcDbPolyline
 90
        2
 70
     0
 39
0.003
 10
0.63702
 20
-0.067028
 40
0.003
 41
0.003
 10
-0.007295
 20
-0.443957
 40
0.003
 41
0.003
  0
LWPOLYLINE
  5
27F
100
AcDbEntity
  8
0
 62
     9
100
AcDbPolyline
 90
        2
 70
     0
 39
0.003
 10
-0.007295
 20
-0.443957
 40
0.003
 41
0.003
 10
-0.019354
 20
-0.418988
 40
0.003
 41
0.003
  0
LWPOLYLINE
  5
280
100
AcDbEntity
  8
0
 62
     9
100
AcDbPolyline
 90
        2
 70
     0
 39
0.003
 10
-0.007295
 20
-0.443957
 40
0.003
 41
0.003
 10
0.63702
 20
-0.067028
 40
0.003
 41
0.003
  0
LWPOLYLINE
  5
281
100
AcDbEntity
  8
0
 62
     9
100
AcDbPolyline
 90
        2
 70
     0
 39
0.003
 10
0.63702
 20
-0.067028
 40
0.003
 41
0.003
 10
0.647177
 20
-0.092665
 40
0.003
 41
0.003
  0
LWPOLYLINE
  5
282
100
AcDbEntity
  8
0
 62
     9
100
AcDbPolyline
 90
        2
 70
     0
 39
0.003
 10
0.647177
 20
-0.092665
 40
0.003
 41
0.003
 10
0.002862
 20
-0.469594
 40
0.003
 41
0.003
  0
LWPOLYLINE
  5
283
100
AcDbEntity
  8
0
 62
     9
100
AcDbPolyline
 90
        2
 70
     0
 39
0.003
 10
0.002862
 20
-0.469594
 40
0.003
 41
0.003
 10
-0.007295
 20
-0.443957
 40
0.003
 41
0.003
  0
LWPOLYLINE
  5
284
100
AcDbEntity
  8
0
 62
     9
100
AcDbPolyline
 90
        2
 70
     0
 39
0.003
 10
0.002862
 20
-0.469594
 40
0.003
 41
0.003
 10
0.647177
 20
-0.092665
 40
0.003
 41
0.003
  0
LWPOLYLINE
  5
285
100
AcDbEntity
  8
0
 62
     9
100
AcDbPolyline
 90
        2
 70
     0
 39
0.003
 10
0.647177
 20
-0.092665
 40
0.003
 41
0.003
 10
0.65522
 20
-0.119024
 40
0.003
 41
0.003
  0
LWPOLYLINE
  5
286
100
AcDbEntity
  8
0
 62
     9
100
AcDbPolyline
 90
        2
 70
     0
 39
0.003
 10
0.65522
 20
-0.119024
 40
0.003
 41
0.003
 10
0.010906
 20
-0.495953
 40
0.003
 41
0.003
  0
LWPOLYLINE
  5
287
100
AcDbEntity
  8
0
 62
     9
100
AcDbPolyline
 90
        2
 70
     0
 39
0.003
 10
0.010906
 20
-0.495953
 40
0.003
 41
0.003
 10
0.002862
 20
-0.469594
 40
0.003
 41
0.003
  0
LWPOLYLINE
  5
288
100
AcDbEntity
  8
0
 62
     9
100
AcDbPolyline
 90
        2
 70
     0
 39
0.003
 10
0.010906
 20
-0.495953
 40
0.003
 41
0.003
 10
0.65522
 20
-0.119024
 40
0.003
 41
0.003
  0
LWPOLYLINE
  5
289
100
AcDbEntity
  8
0
 62
     9
100
AcDbPolyline
 90
        2
 70
     0
 39
0.003
 10
0.65522
 20
-0.119024
 40
0.003
 41
0.003
 10
0.660957
 20
-0.146134
 40
0.003
 41
0.003
  0
LWPOLYLINE
  5
28A
100
AcDbEntity
  8
0
 62
     9
100
AcDbPolyline
 90
        2
 70
     0
 39
0.003
 10
0.660957
 20
-0.146134
 40
0.003
 41
0.003
 10
0.016642
 20
-0.523063
 40
0.003
 41
0.003
  0
LWPOLYLINE
  5
28B
100
AcDbEntity
  8
0
 62
     9
100
AcDbPolyline
 90
        2
 70
     0
 39
0.003
 10
0.016642
 20
-0.523063
 40
0.003
 41
0.003
 10
0.010906
 20
-0.495953
 40
0.003
 41
0.003
  0
LWPOLYLINE
  5
28C
100
AcDbEntity
  8
0
 62
     9
100
AcDbPolyline
 90
        2
 70
     0
 39
0.003
 10
0.016642
 20
-0.523063
 40
0.003
 41
0.003
 10
0.660957
 20
-0.146134
 40
0.003
 41
0.003
  0
LWPOLYLINE
  5
28D
100
AcDbEntity
  8
0
 62
     9
100
AcDbPolyline
 90
        2
 70
     0
 39
0.003
 10
0.660957
 20
-0.146134
 40
0.003
 41
0.003
 10
0.664165
 20
-0.174063
 40
0.003
 41
0.003
  0
LWPOLYLINE
  5
28E
100
AcDbEntity
  8
0
 62
     9
100
AcDbPolyline
 90
        2
 70
     0
 39
0.003
 10
0.664165
 20
-0.174063
 40
0.003
 41
0.003
 10
0.01985
 20
-0.550992
 40
0.003
 41
0.003
  0
LWPOLYLINE
  5
28F
100
AcDbEntity
  8
0
 62
     9
100
AcDbPolyline
 90
        2
 70
     0
 39
0.003
 10
0.01985
 20
-0.550992
 40
0.003
 41
0.003
 10
0.016642
 20
-0.523063
 40
0.003
 41
0.003
  0
LWPOLYLINE
  5
290
100
AcDbEntity
  8
0
 62
     9
100
AcDbPolyline
 90
        2
 70
     0
 39
0.003
 10
0.01985
 20
-0.550992
 40
0.003
 41
0.003
 10
0.664165
 20
-0.174063
 40
0.003
 41
0.003
  0
LWPOLYLINE
  5
291
100
AcDbEntity
  8
0
 62
     9
100
AcDbPolyline
 90
        2
 70
     0
 39
0.003
 10
0.664165
 20
-0.174063
 40
0.003
 41
0.003
 10
0.664657
 20
-0.202835
 40
0.003
 41
0.003
  0
LWPOLYLINE
  5
292
100
AcDbEntity
  8
0
 62
     9
100
AcDbPolyline
 90
        2
 70
     0
 39
0.003
 10
0.664657
 20
-0.202835
 40
0.003
 41
0.003
 10
0.020343
 20
-0.579764
 40
0.003
 41
0.003
  0
LWPOLYLINE
  5
293
100
AcDbEntity
  8
0
 62
     9
100
AcDbPolyline
 90
        2
 70
     0
 39
0.003
 10
0.020343
 20
-0.579764
 40
0.003
 41
0.003
 10
0.01985
 20
-0.550992
 40
0.003
 41
0.003
  0
LWPOLYLINE
  5
294
100
AcDbEntity
  8
0
 62
     9
100
AcDbPolyline
 90
        2
 70
     0
 39
0.003
 10
0.020343
 20
-0.579764
 40
0.003
 41
0.003
 10
0.664657
 20
-0.202835
 40
0.003
 41
0.003
  0
LWPOLYLINE
  5
295
100
AcDbEntity
  8
0
 62
     9
100
AcDbPolyline
 90
        2
 70
     0
 39
0.003
 10
0.664657
 20
-0.202835
 40
0.003
 41
0.003
 10
0.662224
 20
-0.2325
 40
0.003
 41
0.003
  0
LWPOLYLINE
  5
296
100
AcDbEntity
  8
0
 62
     9
100
AcDbPolyline
 90
        2
 70
     0
 39
0.003
 10
0.662224
 20
-0.2325
 40
0.003
 41
0.003
 10
0.017909
 20
-0.609429
 40
0.003
 41
0.003
  0
LWPOLYLINE
  5
297
100
AcDbEntity
  8
0
 62
     9
100
AcDbPolyline
 90
        2
 70
     0
 39
0.003
 10
0.017909
 20
-0.609429
 40
0.003
 41
0.003
 10
0.020343
 20
-0.579764
 40
0.003
 41
0.003
  0
LWPOLYLINE
  5
298
100
AcDbEntity
  8
0
 62
   253
100
AcDbPolyline
 90
        2
 70
     0
 39
0.003
 10
0.017909
 20
-0.609429
 40
0.003
 41
0.003
 10
0.662224
 20
-0.2325
 40
0.003
 41
0.003
  0
LWPOLYLINE
  5
299
100
AcDbEntity
  8
0
 62
   253
100
AcDbPolyline
 90
        2
 70
     0
 39
0.003
 10
0.662224
 20
-0.2325
 40
0.003
 41
0.003
 10
0.656669
 20
-0.263094
 40
0.003
 41
0.003
  0
LWPOLYLINE
  5
29A
100
AcDbEntity
  8
0
 62
   253
100
AcDbPolyline
 90
        2
 70
     0
 39
0.003
 10
0.656669
 20
-0.263094
 40
0.003
 41
0.003
 10
0.012354
 20
-0.640024
 40
0.003
 41
0.003
  0
LWPOLYLINE
  5
29B
100
AcDbEntity
  8
0
 62
   253
100
AcDbPolyline
 90
        2
 70
     0
 39
0.003
 10
0.012354
 20
-0.640024
 40
0.003
 41
0.003
 10
0.017909
 20
-0.609429
 40
0.003
 41
0.003
  0
LWPOLYLINE
  5
29C
100
AcDbEntity
  8
0
 62
   253
100
AcDbPolyline
 90
        2
 70
     0
 39
0.003
 10
0.012354
 20
-0.640024
 40
0.003
 41
0.003
 10
0.656669
 20
-0.263094
 40
0.003
 41
0.003
  0
LWPOLYLINE
  5
29D
100
AcDbEntity
  8
0
 62
   253
100
AcDbPolyline
 90
        2
 70
     0
 39
0.003
 10
0.656669
 20
-0.263094
 40
0.003
 41
0.003
 10
0.647776
 20
-0.294681
 40
0.003
 41
0.003
  0
LWPOLYLINE
  5
29E
100
AcDbEntity
  8
0
 62
   253
100
AcDbPolyline
 90
        2
 70
     0
 39
0.003
 10
0.647776
 20
-0.294681
 40
0.003
 41
0.003
 10
0.003461
 20
-0.67161
 40
0.003
 41
0.003
  0
LWPOLYLINE
  5
29F
100
AcDbEntity
  8
0
 62
   253
100
AcDbPolyline
 90
        2
 70
     0
 39
0.003
 10
0.003461
 20
-0.67161
 40
0.003
 41
0.003
 10
0.012354
 20
-0.640024
 40
0.003
 41
0.003
  0
LWPOLYLINE
  5
2A0
100
AcDbEntity
  8
0
 62
   253
100
AcDbPolyline
 90
        2
 70
     0
 39
0.003
 10
0.003461
 20
-0.67161
 40
0.003
 41
0.003
 10
0.647776
 20
-0.294681
 40
0.003
 41
0.003
  0
LWPOLYLINE
  5
2A1
100
AcDbEntity
  8
0
 62
   253
100
AcDbPolyline
 90
        2
 70
     0
 39
0.003
 10
0.647776
 20
-0.294681
 40
0.003
 41
0.003
 10
0.635354
 20
-0.327287
 40
0.003
 41
0.003
  0
LWPOLYLINE
  5
2A2
100
AcDbEntity
  8
0
 62
   253
100
AcDbPolyline
 90
        2
 70
     0
 39
0.003
 10
0.635354
 20
-0.327287
 40
0.003
 41
0.003
 10
-0.008961
 20
-0.704217
 40
0.003
 41
0.003
  0
LWPOLYLINE
  5
2A3
100
AcDbEntity
  8
0
 62
   253
100
AcDbPolyline
 90
        2
 70
     0
 39
0.003
 10
-0.008961
 20
-0.704217
 40
0.003
 41
0.003
 10
0.003461
 20
-0.67161
 40
0.003
 41
0.003
  0
LWPOLYLINE
  5
2A4
100
AcDbEntity
  8
0
 62
   252
100
AcDbPolyline
 90
        2
 70
     0
 39
0.003
 10
-0.008961
 20
-0.704217
 40
0.003
 41
0.003
 10
0.635354
 20
-0.327287
 40
0.003
 41
0.003
  0
LWPOLYLINE
  5
2A5
100
AcDbEntity
  8
0
 62
   252
100
AcDbPolyline
 90
        2
 70
     0
 39
0.003
 10
0.635354
 20
-0.327287
 40
0.003
 41
0.003
 10
0.619197
 20
-0.360965
 40
0.003
 41
0.003
  0
LWPOLYLINE
  5
2A6
100
AcDbEntity
  8
0
 62
   252
100
AcDbPolyline
 90
        2
 70
     0
 39
0.003
 10
0.619197
 20
-0.360965
 40
0.003
 41
0.003
 10
-0.025118
 20
-0.737894
 40
0.003
 41
0.003
  0
LWPOLYLINE
  5
2A7
100
AcDbEntity
  8
0
 62
   252
100
AcDbPolyline
 90
        2
 70
     0
 39
0.003
 10
-0.025118
 20
-0.737894
 40
0.003
 41
0.003
 10
-0.008961
 20
-0.704217
 40
0.003
 41
0.003
  0
LWPOLYLINE
  5
2A8
100
AcDbEntity
  8
0
 62
     8
100
AcDbPolyline
 90
        2
 70
     0
 39
0.003
 10
-0.025118
 20
-0.737894
 40
0.003
 41
0.003
 10
0.619197
 20
-0.360965
 40
0.003
 41
0.003
  0
LWPOLYLINE
  5
2A9
100
AcDbEntity
  8
0
 62
     8
100
AcDbPolyline
 90
        2
 70
     0
 39
0.003
 10
0.619197
 20
-0.360965
 40
0.003
 41
0.003
 10
0.599102
 20
-0.395748
 40
0.003
 41
0.003
  0
LWPOLYLINE
  5
2AA
100
AcDbEntity
  8
0
 62
     8
100
AcDbPolyline
 90
        2
 70
     0
 39
0.003
 10
0.599102
 20
-0.395748
 40
0.003
 41
0.003
 10
-0.045213
 20
-0.772677
 40
0.003
 41
0.003
  0
LWPOLYLINE
  5
2AB
100
AcDbEntity
  8
0
 62
     8
100
AcDbPolyline
 90
        2
 70
     0
 39
0.003
 10
-0.045213
 20
-0.772677
 40
0.003
 41
0.003
 10
-0.025118
 20
-0.737894
 40
0.003
 41
0.003
  0
LWPOLYLINE
  5
2AC
100
AcDbEntity
  8
0
 62
     0
100
AcDbPolyline
 90
        2
 70
     0
 39
0.003
 10
-0.799531
 20
0.685858
 40
0.003
 41
0.003
 10
-0.155217
 20
1.062787
 40
0.003
 41
0.003
  0
LWPOLYLINE
  5
2AD
100
AcDbEntity
  8
0
 62
     0
100
AcDbPolyline
 90
        2
 70
     0
 39
0.003
 10
-0.155217
 20
1.062787
 40
0.003
 41
0.003
 10
-0.114402
 20
1.061398
 40
0.003
 41
0.003
  0
LWPOLYLINE
  5
2AE
100
AcDbEntity
  8
0
 62
     0
100
AcDbPolyline
 90
        2
 70
     0
 39
0.003
 10
-0.114402
 20
1.061398
 40
0.003
 41
0.003
 10
-0.076642
 20
1.05785
 40
0.003
 41
0.003
  0
LWPOLYLINE
  5
2AF
100
AcDbEntity
  8
0
 62
     0
100
AcDbPolyline
 90
        2
 70
     0
 39
0.003
 10
-0.076642
 20
1.05785
 40
0.003
 41
0.003
 10
-0.041791
 20
1.052228
 40
0.003
 41
0.003
  0
LWPOLYLINE
  5
2B0
100
AcDbEntity
  8
0
 62
     0
100
AcDbPolyline
 90
        2
 70
     0
 39
0.003
 10
-0.041791
 20
1.052228
 40
0.003
 41
0.003
 10
-0.009724
 20
1.044626
 40
0.003
 41
0.003
  0
LWPOLYLINE
  5
2B1
100
AcDbEntity
  8
0
 62
     0
100
AcDbPolyline
 90
        2
 70
     0
 39
0.003
 10
-0.009724
 20
1.044626
 40
0.003
 41
0.003
 10
0.019701
 20
1.035114
 40
0.003
 41
0.003
  0
LWPOLYLINE
  5
2B2
100
AcDbEntity
  8
0
 62
     0
100
AcDbPolyline
 90
        2
 70
     0
 39
0.003
 10
0.019701
 20
1.035114
 40
0.003
 41
0.003
 10
0.046602
 20
1.023803
 40
0.003
 41
0.003
  0
LWPOLYLINE
  5
2B3
100
AcDbEntity
  8
0
 62
     0
100
AcDbPolyline
 90
        2
 70
     0
 39
0.003
 10
0.046602
 20
1.023803
 40
0.003
 41
0.003
 10
0.071122
 20
1.010764
 40
0.003
 41
0.003
  0
LWPOLYLINE
  5
2B4
100
AcDbEntity
  8
0
 62
     0
100
AcDbPolyline
 90
        2
 70
     0
 39
0.003
 10
0.071122
 20
1.010764
 40
0.003
 41
0.003
 10
0.093382
 20
0.996098
 40
0.003
 41
0.003
  0
LWPOLYLINE
  5
2B5
100
AcDbEntity
  8
0
 62
     0
100
AcDbPolyline
 90
        2
 70
     0
 39
0.003
 10
0.093382
 20
0.996098
 40
0.003
 41
0.003
 10
0.113531
 20
0.979878
 40
0.003
 41
0.003
  0
LWPOLYLINE
  5
2B6
100
AcDbEntity
  8
0
 62
     0
100
AcDbPolyline
 90
        2
 70
     0
 39
0.003
 10
0.113531
 20
0.979878
 40
0.003
 41
0.003
 10
0.131689
 20
0.962209
 40
0.003
 41
0.003
  0
LWPOLYLINE
  5
2B7
100
AcDbEntity
  8
0
 62
     0
100
AcDbPolyline
 90
        2
 70
     0
 39
0.003
 10
0.131689
 20
0.962209
 40
0.003
 41
0.003
 10
0.147996
 20
0.943169
 40
0.003
 41
0.003
  0
LWPOLYLINE
  5
2B8
100
AcDbEntity
  8
0
 62
     0
100
AcDbPolyline
 90
        2
 70
     0
 39
0.003
 10
0.147996
 20
0.943169
 40
0.003
 41
0.003
 10
0.162571
 20
0.922854
 40
0.003
 41
0.003
  0
LWPOLYLINE
  5
2B9
100
AcDbEntity
  8
0
 62
     0
100
AcDbPolyline
 90
        2
 70
     0
 39
0.003
 10
0.162571
 20
0.922854
 40
0.003
 41
0.003
 10
0.175559
 20
0.901343
 40
0.003
 41
0.003
  0
LWPOLYLINE
  5
2BA
100
AcDbEntity
  8
0
 62
     0
100
AcDbPolyline
 90
        2
 70
     0
 39
0.003
 10
0.175559
 20
0.901343
 40
0.003
 41
0.003
 10
0.187087
 20
0.878728
 40
0.003
 41
0.003
  0
LWPOLYLINE
  5
2BB
100
AcDbEntity
  8
0
 62
     0
100
AcDbPolyline
 90
        2
 70
     0
 39
0.003
 10
0.187087
 20
0.878728
 40
0.003
 41
0.003
 10
0.197287
 20
0.855098
 40
0.003
 41
0.003
  0
LWPOLYLINE
  5
2BC
100
AcDbEntity
  8
0
 62
     0
100
AcDbPolyline
 90
        2
 70
     0
 39
0.003
 10
0.197287
 20
0.855098
 40
0.003
 41
0.003
 10
0.206287
 20
0.830547
 40
0.003
 41
0.003
  0
LWPOLYLINE
  5
2BD
100
AcDbEntity
  8
0
 62
     0
100
AcDbPolyline
 90
        2
 70
     0
 39
0.003
 10
0.206287
 20
0.830547
 40
0.003
 41
0.003
 10
0.214236
 20
0.80515
 40
0.003
 41
0.003
  0
LWPOLYLINE
  5
2BE
100
AcDbEntity
  8
0
 62
     0
100
AcDbPolyline
 90
        2
 70
     0
 39
0.003
 10
0.214236
 20
0.80515
 40
0.003
 41
0.003
 10
0.221248
 20
0.779004
 40
0.003
 41
0.003
  0
LWPOLYLINE
  5
2BF
100
AcDbEntity
  8
0
 62
     0
100
AcDbPolyline
 90
        2
 70
     0
 39
0.003
 10
0.221248
 20
0.779004
 40
0.003
 41
0.003
 10
0.227465
 20
0.752193
 40
0.003
 41
0.003
  0
LWPOLYLINE
  5
2C0
100
AcDbEntity
  8
0
 62
     0
100
AcDbPolyline
 90
        2
 70
     0
 39
0.003
 10
0.227465
 20
0.752193
 40
0.003
 41
0.003
 10
0.233008
 20
0.724815
 40
0.003
 41
0.003
  0
LWPOLYLINE
  5
2C1
100
AcDbEntity
  8
0
 62
     0
100
AcDbPolyline
 90
        2
 70
     0
 39
0.003
 10
0.233008
 20
0.724815
 40
0.003
 41
0.003
 10
0.238028
 20
0.696945
 40
0.003
 41
0.003
  0
LWPOLYLINE
  5
2C2
100
AcDbEntity
  8
0
 62
     0
100
AcDbPolyline
 90
        2
 70
     0
 39
0.003
 10
0.238028
 20
0.696945
 40
0.003
 41
0.003
 10
0.242638
 20
0.668681
 40
0.003
 41
0.003
  0
LWPOLYLINE
  5
2C3
100
AcDbEntity
  8
0
 62
     0
100
AcDbPolyline
 90
        2
 70
     0
 39
0.003
 10
0.242638
 20
0.668681
 40
0.003
 41
0.003
 10
0.24698
 20
0.640106
 40
0.003
 41
0.003
  0
LWPOLYLINE
  5
2C4
100
AcDbEntity
  8
0
 62
     0
100
AcDbPolyline
 90
        2
 70
     0
 39
0.003
 10
0.24698
 20
0.640106
 40
0.003
 41
0.003
 10
0.251177
 20
0.611319
 40
0.003
 41
0.003
  0
LWPOLYLINE
  5
2C5
100
AcDbEntity
  8
0
 62
     0
100
AcDbPolyline
 90
        2
 70
     0
 39
0.003
 10
0.251177
 20
0.611319
 40
0.003
 41
0.003
 10
0.255382
 20
0.58239
 40
0.003
 41
0.003
  0
LWPOLYLINE
  5
2C6
100
AcDbEntity
  8
0
 62
     0
100
AcDbPolyline
 90
        2
 70
     0
 39
0.003
 10
0.255382
 20
0.58239
 40
0.003
 41
0.003
 10
0.259705
 20
0.553421
 40
0.003
 41
0.003
  0
LWPOLYLINE
  5
2C7
100
AcDbEntity
  8
0
 62
     0
100
AcDbPolyline
 90
        2
 70
     0
 39
0.003
 10
0.259705
 20
0.553421
 40
0.003
 41
0.003
 10
0.264287
 20
0.524492
 40
0.003
 41
0.003
  0
LWPOLYLINE
  5
2C8
100
AcDbEntity
  8
0
 62
     0
100
AcDbPolyline
 90
        2
 70
     0
 39
0.003
 10
0.264287
 20
0.524492
 40
0.003
 41
0.003
 10
0.26926
 20
0.495705
 40
0.003
 41
0.003
  0
LWPOLYLINE
  5
2C9
100
AcDbEntity
  8
0
 62
     0
100
AcDbPolyline
 90
        2
 70
     0
 39
0.003
 10
0.26926
 20
0.495705
 40
0.003
 41
0.003
 10
0.27476
 20
0.467126
 40
0.003
 41
0.003
  0
LWPOLYLINE
  5
2CA
100
AcDbEntity
  8
0
 62
     0
100
AcDbPolyline
 90
        2
 70
     0
 39
0.003
 10
0.27476
 20
0.467126
 40
0.003
 41
0.003
 10
0.280909
 20
0.438866
 40
0.003
 41
0.003
  0
LWPOLYLINE
  5
2CB
100
AcDbEntity
  8
0
 62
     0
100
AcDbPolyline
 90
        2
 70
     0
 39
0.003
 10
0.280909
 20
0.438866
 40
0.003
 41
0.003
 10
0.28785
 20
0.410996
 40
0.003
 41
0.003
  0
LWPOLYLINE
  5
2CC
100
AcDbEntity
  8
0
 62
     0
100
AcDbPolyline
 90
        2
 70
     0
 39
0.003
 10
0.28785
 20
0.410996
 40
0.003
 41
0.003
 10
0.295705
 20
0.383622
 40
0.003
 41
0.003
  0
LWPOLYLINE
  5
2CD
100
AcDbEntity
  8
0
 62
     0
100
AcDbPolyline
 90
        2
 70
     0
 39
0.003
 10
0.295705
 20
0.383622
 40
0.003
 41
0.003
 10
0.303287
 20
0.362878
 40
0.003
 41
0.003
  0
LWPOLYLINE
  5
2CE
100
AcDbEntity
  8
0
 62
     0
100
AcDbPolyline
 90
        2
 70
     0
 39
0.003
 10
0.303287
 20
0.362878
 40
0.003
 41
0.003
 10
0.313024
 20
0.342346
 40
0.003
 41
0.003
  0
LWPOLYLINE
  5
2CF
100
AcDbEntity
  8
0
 62
     0
100
AcDbPolyline
 90
        2
 70
     0
 39
0.003
 10
0.313024
 20
0.342346
 40
0.003
 41
0.003
 10
0.324709
 20
0.321976
 40
0.003
 41
0.003
  0
LWPOLYLINE
  5
2D0
100
AcDbEntity
  8
0
 62
     0
100
AcDbPolyline
 90
        2
 70
     0
 39
0.003
 10
0.324709
 20
0.321976
 40
0.003
 41
0.003
 10
0.338138
 20
0.301724
 40
0.003
 41
0.003
  0
LWPOLYLINE
  5
2D1
100
AcDbEntity
  8
0
 62
     0
100
AcDbPolyline
 90
        2
 70
     0
 39
0.003
 10
0.338138
 20
0.301724
 40
0.003
 41
0.003
 10
0.353118
 20
0.281543
 40
0.003
 41
0.003
  0
LWPOLYLINE
  5
2D2
100
AcDbEntity
  8
0
 62
     0
100
AcDbPolyline
 90
        2
 70
     0
 39
0.003
 10
0.353118
 20
0.281543
 40
0.003
 41
0.003
 10
0.369429
 20
0.261398
 40
0.003
 41
0.003
  0
LWPOLYLINE
  5
2D3
100
AcDbEntity
  8
0
 62
     0
100
AcDbPolyline
 90
        2
 70
     0
 39
0.003
 10
0.369429
 20
0.261398
 40
0.003
 41
0.003
 10
0.386886
 20
0.241236
 40
0.003
 41
0.003
  0
LWPOLYLINE
  5
2D4
100
AcDbEntity
  8
0
 62
     0
100
AcDbPolyline
 90
        2
 70
     0
 39
0.003
 10
0.386886
 20
0.241236
 40
0.003
 41
0.003
 10
0.405268
 20
0.221028
 40
0.003
 41
0.003
  0
LWPOLYLINE
  5
2D5
100
AcDbEntity
  8
0
 62
     0
100
AcDbPolyline
 90
        2
 70
     0
 39
0.003
 10
0.405268
 20
0.221028
 40
0.003
 41
0.003
 10
0.424382
 20
0.200705
 40
0.003
 41
0.003
  0
LWPOLYLINE
  5
2D6
100
AcDbEntity
  8
0
 62
     0
100
AcDbPolyline
 90
        2
 70
     0
 39
0.003
 10
0.424382
 20
0.200705
 40
0.003
 41
0.003
 10
0.444035
 20
0.180244
 40
0.003
 41
0.003
  0
LWPOLYLINE
  5
2D7
100
AcDbEntity
  8
0
 62
     0
100
AcDbPolyline
 90
        2
 70
     0
 39
0.003
 10
0.444035
 20
0.180244
 40
0.003
 41
0.003
 10
0.464008
 20
0.159591
 40
0.003
 41
0.003
  0
LWPOLYLINE
  5
2D8
100
AcDbEntity
  8
0
 62
     0
100
AcDbPolyline
 90
        2
 70
     0
 39
0.003
 10
0.464008
 20
0.159591
 40
0.003
 41
0.003
 10
0.484114
 20
0.138705
 40
0.003
 41
0.003
  0
LWPOLYLINE
  5
2D9
100
AcDbEntity
  8
0
 62
     0
100
AcDbPolyline
 90
        2
 70
     0
 39
0.003
 10
0.484114
 20
0.138705
 40
0.003
 41
0.003
 10
0.504134
 20
0.117539
 40
0.003
 41
0.003
  0
LWPOLYLINE
  5
2DA
100
AcDbEntity
  8
0
 62
     0
100
AcDbPolyline
 90
        2
 70
     0
 39
0.003
 10
0.504134
 20
0.117539
 40
0.003
 41
0.003
 10
0.52387
 20
0.096055
 40
0.003
 41
0.003
  0
LWPOLYLINE
  5
2DB
100
AcDbEntity
  8
0
 62
     0
100
AcDbPolyline
 90
        2
 70
     0
 39
0.003
 10
0.52387
 20
0.096055
 40
0.003
 41
0.003
 10
0.543118
 20
0.074205
 40
0.003
 41
0.003
  0
LWPOLYLINE
  5
2DC
100
AcDbEntity
  8
0
 62
     0
100
AcDbPolyline
 90
        2
 70
     0
 39
0.003
 10
0.543118
 20
0.074205
 40
0.003
 41
0.003
 10
0.561685
 20
0.051953
 40
0.003
 41
0.003
  0
LWPOLYLINE
  5
2DD
100
AcDbEntity
  8
0
 62
     0
100
AcDbPolyline
 90
        2
 70
     0
 39
0.003
 10
0.561685
 20
0.051953
 40
0.003
 41
0.003
 10
0.579346
 20
0.029232
 40
0.003
 41
0.003
  0
LWPOLYLINE
  5
2DE
100
AcDbEntity
  8
0
 62
     0
100
AcDbPolyline
 90
        2
 70
     0
 39
0.003
 10
0.579346
 20
0.029232
 40
0.003
 41
0.003
 10
0.595917
 20
0.006028
 40
0.003
 41
0.003
  0
LWPOLYLINE
  5
2DF
100
AcDbEntity
  8
0
 62
     0
100
AcDbPolyline
 90
        2
 70
     0
 39
0.003
 10
0.595917
 20
0.006028
 40
0.003
 41
0.003
 10
0.611189
 20
-0.017724
 40
0.003
 41
0.003
  0
LWPOLYLINE
  5
2E0
100
AcDbEntity
  8
0
 62
     0
100
AcDbPolyline
 90
        2
 70
     0
 39
0.003
 10
0.611189
 20
-0.017724
 40
0.003
 41
0.003
 10
0.624961
 20
-0.042059
 40
0.003
 41
0.003
  0
LWPOLYLINE
  5
2E1
100
AcDbEntity
  8
0
 62
     0
100
AcDbPolyline
 90
        2
 70
     0
 39
0.003
 10
0.624961
 20
-0.042059
 40
0.003
 41
0.003
 10
0.63702
 20
-0.067028
 40
0.003
 41
0.003
  0
LWPOLYLINE
  5
2E2
100
AcDbEntity
  8
0
 62
     0
100
AcDbPolyline
 90
        2
 70
     0
 39
0.003
 10
0.63702
 20
-0.067028
 40
0.003
 41
0.003
 10
0.647177
 20
-0.092665
 40
0.003
 41
0.003
  0
LWPOLYLINE
  5
2E3
100
AcDbEntity
  8
0
 62
     0
100
AcDbPolyline
 90
        2
 70
     0
 39
0.003
 10
0.647177
 20
-0.092665
 40
0.003
 41
0.003
 10
0.65522
 20
-0.119024
 40
0.003
 41
0.003
  0
LWPOLYLINE
  5
2E4
100
AcDbEntity
  8
0
 62
     0
100
AcDbPolyline
 90
        2
 70
     0
 39
0.003
 10
0.65522
 20
-0.119024
 40
0.003
 41
0.003
 10
0.660957
 20
-0.146134
 40
0.003
 41
0.003
  0
LWPOLYLINE
  5
2E5
100
AcDbEntity
  8
0
 62
     0
100
AcDbPolyline
 90
        2
 70
     0
 39
0.003
 10
0.660957
 20
-0.146134
 40
0.003
 41
0.003
 10
0.664165
 20
-0.174063
 40
0.003
 41
0.003
  0
LWPOLYLINE
  5
2E6
100
AcDbEntity
  8
0
 62
     0
100
AcDbPolyline
 90
        2
 70
     0
 39
0.003
 10
0.664165
 20
-0.174063
 40
0.003
 41
0.003
 10
0.664657
 20
-0.202835
 40
0.003
 41
0.003
  0
LWPOLYLINE
  5
2E7
100
AcDbEntity
  8
0
 62
     0
100
AcDbPolyline
 90
        2
 70
     0
 39
0.003
 10
0.664657
 20
-0.202835
 40
0.003
 41
0.003
 10
0.662224
 20
-0.2325
 40
0.003
 41
0.003
  0
LWPOLYLINE
  5
2E8
100
AcDbEntity
  8
0
 62
     0
100
AcDbPolyline
 90
        2
 70
     0
 39
0.003
 10
0.662224
 20
-0.2325
 40
0.003
 41
0.003
 10
0.656669
 20
-0.263094
 40
0.003
 41
0.003
  0
LWPOLYLINE
  5
2E9
100
AcDbEntity
  8
0
 62
     0
100
AcDbPolyline
 90
        2
 70
     0
 39
0.003
 10
0.656669
 20
-0.263094
 40
0.003
 41
0.003
 10
0.647776
 20
-0.294681
 40
0.003
 41
0.003
  0
LWPOLYLINE
  5
2EA
100
AcDbEntity
  8
0
 62
     0
100
AcDbPolyline
 90
        2
 70
     0
 39
0.003
 10
0.647776
 20
-0.294681
 40
0.003
 41
0.003
 10
0.635354
 20
-0.327287
 40
0.003
 41
0.003
  0
LWPOLYLINE
  5
2EB
100
AcDbEntity
  8
0
 62
     0
100
AcDbPolyline
 90
        2
 70
     0
 39
0.003
 10
0.635354
 20
-0.327287
 40
0.003
 41
0.003
 10
0.619197
 20
-0.360965
 40
0.003
 41
0.003
  0
LWPOLYLINE
  5
2EC
100
AcDbEntity
  8
0
 62
     0
100
AcDbPolyline
 90
        2
 70
     0
 39
0.003
 10
0.619197
 20
-0.360965
 40
0.003
 41
0.003
 10
0.599102
 20
-0.395748
 40
0.003
 41
0.003
  0
LWPOLYLINE
  5
2ED
100
AcDbEntity
  8
0
 62
     0
100
AcDbPolyline
 90
        2
 70
     0
 39
0.003
 10
0.599102
 20
-0.395748
 40
0.003
 41
0.003
 10
-0.045213
 20
-0.772677
 40
0.003
 41
0.003
  0
LWPOLYLINE
  5
2EE
100
AcDbEntity
  8
0
 62
     0
100
AcDbPolyline
 90
        2
 70
     0
 39
0.003
 10
-0.045213
 20
-0.772677
 40
0.003
 41
0.003
 10
-0.025118
 20
-0.737894
 40
0.003
 41
0.003
  0
LWPOLYLINE
  5
2EF
100
AcDbEntity
  8
0
 62
     0
100
AcDbPolyline
 90
        2
 70
     0
 39
0.003
 10
-0.025118
 20
-0.737894
 40
0.003
 41
0.003
 10
-0.008961
 20
-0.704217
 40
0.003
 41
0.003
  0
LWPOLYLINE
  5
2F0
100
AcDbEntity
  8
0
 62
     0
100
AcDbPolyline
 90
        2
 70
     0
 39
0.003
 10
-0.008961
 20
-0.704217
 40
0.003
 41
0.003
 10
0.003461
 20
-0.67161
 40
0.003
 41
0.003
  0
LWPOLYLINE
  5
2F1
100
AcDbEntity
  8
0
 62
     0
100
AcDbPolyline
 90
        2
 70
     0
 39
0.003
 10
0.003461
 20
-0.67161
 40
0.003
 41
0.003
 10
0.012354
 20
-0.640024
 40
0.003
 41
0.003
  0
LWPOLYLINE
  5
2F2
100
AcDbEntity
  8
0
 62
     0
100
AcDbPolyline
 90
        2
 70
     0
 39
0.003
 10
0.012354
 20
-0.640024
 40
0.003
 41
0.003
 10
0.017909
 20
-0.609429
 40
0.003
 41
0.003
  0
LWPOLYLINE
  5
2F3
100
AcDbEntity
  8
0
 62
     0
100
AcDbPolyline
 90
        2
 70
     0
 39
0.003
 10
0.017909
 20
-0.609429
 40
0.003
 41
0.003
 10
0.020343
 20
-0.579764
 40
0.003
 41
0.003
  0
LWPOLYLINE
  5
2F4
100
AcDbEntity
  8
0
 62
     0
100
AcDbPolyline
 90
        2
 70
     0
 39
0.003
 10
0.020343
 20
-0.579764
 40
0.003
 41
0.003
 10
0.01985
 20
-0.550992
 40
0.003
 41
0.003
  0
LWPOLYLINE
  5
2F5
100
AcDbEntity
  8
0
 62
     0
100
AcDbPolyline
 90
        2
 70
     0
 39
0.003
 10
0.01985
 20
-0.550992
 40
0.003
 41
0.003
 10
0.016642
 20
-0.523063
 40
0.003
 41
0.003
  0
LWPOLYLINE
  5
2F6
100
AcDbEntity
  8
0
 62
     0
100
AcDbPolyline
 90
        2
 70
     0
 39
0.003
 10
0.016642
 20
-0.523063
 40
0.003
 41
0.003
 10
0.010906
 20
-0.495953
 40
0.003
 41
0.003
  0
LWPOLYLINE
  5
2F7
100
AcDbEntity
  8
0
 62
     0
100
AcDbPolyline
 90
        2
 70
     0
 39
0.003
 10
0.010906
 20
-0.495953
 40
0.003
 41
0.003
 10
0.002862
 20
-0.469594
 40
0.003
 41
0.003
  0
LWPOLYLINE
  5
2F8
100
AcDbEntity
  8
0
 62
     0
100
AcDbPolyline
 90
        2
 70
     0
 39
0.003
 10
0.002862
 20
-0.469594
 40
0.003
 41
0.003
 10
-0.007295
 20
-0.443957
 40
0.003
 41
0.003
  0
LWPOLYLINE
  5
2F9
100
AcDbEntity
  8
0
 62
     0
100
AcDbPolyline
 90
        2
 70
     0
 39
0.003
 10
-0.007295
 20
-0.443957
 40
0.003
 41
0.003
 10
-0.019354
 20
-0.418988
 40
0.003
 41
0.003
  0
LWPOLYLINE
  5
2FA
100
AcDbEntity
  8
0
 62
     0
100
AcDbPolyline
 90
        2
 70
     0
 39
0.003
 10
-0.019354
 20
-0.418988
 40
0.003
 41
0.003
 10
-0.033126
 20
-0.394654
 40
0.003
 41
0.003
  0
LWPOLYLINE
  5
2FB
100
AcDbEntity
  8
0
 62
     0
100
AcDbPolyline
 90
        2
 70
     0
 39
0.003
 10
-0.033126
 20
-0.394654
 40
0.003
 41
0.003
 10
-0.048398
 20
-0.370902
 40
0.003
 41
0.003
  0
LWPOLYLINE
  5
2FC
100
AcDbEntity
  8
0
 62
     0
100
AcDbPolyline
 90
        2
 70
     0
 39
0.003
 10
-0.048398
 20
-0.370902
 40
0.003
 41
0.003
 10
-0.064969
 20
-0.347697
 40
0.003
 41
0.003
  0
LWPOLYLINE
  5
2FD
100
AcDbEntity
  8
0
 62
     0
100
AcDbPolyline
 90
        2
 70
     0
 39
0.003
 10
-0.064969
 20
-0.347697
 40
0.003
 41
0.003
 10
-0.08263
 20
-0.324976
 40
0.003
 41
0.003
  0
LWPOLYLINE
  5
2FE
100
AcDbEntity
  8
0
 62
     0
100
AcDbPolyline
 90
        2
 70
     0
 39
0.003
 10
-0.08263
 20
-0.324976
 40
0.003
 41
0.003
 10
-0.101197
 20
-0.302724
 40
0.003
 41
0.003
  0
LWPOLYLINE
  5
2FF
100
AcDbEntity
  8
0
 62
     0
100
AcDbPolyline
 90
        2
 70
     0
 39
0.003
 10
-0.101197
 20
-0.302724
 40
0.003
 41
0.003
 10
-0.120445
 20
-0.280874
 40
0.003
 41
0.003
  0
LWPOLYLINE
  5
300
100
AcDbEntity
  8
0
 62
     0
100
AcDbPolyline
 90
        2
 70
     0
 39
0.003
 10
-0.120445
 20
-0.280874
 40
0.003
 41
0.003
 10
-0.140181
 20
-0.25939
 40
0.003
 41
0.003
  0
LWPOLYLINE
  5
301
100
AcDbEntity
  8
0
 62
     0
100
AcDbPolyline
 90
        2
 70
     0
 39
0.003
 10
-0.140181
 20
-0.25939
 40
0.003
 41
0.003
 10
-0.160201
 20
-0.238224
 40
0.003
 41
0.003
  0
LWPOLYLINE
  5
302
100
AcDbEntity
  8
0
 62
     0
100
AcDbPolyline
 90
        2
 70
     0
 39
0.003
 10
-0.160201
 20
-0.238224
 40
0.003
 41
0.003
 10
-0.180307
 20
-0.217339
 40
0.003
 41
0.003
  0
LWPOLYLINE
  5
303
100
AcDbEntity
  8
0
 62
     0
100
AcDbPolyline
 90
        2
 70
     0
 39
0.003
 10
-0.180307
 20
-0.217339
 40
0.003
 41
0.003
 10
-0.20028
 20
-0.196685
 40
0.003
 41
0.003
  0
LWPOLYLINE
  5
304
100
AcDbEntity
  8
0
 62
     0
100
AcDbPolyline
 90
        2
 70
     0
 39
0.003
 10
-0.20028
 20
-0.196685
 40
0.003
 41
0.003
 10
-0.219933
 20
-0.176224
 40
0.003
 41
0.003
  0
LWPOLYLINE
  5
305
100
AcDbEntity
  8
0
 62
     0
100
AcDbPolyline
 90
        2
 70
     0
 39
0.003
 10
-0.219933
 20
-0.176224
 40
0.003
 41
0.003
 10
-0.239047
 20
-0.155902
 40
0.003
 41
0.003
  0
LWPOLYLINE
  5
306
100
AcDbEntity
  8
0
 62
     0
100
AcDbPolyline
 90
        2
 70
     0
 39
0.003
 10
-0.239047
 20
-0.155902
 40
0.003
 41
0.003
 10
-0.257429
 20
-0.135693
 40
0.003
 41
0.003
  0
LWPOLYLINE
  5
307
100
AcDbEntity
  8
0
 62
     0
100
AcDbPolyline
 90
        2
 70
     0
 39
0.003
 10
-0.257429
 20
-0.135693
 40
0.003
 41
0.003
 10
-0.274886
 20
-0.115531
 40
0.003
 41
0.003
  0
LWPOLYLINE
  5
308
100
AcDbEntity
  8
0
 62
     0
100
AcDbPolyline
 90
        2
 70
     0
 39
0.003
 10
-0.274886
 20
-0.115531
 40
0.003
 41
0.003
 10
-0.291197
 20
-0.095386
 40
0.003
 41
0.003
  0
LWPOLYLINE
  5
309
100
AcDbEntity
  8
0
 62
     0
100
AcDbPolyline
 90
        2
 70
     0
 39
0.003
 10
-0.291197
 20
-0.095386
 40
0.003
 41
0.003
 10
-0.306177
 20
-0.075205
 40
0.003
 41
0.003
  0
LWPOLYLINE
  5
30A
100
AcDbEntity
  8
0
 62
     0
100
AcDbPolyline
 90
        2
 70
     0
 39
0.003
 10
-0.306177
 20
-0.075205
 40
0.003
 41
0.003
 10
-0.319606
 20
-0.054953
 40
0.003
 41
0.003
  0
LWPOLYLINE
  5
30B
100
AcDbEntity
  8
0
 62
     0
100
AcDbPolyline
 90
        2
 70
     0
 39
0.003
 10
-0.319606
 20
-0.054953
 40
0.003
 41
0.003
 10
-0.331291
 20
-0.034583
 40
0.003
 41
0.003
  0
LWPOLYLINE
  5
30C
100
AcDbEntity
  8
0
 62
     0
100
AcDbPolyline
 90
        2
 70
     0
 39
0.003
 10
-0.331291
 20
-0.034583
 40
0.003
 41
0.003
 10
-0.341028
 20
-0.014051
 40
0.003
 41
0.003
  0
LWPOLYLINE
  5
30D
100
AcDbEntity
  8
0
 62
     0
100
AcDbPolyline
 90
        2
 70
     0
 39
0.003
 10
-0.341028
 20
-0.014051
 40
0.003
 41
0.003
 10
-0.34861
 20
0.006693
 40
0.003
 41
0.003
  0
LWPOLYLINE
  5
30E
100
AcDbEntity
  8
0
 62
     0
100
AcDbPolyline
 90
        2
 70
     0
 39
0.003
 10
-0.34861
 20
0.006693
 40
0.003
 41
0.003
 10
-0.356465
 20
0.034067
 40
0.003
 41
0.003
  0
LWPOLYLINE
  5
30F
100
AcDbEntity
  8
0
 62
     0
100
AcDbPolyline
 90
        2
 70
     0
 39
0.003
 10
-0.356465
 20
0.034067
 40
0.003
 41
0.003
 10
-0.363406
 20
0.061937
 40
0.003
 41
0.003
  0
LWPOLYLINE
  5
310
100
AcDbEntity
  8
0
 62
     0
100
AcDbPolyline
 90
        2
 70
     0
 39
0.003
 10
-0.363406
 20
0.061937
 40
0.003
 41
0.003
 10
-0.369555
 20
0.090197
 40
0.003
 41
0.003
  0
LWPOLYLINE
  5
311
100
AcDbEntity
  8
0
 62
     0
100
AcDbPolyline
 90
        2
 70
     0
 39
0.003
 10
-0.369555
 20
0.090197
 40
0.003
 41
0.003
 10
-0.375055
 20
0.118776
 40
0.003
 41
0.003
  0
LWPOLYLINE
  5
312
100
AcDbEntity
  8
0
 62
     0
100
AcDbPolyline
 90
        2
 70
     0
 39
0.003
 10
-0.375055
 20
0.118776
 40
0.003
 41
0.003
 10
-0.380028
 20
0.147563
 40
0.003
 41
0.003
  0
LWPOLYLINE
  5
313
100
AcDbEntity
  8
0
 62
     0
100
AcDbPolyline
 90
        2
 70
     0
 39
0.003
 10
-0.380028
 20
0.147563
 40
0.003
 41
0.003
 10
-0.38461
 20
0.176492
 40
0.003
 41
0.003
  0
LWPOLYLINE
  5
314
100
AcDbEntity
  8
0
 62
     0
100
AcDbPolyline
 90
        2
 70
     0
 39
0.003
 10
-0.38461
 20
0.176492
 40
0.003
 41
0.003
 10
-0.388933
 20
0.205461
 40
0.003
 41
0.003
  0
LWPOLYLINE
  5
315
100
AcDbEntity
  8
0
 62
     0
100
AcDbPolyline
 90
        2
 70
     0
 39
0.003
 10
-0.388933
 20
0.205461
 40
0.003
 41
0.003
 10
-0.393138
 20
0.23439
 40
0.003
 41
0.003
  0
LWPOLYLINE
  5
316
100
AcDbEntity
  8
0
 62
     0
100
AcDbPolyline
 90
        2
 70
     0
 39
0.003
 10
-0.393138
 20
0.23439
 40
0.003
 41
0.003
 10
-0.397335
 20
0.263177
 40
0.003
 41
0.003
  0
LWPOLYLINE
  5
317
100
AcDbEntity
  8
0
 62
     0
100
AcDbPolyline
 90
        2
 70
     0
 39
0.003
 10
-0.397335
 20
0.263177
 40
0.003
 41
0.003
 10
-0.401677
 20
0.291752
 40
0.003
 41
0.003
  0
LWPOLYLINE
  5
318
100
AcDbEntity
  8
0
 62
     0
100
AcDbPolyline
 90
        2
 70
     0
 39
0.003
 10
-0.401677
 20
0.291752
 40
0.003
 41
0.003
 10
-0.406287
 20
0.320016
 40
0.003
 41
0.003
  0
LWPOLYLINE
  5
319
100
AcDbEntity
  8
0
 62
     0
100
AcDbPolyline
 90
        2
 70
     0
 39
0.003
 10
-0.406287
 20
0.320016
 40
0.003
 41
0.003
 10
-0.411307
 20
0.347886
 40
0.003
 41
0.003
  0
LWPOLYLINE
  5
31A
100
AcDbEntity
  8
0
 62
     0
100
AcDbPolyline
 90
        2
 70
     0
 39
0.003
 10
-0.411307
 20
0.347886
 40
0.003
 41
0.003
 10
-0.41685
 20
0.375264
 40
0.003
 41
0.003
  0
LWPOLYLINE
  5
31B
100
AcDbEntity
  8
0
 62
     0
100
AcDbPolyline
 90
        2
 70
     0
 39
0.003
 10
-0.41685
 20
0.375264
 40
0.003
 41
0.003
 10
-0.423067
 20
0.402075
 40
0.003
 41
0.003
  0
LWPOLYLINE
  5
31C
100
AcDbEntity
  8
0
 62
     0
100
AcDbPolyline
 90
        2
 70
     0
 39
0.003
 10
-0.423067
 20
0.402075
 40
0.003
 41
0.003
 10
-0.430079
 20
0.42822
 40
0.003
 41
0.003
  0
LWPOLYLINE
  5
31D
100
AcDbEntity
  8
0
 62
     0
100
AcDbPolyline
 90
        2
 70
     0
 39
0.003
 10
-0.430079
 20
0.42822
 40
0.003
 41
0.003
 10
-0.438028
 20
0.453618
 40
0.003
 41
0.003
  0
LWPOLYLINE
  5
31E
100
AcDbEntity
  8
0
 62
     0
100
AcDbPolyline
 90
        2
 70
     0
 39
0.003
 10
-0.438028
 20
0.453618
 40
0.003
 41
0.003
 10
-0.447028
 20
0.478169
 40
0.003
 41
0.003
  0
LWPOLYLINE
  5
31F
100
AcDbEntity
  8
0
 62
     0
100
AcDbPolyline
 90
        2
 70
     0
 39
0.003
 10
-0.447028
 20
0.478169
 40
0.003
 41
0.003
 10
-0.457228
 20
0.501799
 40
0.003
 41
0.003
  0
LWPOLYLINE
  5
320
100
AcDbEntity
  8
0
 62
     0
100
AcDbPolyline
 90
        2
 70
     0
 39
0.003
 10
-0.457228
 20
0.501799
 40
0.003
 41
0.003
 10
-0.468756
 20
0.524413
 40
0.003
 41
0.003
  0
LWPOLYLINE
  5
321
100
AcDbEntity
  8
0
 62
     0
100
AcDbPolyline
 90
        2
 70
     0
 39
0.003
 10
-0.468756
 20
0.524413
 40
0.003
 41
0.003
 10
-0.481744
 20
0.545925
 40
0.003
 41
0.003
  0
LWPOLYLINE
  5
322
100
AcDbEntity
  8
0
 62
     0
100
AcDbPolyline
 90
        2
 70
     0
 39
0.003
 10
-0.481744
 20
0.545925
 40
0.003
 41
0.003
 10
-0.496319
 20
0.56624
 40
0.003
 41
0.003
  0
LWPOLYLINE
  5
323
100
AcDbEntity
  8
0
 62
     0
100
AcDbPolyline
 90
        2
 70
     0
 39
0.003
 10
-0.496319
 20
0.56624
 40
0.003
 41
0.003
 10
-0.512626
 20
0.58528
 40
0.003
 41
0.003
  0
LWPOLYLINE
  5
324
100
AcDbEntity
  8
0
 62
     0
100
AcDbPolyline
 90
        2
 70
     0
 39
0.003
 10
-0.512626
 20
0.58528
 40
0.003
 41
0.003
 10
-0.530783
 20
0.602949
 40
0.003
 41
0.003
  0
LWPOLYLINE
  5
325
100
AcDbEntity
  8
0
 62
     0
100
AcDbPolyline
 90
        2
 70
     0
 39
0.003
 10
-0.530783
 20
0.602949
 40
0.003
 41
0.003
 10
-0.550933
 20
0.619169
 40
0.003
 41
0.003
  0
LWPOLYLINE
  5
326
100
AcDbEntity
  8
0
 62
     0
100
AcDbPolyline
 90
        2
 70
     0
 39
0.003
 10
-0.550933
 20
0.619169
 40
0.003
 41
0.003
 10
-0.573193
 20
0.633835
 40
0.003
 41
0.003
  0
LWPOLYLINE
  5
327
100
AcDbEntity
  8
0
 62
     0
100
AcDbPolyline
 90
        2
 70
     0
 39
0.003
 10
-0.573193
 20
0.633835
 40
0.003
 41
0.003
 10
-0.597713
 20
0.646874
 40
0.003
 41
0.003
  0
LWPOLYLINE
  5
328
100
AcDbEntity
  8
0
 62
     0
100
AcDbPolyline
 90
        2
 70
     0
 39
0.003
 10
-0.597713
 20
0.646874
 40
0.003
 41
0.003
 10
-0.624614
 20
0.658185
 40
0.003
 41
0.003
  0
LWPOLYLINE
  5
329
100
AcDbEntity
  8
0
 62
     0
100
AcDbPolyline
 90
        2
 70
     0
 39
0.003
 10
-0.624614
 20
0.658185
 40
0.003
 41
0.003
 10
-0.654039
 20
0.667697
 40
0.003
 41
0.003
  0
LWPOLYLINE
  5
32A
100
AcDbEntity
  8
0
 62
     0
100
AcDbPolyline
 90
        2
 70
     0
 39
0.003
 10
-0.654039
 20
0.667697
 40
0.003
 41
0.003
 10
-0.686106
 20
0.675299
 40
0.003
 41
0.003
  0
LWPOLYLINE
  5
32B
100
AcDbEntity
  8
0
 62
     0
100
AcDbPolyline
 90
        2
 70
     0
 39
0.003
 10
-0.686106
 20
0.675299
 40
0.003
 41
0.003
 10
-0.720957
 20
0.680921
 40
0.003
 41
0.003
  0
LWPOLYLINE
  5
32C
100
AcDbEntity
  8
0
 62
     0
100
AcDbPolyline
 90
        2
 70
     0
 39
0.003
 10
-0.720957
 20
0.680921
 40
0.003
 41
0.003
 10
-0.758717
 20
0.684469
 40
0.003
 41
0.003
  0
LWPOLYLINE
  5
32D
100
AcDbEntity
  8
0
 62
     0
100
AcDbPolyline
 90
        2
 70
     0
 39
0.003
 10
-0.758717
 20
0.684469
 40
0.003
 41
0.003
 10
-0.799531
 20
0.685858
 40
0.003
 41
0.003
  0
SPLINE
  5
32E
100
AcDbEntity
  8
0
 62
     7
100
AcDbSpline
210
0.0
220
0.0
230
1.0
 70
     0
 71
     3
 72
     0
 73
     0
 74
    32
 44
0.0000000001
 11
-0.7995314960629921
 21
0.6858582677165355
 31
0.0
 11
-0.7209566929133858
 21
0.6809212598425197
 31
0.0
 11
-0.6540393700787401
 21
0.6676968503937008
 31
0.0
 11
-0.5977125984251969
 21
0.6468740157480315
 31
0.0
 11
-0.5509330708661417
 21
0.6191692913385827
 31
0.0
 11
-0.5126259842519685
 21
0.5852795275590551
 31
0.0
 11
-0.481744094488189
 21
0.5459251968503937
 31
0.0
 11
-0.4572283464566929
 21
0.5017992125984252
 31
0.0
 11
-0.4380275590551181
 21
0.4536181102362205
 31
0.0
 11
-0.4230669291338583
 21
0.4020748031496063
 31
0.0
 11
-0.4113070866141732
 21
0.3478858267716535
 31
0.0
 11
-0.4016771653543307
 21
0.291751968503937
 31
0.0
 11
-0.3931377952755906
 21
0.2343897637795276
 31
0.0
 11
-0.3846102362204725
 21
0.176492125984252
 31
0.0
 11
-0.3750551181102362
 21
0.1187755905511811
 31
0.0
 11
-0.3634055118110236
 21
0.0619370078740158
 31
0.0
 11
-0.3486102362204724
 21
0.0066929133858268
 31
0.0
 11
-0.3312913385826772
 21
-0.0345708661417323
 31
0.0
 11
-0.3061771653543307
 21
-0.0751929133858268
 31
0.0
 11
-0.2748858267716535
 21
-0.115511811023622
 31
0.0
 11
-0.2390393700787402
 21
-0.1558897637795276
 31
0.0
 11
-0.200259842519685
 21
-0.1966692913385827
 31
0.0
 11
-0.1601850393700788
 21
-0.2382086614173228
 31
0.0
 11
-0.1204291338582677
 21
-0.2808543307086614
 31
0.0
 11
-0.0826259842519685
 21
-0.3249685039370079
 31
0.0
 11
-0.0483858267716535
 21
-0.3708858267716536
 31
0.0
 11
-0.0193464566929134
 21
-0.4189763779527559
 31
0.0
 11
0.0028700787401575
 21
-0.4695787401574803
 31
0.0
 11
0.0166456692913386
 21
-0.5230551181102362
 31
0.0
 11
0.0203425196850394
 21
-0.579744094488189
 31
0.0
 11
0.0123543307086614
 21
-0.640011811023622
 31
0.0
 11
-0.0089527559055118
 21
-0.7042047244094488
 31
0.0
  0
LWPOLYLINE
  5
32F
100
AcDbEntity
  8
0
 62
     7
100
AcDbPolyline
 90
        2
 70
     0
 39
0.003
 10
-0.008953
 20
-0.704205
 40
0.003
 41
0.003
 10
-0.045213
 20
-0.772677
 40
0.003
 41
0.003
  0
LWPOLYLINE
  5
330
100
AcDbEntity
  8
0
 62
     7
100
AcDbPolyline
 90
        2
 70
     0
 39
0.003
 10
-0.045213
 20
-0.772677
 40
0.003
 41
0.003
 10
-0.231705
 20
-0.772677
 40
0.003
 41
0.003
  0
LWPOLYLINE
  5
331
100
AcDbEntity
  8
0
 62
     7
100
AcDbPolyline
 90
        2
 70
     0
 39
0.003
 10
-0.231705
 20
-0.772677
 40
0.003
 41
0.003
 10
-0.231705
 20
-0.588949
 40
0.003
 41
0.003
  0
LWPOLYLINE
  5
332
100
AcDbEntity
  8
0
 62
     7
100
AcDbPolyline
 90
        2
 70
     0
 39
0.003
 10
-0.231705
 20
-0.588949
 40
0.003
 41
0.003
 10
-0.796776
 20
-0.588949
 40
0.003
 41
0.003
  0
LWPOLYLINE
  5
333
100
AcDbEntity
  8
0
 62
     7
100
AcDbPolyline
 90
        2
 70
     0
 39
0.003
 10
-0.796776
 20
-0.588949
 40
0.003
 41
0.003
 10
-0.799531
 20
0.685858
 40
0.003
 41
0.003
  0
MTEXT
  5
334
100
AcDbEntity
  8
0
 62
     0
100
AcDbMText
 10
-1.491248
 20
-0.640035
 30
0.0
 40
0.166665
 41
0.0
 71
     1
 72
     1
  1
{\fBookman Old Style|b0|i0|c0|p32;BA  1416}
 73
     1
 44
1.0
  0
MTEXT
  5
335
100
AcDbEntity
  8
0
 62
     0
100
AcDbMText
 10
-1.491248
 20
-0.827535
 30
0.0
 40
0.166665
 41
0.0
 71
     1
 72
     1
  1
{\fBookman Old Style|b0|i0|c0|p32;13/16" x 1-7/16"}
 73
     1
 44
1.0
  0
MTEXT
  5
336
100
AcDbEntity
  8
0
 62
     0
100
AcDbMText
 10
-1.623386
 20
1.929673
 30
0.0
 40
0.166665
 41
0.0
 71
     1
 72
     1
  1
{\fBookman Old Style|b0|i0|c0|p32;BA  1416}
 73
     1
 44
1.0
  0
MTEXT
  5
337
100
AcDbEntity
  8
0
 62
     0
100
AcDbMText
 10
-1.623386
 20
1.742173
 30
0.0
 40
0.166665
 41
0.0
 71
     1
 72
     1
  1
{\fBookman Old Style|b0|i0|c0|p32;13/16" x 1-7/16"}
 73
     1
 44
1.0
  0
ENDSEC
  0
SECTION
  2
OBJECTS
  0
DICTIONARY
  5
19
100
AcDbDictionary
280
     0
281
     1
  3
ACAD_GROUP
350
1A
  3
ACAD_MLINESTYLE
350
1B
  3
ACAD_LAYOUT
350
1E
  3
ACAD_PLOTSETTINGS
350
22
  3
ACAD_PLOTSTYLENAME
350
1F
  3
ACAD_WIPEOUT_VARS
350
23
  0
DICTIONARY
  5
1A
102
{ACAD_REACTORS
330
19
102
}
100
AcDbDictionary
280
     0
281
     1
  0
DICTIONARY
  5
1B
102
{ACAD_REACTORS
330
19
102
}
100
AcDbDictionary
280
     0
281
     1
  3
Standard
350
1C
  0
MLINESTYLE
  5
1C
102
{ACAD_REACTORS
330
1B
102
}
100
AcDbMlineStyle
  2
Standard
 70
     0
  3

 62
     0
 51
90.0
 52
90.0
 71
     2
 49
0.5
 62
   256
  6
BYLAYER
 49
-0.5
 62
   256
  6
BYLAYER
  0
ACDBDICTIONARYWDFLT
  5
1F
102
{ACAD_REACTORS
330
19
102
}
100
AcDbDictionary
281
     1
  3
Normal
350
1D
100
AcDbDictionaryWithDefault
340
1D
  0
ACDBPLACEHOLDER
  5
1D
102
{ACAD_REACTORS
330
1F
102
}
  0
LAYOUT
  5
20
102
{ACAD_REACTORS
330
1E
102
}
100
AcDbPlotSettings
  1

  2

  4

  6

 40
0.0
 41
0.0
 42
0.0
 43
0.0
 44
0.0
 45
0.0
 46
0.0
 47
0.0
 48
0.0
 49
0.0
140
0.0
141
0.0
142
1.0
143
1.0
 70
  1024
 72
     0
 73
     0
 74
     0
  7

 75
     0
147
1.0
148
0.0
149
0.0
100
AcDbLayout
  1
Model
 70
     0
 71
     0
 10
0.0
 20
0.0
 11
0.0
 21
0.0
 12
0.0
 22
0.0
 32
0.0
 14
0.0
 24
0.0
 34
0.0
 15
0.0
 25
0.0
 35
0.0
146
0.0
 13
0.0
 23
0.0
 33
0.0
 16
0.0
 26
0.0
 36
0.0
 17
0.0
 27
0.0
 37
0.0
 76
     0
330
A
331
0
345
0
346
0
  0
LAYOUT
  5
21
102
{ACAD_REACTORS
330
1E
102
}
100
AcDbPlotSettings
  1

  2

  4

  6

 40
0.0
 41
0.0
 42
0.0
 43
0.0
 44
0.0
 45
0.0
 46
0.0
 47
0.0
 48
0.0
 49
0.0
140
0.0
141
0.0
142
1.0
143
1.0
 70
     0
 72
     0
 73
     0
 74
     0
  7

 75
     0
147
1.0
148
0.0
149
0.0
100
AcDbLayout
  1
Layout1
 70
     0
 71
     0
 10
0.0
 20
0.0
 11
0.0
 21
0.0
 12
0.0
 22
0.0
 32
0.0
 14
0.0
 24
0.0
 34
0.0
 15
0.0
 25
0.0
 35
0.0
146
0.0
 13
0.0
 23
0.0
 33
0.0
 16
0.0
 26
0.0
 36
0.0
 17
0.0
 27
0.0
 37
0.0
 76
     0
330
B
331
0
345
0
346
0
  0
DICTIONARY
  5
1E
102
{ACAD_REACTORS
330
19
102
}
100
AcDbDictionary
280
     0
281
     1
  3
Layout1
350
21
  3
Model
350
20
  0
DICTIONARY
  5
22
102
{ACAD_REACTORS
330
19
102
}
100
AcDbDictionary
280
     0
281
     1
  0
WIPEOUTVARIABLES
  5
23
100
AcDbWipeoutVariables
 70
     1
  0
ENDSEC
  0
EOF
