  0
SECTION
  2
HEADER
  9
$ACADVER
  1
AC1015
  9
$ACADMAINTVER
 70
     6
  9
$DWGCODEPAGE
  3
DOS850
  9
$INSBASE
 10
0.0
 20
0.0
 30
0.0
  9
$EXTMIN
 10
1.000000E+20
 20
1.000000E+20
 30
1.000000E+20
  9
$EXTMAX
 10
-1.000000E+20
 20
-1.000000E+20
 30
-1.000000E+20
  9
$LIMMIN
 10
0.0
 20
0.0
  9
$LIMMAX
 10
0.0
 20
0.0
  9
$ORTHOMODE
 70
     0
  9
$REGENMODE
 70
     1
  9
$FILLMODE
 70
     1
  9
$QTEXTMODE
 70
     0
  9
$MIRRTEXT
 70
     1
  9
$LTSCALE
 40
1.0
  9
$ATTMODE
 70
     1
  9
$TEXTSIZE
 40
0.2
  9
$TRACEWID
 40
0.05
  9
$TEXTSTYLE
  7
Standard
  9
$CLAYER
  8
0
  9
$CELTYPE
  6
Continuous
  9
$CECOLOR
 62
   256
  9
$CELTSCALE
 40
1.0
  9
$DISPSILH
 70
     0
  9
$DIMSCALE
 40
1.0
  9
$DIMASZ
 40
0.18
  9
$DIMEXO
 40
0.0625
  9
$DIMDLI
 40
0.38
  9
$DIMRND
 40
0.0
  9
$DIMDLE
 40
0.0
  9
$DIMEXE
 40
0.18
  9
$DIMTP
 40
0.0
  9
$DIMTM
 40
0.0
  9
$DIMTXT
 40
0.18
  9
$DIMCEN
 40
0.09
  9
$DIMTSZ
 40
0.0
  9
$DIMTOL
 70
     0
  9
$DIMLIM
 70
     0
  9
$DIMTIH
 70
     1
  9
$DIMTOH
 70
     1
  9
$DIMSE1
 70
     0
  9
$DIMSE2
 70
     0
  9
$DIMTAD
 70
     0
  9
$DIMZIN
 70
     0
  9
$DIMBLK
  1

  9
$DIMASO
 70
     1
  9
$DIMSHO
 70
     1
  9
$DIMPOST
  1

  9
$DIMAPOST
  1

  9
$DIMALT
 70
     0
  9
$DIMALTD
 70
     2
  9
$DIMALTF
 40
25.4
  9
$DIMLFAC
 40
1.0
  9
$DIMTOFL
 70
     0
  9
$DIMTVP
 40
0.0
  9
$DIMTIX
 70
     0
  9
$DIMSOXD
 70
     0
  9
$DIMSAH
 70
     0
  9
$DIMBLK1
  1

  9
$DIMBLK2
  1

  9
$DIMSTYLE
  2
Standard
  9
$DIMCLRD
 70
     0
  9
$DIMCLRE
 70
     0
  9
$DIMCLRT
 70
     0
  9
$DIMTFAC
 40
1.0
  9
$DIMGAP
 40
0.09
  9
$DIMJUST
 70
     0
  9
$DIMSD1
 70
     0
  9
$DIMSD2
 70
     0
  9
$DIMTOLJ
 70
     1
  9
$DIMTZIN
 70
     0
  9
$DIMALTZ
 70
     0
  9
$DIMALTTZ
 70
     0
  9
$DIMUPT
 70
     0
  9
$DIMDEC
 70
     4
  9
$DIMTDEC
 70
     4
  9
$DIMALTU
 70
     2
  9
$DIMALTTD
 70
     2
  9
$DIMTXSTY
  7
Standard
  9
$DIMAUNIT
 70
     0
  9
$DIMADEC
 70
     0
  9
$DIMALTRND
 40
0.0
  9
$DIMAZIN
 70
     0
  9
$DIMDSEP
 70
     0
  9
$DIMATFIT
 70
     3
  9
$DIMFRAC
 70
     0
  9
$DIMLDRBLK
  1

  9
$DIMLUNIT
 70
     2
  9
$DIMLWD
 70
     0
  9
$DIMLWE
 70
     0
  9
$DIMTMOVE
 70
     0
  9
$LUNITS
 70
     2
  9
$LUPREC
 70
     4
  9
$SKETCHINC
 40
0.1
  9
$FILLETRAD
 40
0.0
  9
$AUNITS
 70
     0
  9
$AUPREC
 70
     0
  9
$MENU
  1
acad
  9
$ELEVATION
 40
0.0
  9
$PELEVATION
 40
0.0
  9
$THICKNESS
 40
0.0
  9
$LIMCHECK
 70
     0
  9
$CHAMFERA
 40
0.0
  9
$CHAMFERB
 40
0.0
  9
$CHAMFERC
 40
0.0
  9
$CHAMFERD
 40
0.0
  9
$SKPOLY
 70
     0
  9
$TDCREATE
 40
0.000000000
  9
$TDUCREATE
 40
0.000000000
  9
$TDUPDATE
 40
0.000000000
  9
$TDUUPDATE
 40
0.000000000
  9
$TDINDWG
 40
0.0000000000
  9
$TDUSRTIMER
 40
0.0000000000
  9
$USRTIMER
 70
     1
  9
$ANGBASE
 50
0.0
  9
$ANGDIR
 70
     0
  9
$PDMODE
 70
     0
  9
$PDSIZE
 40
0.0
  9
$PLINEWID
 40
0.0
  9
$SPLFRAME
 70
     0
  9
$SPLINETYPE
 70
     6
  9
$SPLINESEGS
 70
     8
  9
$HANDSEED
  5
654
  9
$SURFTAB1
 70
     6
  9
$SURFTAB2
 70
     6
  9
$SURFTYPE
 70
     6
  9
$SURFU
 70
     6
  9
$SURFV
 70
     6
  9
$UCSBASE
  2

  9
$UCSNAME
  2

  9
$UCSORG
 10
0.0
 20
0.0
 30
0.0
  9
$UCSXDIR
 10
1.0
 20
0.0
 30
0.0
  9
$UCSYDIR
 10
0.0
 20
1.0
 30
0.0
  9
$UCSORTHOREF
  2

  9
$UCSORTHOVIEW
 70
     0
  9
$UCSORGTOP
 10
0.0
 20
0.0
 30
0.0
  9
$UCSORGBOTTOM
 10
0.0
 20
0.0
 30
0.0
  9
$UCSORGLEFT
 10
0.0
 20
0.0
 30
0.0
  9
$UCSORGRIGHT
 10
0.0
 20
0.0
 30
0.0
  9
$UCSORGFRONT
 10
0.0
 20
0.0
 30
0.0
  9
$UCSORGBACK
 10
0.0
 20
0.0
 30
0.0
  9
$PUCSBASE
  2

  9
$PUCSNAME
  2

  9
$PUCSORG
 10
0.0
 20
0.0
 30
0.0
  9
$PUCSXDIR
 10
1.0
 20
0.0
 30
0.0
  9
$PUCSYDIR
 10
0.0
 20
1.0
 30
0.0
  9
$PUCSORTHOREF
  2

  9
$PUCSORTHOVIEW
 70
     0
  9
$PUCSORGTOP
 10
0.0
 20
0.0
 30
0.0
  9
$PUCSORGBOTTOM
 10
0.0
 20
0.0
 30
0.0
  9
$PUCSORGLEFT
 10
0.0
 20
0.0
 30
0.0
  9
$PUCSORGRIGHT
 10
0.0
 20
0.0
 30
0.0
  9
$PUCSORGFRONT
 10
0.0
 20
0.0
 30
0.0
  9
$PUCSORGBACK
 10
0.0
 20
0.0
 30
0.0
  9
$USERI1
 70
     0
  9
$USERI2
 70
     0
  9
$USERI3
 70
     0
  9
$USERI4
 70
     0
  9
$USERI5
 70
     0
  9
$USERR1
 40
0.0
  9
$USERR2
 40
0.0
  9
$USERR3
 40
0.0
  9
$USERR4
 40
0.0
  9
$USERR5
 40
0.0
  9
$WORLDVIEW
 70
     1
  9
$SHADEDGE
 70
     3
  9
$SHADEDIF
 70
    70
  9
$TILEMODE
 70
     1
  9
$MAXACTVP
 70
    16
  9
$PINSBASE
 10
0.0
 20
0.0
 30
0.0
  9
$PLIMCHECK
 70
     0
  9
$PEXTMIN
 10
1.000000E+20
 20
1.000000E+20
 30
1.000000E+20
  9
$PEXTMAX
 10
-1.000000E+20
 20
-1.000000E+20
 30
-1.000000E+20
  9
$PLIMMIN
 10
0.0
 20
0.0
  9
$PLIMMAX
 10
12.0
 20
9.0
  9
$UNITMODE
 70
     0
  9
$VISRETAIN
 70
     0
  9
$PLINEGEN
 70
     1
  9
$PSLTSCALE
 70
     0
  9
$TREEDEPTH
 70
  3020
  9
$CMLSTYLE
  2
Standard
  9
$CMLJUST
 70
     0
  9
$CMLSCALE
 40
1.0
  9
$PROXYGRAPHICS
 70
     0
  9
$MEASUREMENT
 70
     0
  9
$CELWEIGHT
370
     0
  9
$ENDCAPS
280
     0
  9
$JOINSTYLE
280
     0
  9
$LWDISPLAY
290
     0
  9
$INSUNITS
 70
     0
  9
$HYPERLINKBASE
  1

  9
$XEDIT
290
     1
  9
$CEPSNTYPE
380
     0
  9
$PSTYLEMODE
290
     1
  9
$FINGERPRINTGUID
  2

  9
$VERSIONGUID
  2

  9
$EXTNAMES
290
     1
  9
$PSVPSCALE
 40
0.0
  0
ENDSEC
  0
SECTION
  2
CLASSES
  0
CLASS
  1
LWPOLYLINE
  2
AcDbPolyline
  3
AutoCAD 2000
 90
        0
280
     0
281
     1
  0
CLASS
  1
IMAGE
  2
AcDbRasterImage
  3
ISM
 90
    32895
280
     0
281
     1
  0
CLASS
  1
OLE2FRAME
  2
AcDbOle2Frame
  3
AutoCAD 2000
 90
    32768
280
     0
281
     1
  0
CLASS
  1
HATCH
  2
AcDbHatch
  3
AutoCAD 2000
 90
    32768
280
     0
281
     1
  0
CLASS
  1
DICTIONARYVAR
  2
AcDbDictionaryVar
  3
AutoCAD 2000
 90
    32768
280
     0
281
     0
  0
CLASS
  1
RASTERVARIABLES
  2
AcDbRasterVariables
  3
ISM
 90
    32768
280
     0
281
     0
  0
CLASS
  1
IMAGEDEF
  2
AcDbRasterImageDef
  3
ISM
 90
    32768
280
     0
281
     0
  0
CLASS
  1
IMAGEDEF_REACTOR
  2
AcDbRasterImageDefReactor
  3
ISM
 90
    32769
280
     0
281
     0
  0
CLASS
  1
IDBUFFER
  2
AcDbIdBuffer
  3
AutoCAD 2000
 90
    32768
280
     0
281
     0
  0
CLASS
  1
SPATIAL_FILTER
  2
AcDbSpatialFilter
  3
AutoCAD 2000
 90
    32768
280
     0
281
     0
  0
CLASS
  1
XRECORD
  2
AcDbXrecord
  3
AutoCAD 2000
 90
    32768
280
     0
281
     0
  0
CLASS
  1
SORTENTSTABLE
  2
AcDbSortentsTable
  3
AutoCAD 2000
 90
    32768
280
     0
281
     0
  0
CLASS
  1
LAYER_INDEX
  2
AcDbLayerIndex
  3
AutoCAD 2000
 90
    32768
280
     0
281
     0
  0
CLASS
  1
SPATIAL_INDEX
  2
AcDbSpatialIndex
  3
AutoCAD 2000
 90
    32768
280
     0
281
     0
  0
CLASS
  1
OBJECT_PTR
  2
CAseDLPNTableRecord
  3
"ASE-LPNTableRecord"
 90
    32769
280
     0
281
     0
  0
CLASS
  1
LAYOUT
  2
AcDbLayout
  3
AutoCAD 2000
 90
        0
280
     0
281
     0
  0
CLASS
  1
PLOTSETTINGS
  2
AcDbPlotSettings
  3
AutoCAD 2000
 90
    32768
280
     0
281
     0
  0
CLASS
  1
ACDBDICTIONARYWDFLT
  2
AcDbDictionaryWithDefault
  3
AutoCAD 2000
 90
        0
280
     0
281
     0
  0
CLASS
  1
ACDBPLACEHOLDER
  2
AcDbPlaceHolder
  3
AutoCAD 2000
 90
        0
280
     0
281
     0
  0
CLASS
  1
VBA_PROJECT
  2
AcDbVbaProject
  3
acadvba
 90
    32768
280
     0
281
     0
  0
CLASS
  1
WIPEOUT
  2
AcDbWipeout
  3
WipeOut|AutoCAD Express Tool|expresstools@autodesk.com
 90
    32895
280
     0
281
     1
  0
CLASS
  1
WIPEOUTVARIABLES
  2
AcDbWipeoutVariables
  3
WipeOut|AutoCAD Express Tool|expresstools@autodesk.com
 90
        0
280
     0
281
     0
  0
CLASS
  1
RTEXT
  2
RText
  3
RText|AutoCAD Express Tool|expresstools@autodesk.com
 90
    32768
280
     0
281
     1
  0
CLASS
  1
ARCALIGNEDTEXT
  2
AcDbArcAlignedText
  3
ATEXT|AutoCAD Express Tool|expresstools@autodesk.com
 90
    32768
280
     0
281
     1
  0
ENDSEC
  0
SECTION
  2
TABLES
  0
TABLE
  2
VPORT
  5
7
100
AcDbSymbolTable
 70
     1
  0
VPORT
  5
15
100
AcDbSymbolTableRecord
100
AcDbViewportTableRecord
  2
*ACTIVE
 70
     0
 10
0.0
 20
0.0
 11
1.0
 21
1.0
 12
6.591288
 22
4.579184
 13
0.0
 23
0.0
 14
1.0
 24
1.0
 15
0.0
 25
0.0
 16
0.0
 26
0.0
 36
1.0
 17
0.0
 27
0.0
 37
0.0
 40
9.158369
 41
0.688564
 42
50.0
 43
0.0
 44
0.0
 50
0.0
 51
0.0
 71
     0
 72
   100
 73
     1
 74
     1
 75
     0
 76
     0
 77
     0
 78
     0
281
     0
 65
     0
110
0.0
120
0.0
130
0.0
111
1.0
121
0.0
131
0.0
112
0.0
122
1.0
132
0.0
345
0
346
0
 79
     0
146
0.0
  0
ENDTAB
  0
TABLE
  2
LTYPE
  5
4
100
AcDbSymbolTable
 70
     3
  0
LTYPE
  5
11
100
AcDbSymbolTableRecord
100
AcDbLinetypeTableRecord
  2
ByBlock
 70
    64
  3

 72
    65
 73
     0
 40
0.0
  0
LTYPE
  5
12
100
AcDbSymbolTableRecord
100
AcDbLinetypeTableRecord
  2
ByLayer
 70
    64
  3

 72
    65
 73
     0
 40
0.0
  0
LTYPE
  5
13
100
AcDbSymbolTableRecord
100
AcDbLinetypeTableRecord
  2
Continuous
 70
    64
  3
Solid line
 72
    65
 73
     0
 40
0.0
  0
ENDTAB
  0
TABLE
  2
LAYER
  5
2
100
AcDbSymbolTable
 70
     1
  0
LAYER
  5
14
100
AcDbSymbolTableRecord
100
AcDbLayerTableRecord
  2
0
 70
     0
 62
     7
  6
Continuous
290
     1
370
    -3
390
1D
  0
ENDTAB
  0
TABLE
  2
STYLE
  5
3
100
AcDbSymbolTable
 70
     1
  0
STYLE
  5
17
100
AcDbSymbolTableRecord
100
AcDbTextStyleTableRecord
  2
Standard
 70
     0
 40
0.0
 41
1.0
 50
0.0
 71
     0
 42
0.0
  3
txt
  4

  0
ENDTAB
  0
TABLE
  2
VIEW
  5
5
100
AcDbSymbolTable
 70
     0
  0
ENDTAB
  0
TABLE
  2
UCS
  5
6
100
AcDbSymbolTable
 70
     0
  0
ENDTAB
  0
TABLE
  2
APPID
  5
8
100
AcDbSymbolTable
 70
     1
  0
APPID
  5
16
100
AcDbSymbolTableRecord
100
AcDbRegAppTableRecord
  2
ACAD
 70
     0
  0
ENDTAB
  0
TABLE
  2
DIMSTYLE
  5
9
100
AcDbSymbolTable
 70
     1
100
AcDbDimStyleTable
 71
     0
  0
DIMSTYLE
105
18
100
AcDbSymbolTableRecord
100
AcDbDimStyleTableRecord
  2
Standard
 70
     0
  3

  4

 40
1.0
 41
0.18
 42
0.0625
 43
0.38
 44
0.18
 45
0.0
 46
0.0
 47
0.0
 48
0.0
 71
     0
 72
     0
 73
     1
 74
     1
 75
     0
 76
     0
 77
     0
 78
     0
 79
     0
140
0.18
141
0.09
142
0.0
143
25.4
144
1.0
145
0.0
146
1.0
147
0.09
148
0.0
170
     0
171
     2
172
     0
173
     0
174
     0
175
     0
176
     0
177
     0
178
     0
179
     0
271
     4
272
     4
273
     2
274
     2
275
     0
276
     0
277
     2
278
    46
279
     0
280
     0
281
     0
282
     0
283
     1
284
     0
285
     0
286
     0
288
     0
340
17
341
0
342
0
343
0
344
0
371
    -2
372
    -2
  0
ENDTAB
  0
TABLE
  2
BLOCK_RECORD
  5
1
100
AcDbSymbolTable
 70
     0
  0
BLOCK_RECORD
  5
A
100
AcDbSymbolTableRecord
100
AcDbBlockTableRecord
  2
*MODEL_SPACE
340
20
  0
BLOCK_RECORD
  5
B
100
AcDbSymbolTableRecord
100
AcDbBlockTableRecord
  2
*PAPER_SPACE
340
21
  0
ENDTAB
  0
ENDSEC
  0
SECTION
  2
BLOCKS
  0
BLOCK
  5
D
100
AcDbEntity
  8
0
100
AcDbBlockBegin
  2
*MODEL_SPACE
 70
     0
 10
0.0
 20
0.0
 30
0.0
  3
*MODEL_SPACE
  1

  0
ENDBLK
  5
E
100
AcDbEntity
  8
0
100
AcDbBlockEnd
  0
BLOCK
  5
F
100
AcDbEntity
 67
     1
  8
0
100
AcDbBlockBegin
  2
*PAPER_SPACE
 70
     0
 10
0.0
 20
0.0
 30
0.0
  3
*PAPER_SPACE
  1

  0
ENDBLK
  5
10
100
AcDbEntity
 67
     1
  8
0
100
AcDbBlockEnd
  0
ENDSEC
  0
SECTION
  2
ENTITIES
  0
SPLINE
  5
24
100
AcDbEntity
  8
0
 62
     0
100
AcDbSpline
210
0.0
220
0.0
230
1.0
 70
     0
 71
     3
 72
     0
 73
     0
 74
    32
 44
0.0000000001
 11
2.0902086614173228
 21
3.5847362204724411
 31
0.0
 11
2.1227283464566931
 21
3.5944015748031495
 31
0.0
 11
2.1540748031496064
 21
3.6066574803149605
 31
0.0
 11
2.1841023622047242
 21
3.6213740157480316
 31
0.0
 11
2.2127007874015749
 21
3.6384291338582675
 31
0.0
 11
2.2397283464566931
 21
3.6576850393700786
 31
0.0
 11
2.2650708661417323
 21
3.6790314960629922
 31
0.0
 11
2.2885984251968505
 21
3.7023346456692914
 31
0.0
 11
2.3101889763779528
 21
3.7274724409448821
 31
0.0
 11
2.3297047244094489
 21
3.7543031496062991
 31
0.0
 11
2.3470314960629923
 21
3.7827204724409449
 31
0.0
 11
2.3620354330708659
 21
3.8125905511811022
 31
0.0
 11
2.3746023622047243
 21
3.843787401574803
 31
0.0
 11
2.3845866141732284
 21
3.8761811023622048
 31
0.0
 11
2.3918818897637797
 21
3.9096535433070865
 31
0.0
 11
2.3963503937007875
 21
3.9440669291338581
 31
0.0
 11
2.3978700787401577
 21
3.979311023622047
 31
0.0
 11
2.3964960629921261
 21
4.012814960629921
 31
0.0
 11
2.392452755905512
 21
4.0455905511811023
 31
0.0
 11
2.3858425196850392
 21
4.0775196850393698
 31
0.0
 11
2.3767913385826773
 21
4.1085000000000003
 31
0.0
 11
2.3653818897637797
 21
4.1384094488188978
 31
0.0
 11
2.3517440944881889
 21
4.1671574803149607
 31
0.0
 11
2.3359724409448819
 21
4.1946220472440947
 31
0.0
 11
2.3181811023622045
 21
4.2207086614173228
 31
0.0
 11
2.2984724409448818
 21
4.245287401574803
 31
0.0
 11
2.2769645669291338
 21
4.268271653543307
 31
0.0
 11
2.2537559055118108
 21
4.2895393700787405
 31
0.0
 11
2.2289645669291338
 21
4.3089960629921258
 31
0.0
 11
2.2026889763779529
 21
4.3265196850393703
 31
0.0
 11
2.1750472440944884
 21
4.3420078740157484
 31
0.0
 11
2.1461377952755907
 21
4.3553503937007871
 31
0.0
  0
LWPOLYLINE
  5
25
100
AcDbEntity
  8
0
 62
     0
100
AcDbPolyline
 90
        2
 70
     0
 39
0.01389
 10
2.146138
 20
4.35535
 40
0.01389
 41
0.01389
 10
2.116079
 20
4.366445
 40
0.01389
 41
0.01389
  0
LWPOLYLINE
  5
26
100
AcDbEntity
  8
0
 62
     0
100
AcDbPolyline
 90
        2
 70
     0
 39
0.01389
 10
2.116079
 20
4.366445
 40
0.01389
 41
0.01389
 10
2.116374
 20
4.47698
 40
0.01389
 41
0.01389
  0
LWPOLYLINE
  5
27
100
AcDbEntity
  8
0
 62
     0
100
AcDbPolyline
 90
        2
 70
     0
 39
0.01389
 10
2.116374
 20
4.47698
 40
0.01389
 41
0.01389
 10
0.179228
 20
5.000795
 40
0.01389
 41
0.01389
  0
SPLINE
  5
28
100
AcDbEntity
  8
0
 62
     0
100
AcDbSpline
210
0.0
220
0.0
230
1.0
 70
     0
 71
     3
 72
     0
 73
     0
 74
    16
 44
0.0000000001
 11
0.1792283464566929
 21
5.0007952755905514
 31
0.0
 11
0.1730196850393701
 21
5.0023110236220472
 31
0.0
 11
0.1664212598425197
 21
5.0039724409448816
 31
0.0
 11
0.1594133858267716
 21
5.0057362204724409
 31
0.0
 11
0.1519842519685039
 21
5.0075787401574807
 31
0.0
 11
0.1441023622047244
 21
5.0094566929133855
 31
0.0
 11
0.1357677165354331
 21
5.0113464566929133
 31
0.0
 11
0.1269448818897638
 21
5.0132086614173232
 31
0.0
 11
0.1176299212598425
 21
5.0150196850393698
 31
0.0
 11
0.1077874015748032
 21
5.0167283464566932
 31
0.0
 11
0.0974094488188976
 21
5.0183228346456694
 31
0.0
 11
0.0864763779527559
 21
5.0197559055118113
 31
0.0
 11
0.0749803149606299
 21
5.0210039370078743
 31
0.0
 11
0.0628818897637795
 21
5.0220236220472438
 31
0.0
 11
0.0501771653543307
 21
5.0227952755905516
 31
0.0
 11
0.0368464566929134
 21
5.0232755905511812
 31
0.0
  0
LWPOLYLINE
  5
29
100
AcDbEntity
  8
0
 62
     0
100
AcDbPolyline
 90
        2
 70
     0
 39
0.01389
 10
0.036846
 20
5.023276
 40
0.01389
 41
0.01389
 10
0.022874
 20
5.023437
 40
0.01389
 41
0.01389
  0
LWPOLYLINE
  5
2A
100
AcDbEntity
  8
0
 62
     0
100
AcDbPolyline
 90
        2
 70
     0
 39
0.01389
 10
0.022874
 20
5.023437
 40
0.01389
 41
0.01389
 10
0.022874
 20
5.023437
 40
0.01389
 41
0.01389
  0
SPLINE
  5
2B
100
AcDbEntity
  8
0
 62
     0
100
AcDbSpline
210
0.0
220
0.0
230
1.0
 70
     0
 71
     3
 72
     0
 73
     0
 74
    16
 44
0.0000000001
 11
0.0228740157480315
 21
5.0234370078740156
 31
0.0
 11
0.0088937007874016
 21
5.0232755905511812
 31
0.0
 11
-0.0044330708661417
 21
5.0227952755905516
 31
0.0
 11
-0.0171338582677165
 21
5.0220236220472438
 31
0.0
 11
-0.0292322834645669
 21
5.0210039370078743
 31
0.0
 11
-0.0407283464566929
 21
5.0197559055118113
 31
0.0
 11
-0.0516614173228346
 21
5.0183228346456694
 31
0.0
 11
-0.0620393700787402
 21
5.0167283464566932
 31
0.0
 11
-0.0718818897637795
 21
5.0150196850393698
 31
0.0
 11
-0.0811968503937008
 21
5.0132086614173232
 31
0.0
 11
-0.0900196850393701
 21
5.0113464566929133
 31
0.0
 11
-0.0983543307086614
 21
5.0094566929133855
 31
0.0
 11
-0.1062362204724409
 21
5.0075787401574807
 31
0.0
 11
-0.1136653543307087
 21
5.0057362204724409
 31
0.0
 11
-0.1206732283464567
 21
5.0039724409448816
 31
0.0
 11
-0.1272716535433071
 21
5.0023110236220472
 31
0.0
  0
LWPOLYLINE
  5
2C
100
AcDbEntity
  8
0
 62
     0
100
AcDbPolyline
 90
        2
 70
     0
 39
0.01389
 10
-0.127272
 20
5.002311
 40
0.01389
 41
0.01389
 10
-0.13348
 20
5.000795
 40
0.01389
 41
0.01389
  0
LWPOLYLINE
  5
2D
100
AcDbEntity
  8
0
 62
     0
100
AcDbPolyline
 90
        2
 70
     0
 39
0.01389
 10
-0.13348
 20
5.000795
 40
0.01389
 41
0.01389
 10
-2.070626
 20
4.47698
 40
0.01389
 41
0.01389
  0
LWPOLYLINE
  5
2E
100
AcDbEntity
  8
0
 62
     0
100
AcDbPolyline
 90
        2
 70
     0
 39
0.01389
 10
-2.070626
 20
4.47698
 40
0.01389
 41
0.01389
 10
-2.070331
 20
4.366445
 40
0.01389
 41
0.01389
  0
SPLINE
  5
2F
100
AcDbEntity
  8
0
 62
     0
100
AcDbSpline
210
0.0
220
0.0
230
1.0
 70
     0
 71
     3
 72
     0
 73
     0
 74
    32
 44
0.0000000001
 11
-2.0703307086614173
 21
4.3664448818897634
 31
0.0
 11
-2.1003897637795275
 21
4.3553503937007871
 31
0.0
 11
-2.1292992125984251
 21
4.3420078740157484
 31
0.0
 11
-2.1569409448818897
 21
4.3265196850393703
 31
0.0
 11
-2.183216535433071
 21
4.3089960629921258
 31
0.0
 11
-2.2080078740157481
 21
4.2895393700787405
 31
0.0
 11
-2.2312165354330711
 21
4.268271653543307
 31
0.0
 11
-2.252724409448819
 21
4.245287401574803
 31
0.0
 11
-2.2724330708661418
 21
4.2207086614173228
 31
0.0
 11
-2.2902244094488191
 21
4.1946220472440947
 31
0.0
 11
-2.3059960629921261
 21
4.1671574803149607
 31
0.0
 11
-2.3196338582677165
 21
4.1384094488188978
 31
0.0
 11
-2.3310433070866141
 21
4.1085000000000003
 31
0.0
 11
-2.3400944881889765
 21
4.0775196850393698
 31
0.0
 11
-2.3467047244094488
 21
4.0455905511811023
 31
0.0
 11
-2.3507480314960629
 21
4.012814960629921
 31
0.0
 11
-2.3521220472440945
 21
3.979311023622047
 31
0.0
 11
-2.3506023622047243
 21
3.9440669291338581
 31
0.0
 11
-2.3461338582677165
 21
3.9096535433070865
 31
0.0
 11
-2.3388385826771652
 21
3.8761811023622048
 31
0.0
 11
-2.3288543307086615
 21
3.843787401574803
 31
0.0
 11
-2.3162874015748032
 21
3.8125905511811022
 31
0.0
 11
-2.3012834645669291
 21
3.7827204724409449
 31
0.0
 11
-2.2839566929133857
 21
3.7543031496062991
 31
0.0
 11
-2.2644409448818896
 21
3.7274724409448821
 31
0.0
 11
-2.2428503937007873
 21
3.7023346456692914
 31
0.0
 11
-2.2193228346456695
 21
3.6790314960629922
 31
0.0
 11
-2.1939803149606298
 21
3.6576850393700786
 31
0.0
 11
-2.1669527559055117
 21
3.6384291338582675
 31
0.0
 11
-2.1383543307086614
 21
3.6213740157480316
 31
0.0
 11
-2.1083267716535432
 21
3.6066574803149605
 31
0.0
 11
-2.0769803149606298
 21
3.5944015748031495
 31
0.0
  0
LWPOLYLINE
  5
30
100
AcDbEntity
  8
0
 62
     0
100
AcDbPolyline
 90
        2
 70
     0
 39
0.01389
 10
-2.07698
 20
3.594402
 40
0.01389
 41
0.01389
 10
-2.044461
 20
3.584736
 40
0.01389
 41
0.01389
  0
LWPOLYLINE
  5
31
100
AcDbEntity
  8
0
 62
     0
100
AcDbPolyline
 90
        2
 70
     0
 39
0.01389
 10
-2.044461
 20
3.584736
 40
0.01389
 41
0.01389
 10
2.090209
 20
3.584736
 40
0.01389
 41
0.01389
  0
MTEXT
  5
32
100
AcDbEntity
  8
0
 62
     0
100
AcDbMText
 10
-1.001386
 20
4.229012
 30
0.0
 40
0.166665
 41
0.0
 71
     1
 72
     1
  1
{\fBookman Old Style|b0|i0|c0|p32;BA  1412  1-7/16" x 4-3/4"}
 73
     1
 44
1.0
  0
MTEXT
  5
33
100
AcDbEntity
  8
0
 62
     0
100
AcDbMText
 10
-1.001386
 20
4.041512
 30
0.0
 40
0.166665
 41
0.0
 71
     1
 72
     1
  1
{\fBookman Old Style|b0|i0|c0|p32;BA  1411 Top}
 73
     1
 44
1.0
  0
LWPOLYLINE
  5
34
100
AcDbEntity
  8
0
 62
     9
100
AcDbPolyline
 90
        2
 70
     0
 39
0.01389
 10
1.808823
 20
1.415185
 40
0.01389
 41
0.01389
 10
2.453886
 20
1.784579
 40
0.01389
 41
0.01389
  0
LWPOLYLINE
  5
35
100
AcDbEntity
  8
0
 62
     9
100
AcDbPolyline
 90
        2
 70
     0
 39
0.01389
 10
2.453886
 20
1.784579
 40
0.01389
 41
0.01389
 10
2.467201
 20
1.794476
 40
0.01389
 41
0.01389
  0
LWPOLYLINE
  5
36
100
AcDbEntity
  8
0
 62
     9
100
AcDbPolyline
 90
        2
 70
     0
 39
0.01389
 10
2.467201
 20
1.794476
 40
0.01389
 41
0.01389
 10
1.822138
 20
1.425083
 40
0.01389
 41
0.01389
  0
LWPOLYLINE
  5
37
100
AcDbEntity
  8
0
 62
     9
100
AcDbPolyline
 90
        2
 70
     0
 39
0.01389
 10
1.822138
 20
1.425083
 40
0.01389
 41
0.01389
 10
1.808823
 20
1.415185
 40
0.01389
 41
0.01389
  0
LWPOLYLINE
  5
38
100
AcDbEntity
  8
0
 62
     9
100
AcDbPolyline
 90
        2
 70
     0
 39
0.01389
 10
1.822138
 20
1.425083
 40
0.01389
 41
0.01389
 10
2.467201
 20
1.794476
 40
0.01389
 41
0.01389
  0
LWPOLYLINE
  5
39
100
AcDbEntity
  8
0
 62
     9
100
AcDbPolyline
 90
        2
 70
     0
 39
0.01389
 10
2.467201
 20
1.794476
 40
0.01389
 41
0.01389
 10
2.480087
 20
1.804894
 40
0.01389
 41
0.01389
  0
LWPOLYLINE
  5
3A
100
AcDbEntity
  8
0
 62
     9
100
AcDbPolyline
 90
        2
 70
     0
 39
0.01389
 10
2.480087
 20
1.804894
 40
0.01389
 41
0.01389
 10
1.835024
 20
1.4355
 40
0.01389
 41
0.01389
  0
LWPOLYLINE
  5
3B
100
AcDbEntity
  8
0
 62
     9
100
AcDbPolyline
 90
        2
 70
     0
 39
0.01389
 10
1.835024
 20
1.4355
 40
0.01389
 41
0.01389
 10
1.822138
 20
1.425083
 40
0.01389
 41
0.01389
  0
LWPOLYLINE
  5
3C
100
AcDbEntity
  8
0
 62
     9
100
AcDbPolyline
 90
        2
 70
     0
 39
0.01389
 10
1.835024
 20
1.4355
 40
0.01389
 41
0.01389
 10
2.480087
 20
1.804894
 40
0.01389
 41
0.01389
  0
LWPOLYLINE
  5
3D
100
AcDbEntity
  8
0
 62
     9
100
AcDbPolyline
 90
        2
 70
     0
 39
0.01389
 10
2.480087
 20
1.804894
 40
0.01389
 41
0.01389
 10
2.492543
 20
1.815823
 40
0.01389
 41
0.01389
  0
LWPOLYLINE
  5
3E
100
AcDbEntity
  8
0
 62
     9
100
AcDbPolyline
 90
        2
 70
     0
 39
0.01389
 10
2.492543
 20
1.815823
 40
0.01389
 41
0.01389
 10
1.84748
 20
1.446429
 40
0.01389
 41
0.01389
  0
LWPOLYLINE
  5
3F
100
AcDbEntity
  8
0
 62
     9
100
AcDbPolyline
 90
        2
 70
     0
 39
0.01389
 10
1.84748
 20
1.446429
 40
0.01389
 41
0.01389
 10
1.835024
 20
1.4355
 40
0.01389
 41
0.01389
  0
LWPOLYLINE
  5
40
100
AcDbEntity
  8
0
 62
     9
100
AcDbPolyline
 90
        2
 70
     0
 39
0.01389
 10
1.84748
 20
1.446429
 40
0.01389
 41
0.01389
 10
2.492543
 20
1.815823
 40
0.01389
 41
0.01389
  0
LWPOLYLINE
  5
41
100
AcDbEntity
  8
0
 62
     9
100
AcDbPolyline
 90
        2
 70
     0
 39
0.01389
 10
2.492543
 20
1.815823
 40
0.01389
 41
0.01389
 10
2.504539
 20
1.827236
 40
0.01389
 41
0.01389
  0
LWPOLYLINE
  5
42
100
AcDbEntity
  8
0
 62
     9
100
AcDbPolyline
 90
        2
 70
     0
 39
0.01389
 10
2.504539
 20
1.827236
 40
0.01389
 41
0.01389
 10
1.859476
 20
1.457843
 40
0.01389
 41
0.01389
  0
LWPOLYLINE
  5
43
100
AcDbEntity
  8
0
 62
     9
100
AcDbPolyline
 90
        2
 70
     0
 39
0.01389
 10
1.859476
 20
1.457843
 40
0.01389
 41
0.01389
 10
1.84748
 20
1.446429
 40
0.01389
 41
0.01389
  0
LWPOLYLINE
  5
44
100
AcDbEntity
  8
0
 62
     9
100
AcDbPolyline
 90
        2
 70
     0
 39
0.01389
 10
1.859476
 20
1.457843
 40
0.01389
 41
0.01389
 10
2.504539
 20
1.827236
 40
0.01389
 41
0.01389
  0
LWPOLYLINE
  5
45
100
AcDbEntity
  8
0
 62
     9
100
AcDbPolyline
 90
        2
 70
     0
 39
0.01389
 10
2.504539
 20
1.827236
 40
0.01389
 41
0.01389
 10
2.516071
 20
1.839126
 40
0.01389
 41
0.01389
  0
LWPOLYLINE
  5
46
100
AcDbEntity
  8
0
 62
     9
100
AcDbPolyline
 90
        2
 70
     0
 39
0.01389
 10
2.516071
 20
1.839126
 40
0.01389
 41
0.01389
 10
1.871008
 20
1.469732
 40
0.01389
 41
0.01389
  0
LWPOLYLINE
  5
47
100
AcDbEntity
  8
0
 62
     9
100
AcDbPolyline
 90
        2
 70
     0
 39
0.01389
 10
1.871008
 20
1.469732
 40
0.01389
 41
0.01389
 10
1.859476
 20
1.457843
 40
0.01389
 41
0.01389
  0
LWPOLYLINE
  5
48
100
AcDbEntity
  8
0
 62
     9
100
AcDbPolyline
 90
        2
 70
     0
 39
0.01389
 10
1.871008
 20
1.469732
 40
0.01389
 41
0.01389
 10
2.516071
 20
1.839126
 40
0.01389
 41
0.01389
  0
LWPOLYLINE
  5
49
100
AcDbEntity
  8
0
 62
     9
100
AcDbPolyline
 90
        2
 70
     0
 39
0.01389
 10
2.516071
 20
1.839126
 40
0.01389
 41
0.01389
 10
2.527114
 20
1.851472
 40
0.01389
 41
0.01389
  0
LWPOLYLINE
  5
4A
100
AcDbEntity
  8
0
 62
     9
100
AcDbPolyline
 90
        2
 70
     0
 39
0.01389
 10
2.527114
 20
1.851472
 40
0.01389
 41
0.01389
 10
1.882051
 20
1.482079
 40
0.01389
 41
0.01389
  0
LWPOLYLINE
  5
4B
100
AcDbEntity
  8
0
 62
     9
100
AcDbPolyline
 90
        2
 70
     0
 39
0.01389
 10
1.882051
 20
1.482079
 40
0.01389
 41
0.01389
 10
1.871008
 20
1.469732
 40
0.01389
 41
0.01389
  0
LWPOLYLINE
  5
4C
100
AcDbEntity
  8
0
 62
     9
100
AcDbPolyline
 90
        2
 70
     0
 39
0.01389
 10
1.882051
 20
1.482079
 40
0.01389
 41
0.01389
 10
2.527114
 20
1.851472
 40
0.01389
 41
0.01389
  0
LWPOLYLINE
  5
4D
100
AcDbEntity
  8
0
 62
     9
100
AcDbPolyline
 90
        2
 70
     0
 39
0.01389
 10
2.527114
 20
1.851472
 40
0.01389
 41
0.01389
 10
2.537661
 20
1.864264
 40
0.01389
 41
0.01389
  0
LWPOLYLINE
  5
4E
100
AcDbEntity
  8
0
 62
     9
100
AcDbPolyline
 90
        2
 70
     0
 39
0.01389
 10
2.537661
 20
1.864264
 40
0.01389
 41
0.01389
 10
1.892598
 20
1.49487
 40
0.01389
 41
0.01389
  0
LWPOLYLINE
  5
4F
100
AcDbEntity
  8
0
 62
     9
100
AcDbPolyline
 90
        2
 70
     0
 39
0.01389
 10
1.892598
 20
1.49487
 40
0.01389
 41
0.01389
 10
1.882051
 20
1.482079
 40
0.01389
 41
0.01389
  0
LWPOLYLINE
  5
50
100
AcDbEntity
  8
0
 62
     9
100
AcDbPolyline
 90
        2
 70
     0
 39
0.01389
 10
1.892598
 20
1.49487
 40
0.01389
 41
0.01389
 10
2.537661
 20
1.864264
 40
0.01389
 41
0.01389
  0
LWPOLYLINE
  5
51
100
AcDbEntity
  8
0
 62
     9
100
AcDbPolyline
 90
        2
 70
     0
 39
0.01389
 10
2.537661
 20
1.864264
 40
0.01389
 41
0.01389
 10
2.547685
 20
1.877472
 40
0.01389
 41
0.01389
  0
LWPOLYLINE
  5
52
100
AcDbEntity
  8
0
 62
     9
100
AcDbPolyline
 90
        2
 70
     0
 39
0.01389
 10
2.547685
 20
1.877472
 40
0.01389
 41
0.01389
 10
1.902622
 20
1.508079
 40
0.01389
 41
0.01389
  0
LWPOLYLINE
  5
53
100
AcDbEntity
  8
0
 62
     9
100
AcDbPolyline
 90
        2
 70
     0
 39
0.01389
 10
1.902622
 20
1.508079
 40
0.01389
 41
0.01389
 10
1.892598
 20
1.49487
 40
0.01389
 41
0.01389
  0
LWPOLYLINE
  5
54
100
AcDbEntity
  8
0
 62
     9
100
AcDbPolyline
 90
        2
 70
     0
 39
0.01389
 10
1.902622
 20
1.508079
 40
0.01389
 41
0.01389
 10
2.547685
 20
1.877472
 40
0.01389
 41
0.01389
  0
LWPOLYLINE
  5
55
100
AcDbEntity
  8
0
 62
     9
100
AcDbPolyline
 90
        2
 70
     0
 39
0.01389
 10
2.547685
 20
1.877472
 40
0.01389
 41
0.01389
 10
2.557177
 20
1.891094
 40
0.01389
 41
0.01389
  0
LWPOLYLINE
  5
56
100
AcDbEntity
  8
0
 62
     9
100
AcDbPolyline
 90
        2
 70
     0
 39
0.01389
 10
2.557177
 20
1.891094
 40
0.01389
 41
0.01389
 10
1.912114
 20
1.521701
 40
0.01389
 41
0.01389
  0
LWPOLYLINE
  5
57
100
AcDbEntity
  8
0
 62
     9
100
AcDbPolyline
 90
        2
 70
     0
 39
0.01389
 10
1.912114
 20
1.521701
 40
0.01389
 41
0.01389
 10
1.902622
 20
1.508079
 40
0.01389
 41
0.01389
  0
LWPOLYLINE
  5
58
100
AcDbEntity
  8
0
 62
     9
100
AcDbPolyline
 90
        2
 70
     0
 39
0.01389
 10
1.912114
 20
1.521701
 40
0.01389
 41
0.01389
 10
2.557177
 20
1.891094
 40
0.01389
 41
0.01389
  0
LWPOLYLINE
  5
59
100
AcDbEntity
  8
0
 62
     9
100
AcDbPolyline
 90
        2
 70
     0
 39
0.01389
 10
2.557177
 20
1.891094
 40
0.01389
 41
0.01389
 10
2.566118
 20
1.90511
 40
0.01389
 41
0.01389
  0
LWPOLYLINE
  5
5A
100
AcDbEntity
  8
0
 62
     9
100
AcDbPolyline
 90
        2
 70
     0
 39
0.01389
 10
2.566118
 20
1.90511
 40
0.01389
 41
0.01389
 10
1.921055
 20
1.535717
 40
0.01389
 41
0.01389
  0
LWPOLYLINE
  5
5B
100
AcDbEntity
  8
0
 62
     9
100
AcDbPolyline
 90
        2
 70
     0
 39
0.01389
 10
1.921055
 20
1.535717
 40
0.01389
 41
0.01389
 10
1.912114
 20
1.521701
 40
0.01389
 41
0.01389
  0
LWPOLYLINE
  5
5C
100
AcDbEntity
  8
0
 62
     9
100
AcDbPolyline
 90
        2
 70
     0
 39
0.01389
 10
1.921055
 20
1.535717
 40
0.01389
 41
0.01389
 10
2.566118
 20
1.90511
 40
0.01389
 41
0.01389
  0
LWPOLYLINE
  5
5D
100
AcDbEntity
  8
0
 62
     9
100
AcDbPolyline
 90
        2
 70
     0
 39
0.01389
 10
2.566118
 20
1.90511
 40
0.01389
 41
0.01389
 10
2.574504
 20
1.919512
 40
0.01389
 41
0.01389
  0
LWPOLYLINE
  5
5E
100
AcDbEntity
  8
0
 62
     9
100
AcDbPolyline
 90
        2
 70
     0
 39
0.01389
 10
2.574504
 20
1.919512
 40
0.01389
 41
0.01389
 10
1.929441
 20
1.550118
 40
0.01389
 41
0.01389
  0
LWPOLYLINE
  5
5F
100
AcDbEntity
  8
0
 62
     9
100
AcDbPolyline
 90
        2
 70
     0
 39
0.01389
 10
1.929441
 20
1.550118
 40
0.01389
 41
0.01389
 10
1.921055
 20
1.535717
 40
0.01389
 41
0.01389
  0
LWPOLYLINE
  5
60
100
AcDbEntity
  8
0
 62
     9
100
AcDbPolyline
 90
        2
 70
     0
 39
0.01389
 10
1.929441
 20
1.550118
 40
0.01389
 41
0.01389
 10
2.574504
 20
1.919512
 40
0.01389
 41
0.01389
  0
LWPOLYLINE
  5
61
100
AcDbEntity
  8
0
 62
     9
100
AcDbPolyline
 90
        2
 70
     0
 39
0.01389
 10
2.574504
 20
1.919512
 40
0.01389
 41
0.01389
 10
2.582299
 20
1.934268
 40
0.01389
 41
0.01389
  0
LWPOLYLINE
  5
62
100
AcDbEntity
  8
0
 62
     9
100
AcDbPolyline
 90
        2
 70
     0
 39
0.01389
 10
2.582299
 20
1.934268
 40
0.01389
 41
0.01389
 10
1.937236
 20
1.564874
 40
0.01389
 41
0.01389
  0
LWPOLYLINE
  5
63
100
AcDbEntity
  8
0
 62
     9
100
AcDbPolyline
 90
        2
 70
     0
 39
0.01389
 10
1.937236
 20
1.564874
 40
0.01389
 41
0.01389
 10
1.929441
 20
1.550118
 40
0.01389
 41
0.01389
  0
LWPOLYLINE
  5
64
100
AcDbEntity
  8
0
 62
     9
100
AcDbPolyline
 90
        2
 70
     0
 39
0.01389
 10
1.937236
 20
1.564874
 40
0.01389
 41
0.01389
 10
2.582299
 20
1.934268
 40
0.01389
 41
0.01389
  0
LWPOLYLINE
  5
65
100
AcDbEntity
  8
0
 62
     9
100
AcDbPolyline
 90
        2
 70
     0
 39
0.01389
 10
2.582299
 20
1.934268
 40
0.01389
 41
0.01389
 10
2.589508
 20
1.949382
 40
0.01389
 41
0.01389
  0
LWPOLYLINE
  5
66
100
AcDbEntity
  8
0
 62
     9
100
AcDbPolyline
 90
        2
 70
     0
 39
0.01389
 10
2.589508
 20
1.949382
 40
0.01389
 41
0.01389
 10
1.944445
 20
1.579988
 40
0.01389
 41
0.01389
  0
LWPOLYLINE
  5
67
100
AcDbEntity
  8
0
 62
     9
100
AcDbPolyline
 90
        2
 70
     0
 39
0.01389
 10
1.944445
 20
1.579988
 40
0.01389
 41
0.01389
 10
1.937236
 20
1.564874
 40
0.01389
 41
0.01389
  0
LWPOLYLINE
  5
68
100
AcDbEntity
  8
0
 62
     9
100
AcDbPolyline
 90
        2
 70
     0
 39
0.01389
 10
1.944445
 20
1.579988
 40
0.01389
 41
0.01389
 10
2.589508
 20
1.949382
 40
0.01389
 41
0.01389
  0
LWPOLYLINE
  5
69
100
AcDbEntity
  8
0
 62
     9
100
AcDbPolyline
 90
        2
 70
     0
 39
0.01389
 10
2.589508
 20
1.949382
 40
0.01389
 41
0.01389
 10
2.596102
 20
1.964819
 40
0.01389
 41
0.01389
  0
LWPOLYLINE
  5
6A
100
AcDbEntity
  8
0
 62
     9
100
AcDbPolyline
 90
        2
 70
     0
 39
0.01389
 10
2.596102
 20
1.964819
 40
0.01389
 41
0.01389
 10
1.951039
 20
1.595425
 40
0.01389
 41
0.01389
  0
LWPOLYLINE
  5
6B
100
AcDbEntity
  8
0
 62
     9
100
AcDbPolyline
 90
        2
 70
     0
 39
0.01389
 10
1.951039
 20
1.595425
 40
0.01389
 41
0.01389
 10
1.944445
 20
1.579988
 40
0.01389
 41
0.01389
  0
LWPOLYLINE
  5
6C
100
AcDbEntity
  8
0
 62
     9
100
AcDbPolyline
 90
        2
 70
     0
 39
0.01389
 10
1.951039
 20
1.595425
 40
0.01389
 41
0.01389
 10
2.596102
 20
1.964819
 40
0.01389
 41
0.01389
  0
LWPOLYLINE
  5
6D
100
AcDbEntity
  8
0
 62
     9
100
AcDbPolyline
 90
        2
 70
     0
 39
0.01389
 10
2.596102
 20
1.964819
 40
0.01389
 41
0.01389
 10
2.602075
 20
1.980579
 40
0.01389
 41
0.01389
  0
LWPOLYLINE
  5
6E
100
AcDbEntity
  8
0
 62
     9
100
AcDbPolyline
 90
        2
 70
     0
 39
0.01389
 10
2.602075
 20
1.980579
 40
0.01389
 41
0.01389
 10
1.957012
 20
1.611185
 40
0.01389
 41
0.01389
  0
LWPOLYLINE
  5
6F
100
AcDbEntity
  8
0
 62
     9
100
AcDbPolyline
 90
        2
 70
     0
 39
0.01389
 10
1.957012
 20
1.611185
 40
0.01389
 41
0.01389
 10
1.951039
 20
1.595425
 40
0.01389
 41
0.01389
  0
LWPOLYLINE
  5
70
100
AcDbEntity
  8
0
 62
     9
100
AcDbPolyline
 90
        2
 70
     0
 39
0.01389
 10
1.957012
 20
1.611185
 40
0.01389
 41
0.01389
 10
2.602075
 20
1.980579
 40
0.01389
 41
0.01389
  0
LWPOLYLINE
  5
71
100
AcDbEntity
  8
0
 62
     9
100
AcDbPolyline
 90
        2
 70
     0
 39
0.01389
 10
2.602075
 20
1.980579
 40
0.01389
 41
0.01389
 10
2.607394
 20
1.99663
 40
0.01389
 41
0.01389
  0
LWPOLYLINE
  5
72
100
AcDbEntity
  8
0
 62
     9
100
AcDbPolyline
 90
        2
 70
     0
 39
0.01389
 10
2.607394
 20
1.99663
 40
0.01389
 41
0.01389
 10
1.962331
 20
1.627236
 40
0.01389
 41
0.01389
  0
LWPOLYLINE
  5
73
100
AcDbEntity
  8
0
 62
     9
100
AcDbPolyline
 90
        2
 70
     0
 39
0.01389
 10
1.962331
 20
1.627236
 40
0.01389
 41
0.01389
 10
1.957012
 20
1.611185
 40
0.01389
 41
0.01389
  0
LWPOLYLINE
  5
74
100
AcDbEntity
  8
0
 62
     9
100
AcDbPolyline
 90
        2
 70
     0
 39
0.01389
 10
1.962331
 20
1.627236
 40
0.01389
 41
0.01389
 10
2.607394
 20
1.99663
 40
0.01389
 41
0.01389
  0
LWPOLYLINE
  5
75
100
AcDbEntity
  8
0
 62
     9
100
AcDbPolyline
 90
        2
 70
     0
 39
0.01389
 10
2.607394
 20
1.99663
 40
0.01389
 41
0.01389
 10
2.612059
 20
2.012972
 40
0.01389
 41
0.01389
  0
LWPOLYLINE
  5
76
100
AcDbEntity
  8
0
 62
     9
100
AcDbPolyline
 90
        2
 70
     0
 39
0.01389
 10
2.612059
 20
2.012972
 40
0.01389
 41
0.01389
 10
1.966996
 20
1.643579
 40
0.01389
 41
0.01389
  0
LWPOLYLINE
  5
77
100
AcDbEntity
  8
0
 62
     9
100
AcDbPolyline
 90
        2
 70
     0
 39
0.01389
 10
1.966996
 20
1.643579
 40
0.01389
 41
0.01389
 10
1.962331
 20
1.627236
 40
0.01389
 41
0.01389
  0
LWPOLYLINE
  5
78
100
AcDbEntity
  8
0
 62
     9
100
AcDbPolyline
 90
        2
 70
     0
 39
0.01389
 10
1.966996
 20
1.643579
 40
0.01389
 41
0.01389
 10
2.612059
 20
2.012972
 40
0.01389
 41
0.01389
  0
LWPOLYLINE
  5
79
100
AcDbEntity
  8
0
 62
     9
100
AcDbPolyline
 90
        2
 70
     0
 39
0.01389
 10
2.612059
 20
2.012972
 40
0.01389
 41
0.01389
 10
2.616051
 20
2.029579
 40
0.01389
 41
0.01389
  0
LWPOLYLINE
  5
7A
100
AcDbEntity
  8
0
 62
     9
100
AcDbPolyline
 90
        2
 70
     0
 39
0.01389
 10
2.616051
 20
2.029579
 40
0.01389
 41
0.01389
 10
1.970988
 20
1.660185
 40
0.01389
 41
0.01389
  0
LWPOLYLINE
  5
7B
100
AcDbEntity
  8
0
 62
     9
100
AcDbPolyline
 90
        2
 70
     0
 39
0.01389
 10
1.970988
 20
1.660185
 40
0.01389
 41
0.01389
 10
1.966996
 20
1.643579
 40
0.01389
 41
0.01389
  0
LWPOLYLINE
  5
7C
100
AcDbEntity
  8
0
 62
     9
100
AcDbPolyline
 90
        2
 70
     0
 39
0.01389
 10
1.970988
 20
1.660185
 40
0.01389
 41
0.01389
 10
2.616051
 20
2.029579
 40
0.01389
 41
0.01389
  0
LWPOLYLINE
  5
7D
100
AcDbEntity
  8
0
 62
     9
100
AcDbPolyline
 90
        2
 70
     0
 39
0.01389
 10
2.616051
 20
2.029579
 40
0.01389
 41
0.01389
 10
2.619354
 20
2.046445
 40
0.01389
 41
0.01389
  0
LWPOLYLINE
  5
7E
100
AcDbEntity
  8
0
 62
     9
100
AcDbPolyline
 90
        2
 70
     0
 39
0.01389
 10
2.619354
 20
2.046445
 40
0.01389
 41
0.01389
 10
1.974291
 20
1.677051
 40
0.01389
 41
0.01389
  0
LWPOLYLINE
  5
7F
100
AcDbEntity
  8
0
 62
     9
100
AcDbPolyline
 90
        2
 70
     0
 39
0.01389
 10
1.974291
 20
1.677051
 40
0.01389
 41
0.01389
 10
1.970988
 20
1.660185
 40
0.01389
 41
0.01389
  0
LWPOLYLINE
  5
80
100
AcDbEntity
  8
0
 62
   254
100
AcDbPolyline
 90
        2
 70
     0
 39
0.01389
 10
1.974291
 20
1.677051
 40
0.01389
 41
0.01389
 10
2.619354
 20
2.046445
 40
0.01389
 41
0.01389
  0
LWPOLYLINE
  5
81
100
AcDbEntity
  8
0
 62
   254
100
AcDbPolyline
 90
        2
 70
     0
 39
0.01389
 10
2.619354
 20
2.046445
 40
0.01389
 41
0.01389
 10
2.621949
 20
2.063539
 40
0.01389
 41
0.01389
  0
LWPOLYLINE
  5
82
100
AcDbEntity
  8
0
 62
   254
100
AcDbPolyline
 90
        2
 70
     0
 39
0.01389
 10
2.621949
 20
2.063539
 40
0.01389
 41
0.01389
 10
1.976886
 20
1.694146
 40
0.01389
 41
0.01389
  0
LWPOLYLINE
  5
83
100
AcDbEntity
  8
0
 62
   254
100
AcDbPolyline
 90
        2
 70
     0
 39
0.01389
 10
1.976886
 20
1.694146
 40
0.01389
 41
0.01389
 10
1.974291
 20
1.677051
 40
0.01389
 41
0.01389
  0
LWPOLYLINE
  5
84
100
AcDbEntity
  8
0
 62
   254
100
AcDbPolyline
 90
        2
 70
     0
 39
0.01389
 10
1.976886
 20
1.694146
 40
0.01389
 41
0.01389
 10
2.621949
 20
2.063539
 40
0.01389
 41
0.01389
  0
LWPOLYLINE
  5
85
100
AcDbEntity
  8
0
 62
   254
100
AcDbPolyline
 90
        2
 70
     0
 39
0.01389
 10
2.621949
 20
2.063539
 40
0.01389
 41
0.01389
 10
2.623823
 20
2.080858
 40
0.01389
 41
0.01389
  0
LWPOLYLINE
  5
86
100
AcDbEntity
  8
0
 62
   254
100
AcDbPolyline
 90
        2
 70
     0
 39
0.01389
 10
2.623823
 20
2.080858
 40
0.01389
 41
0.01389
 10
1.97876
 20
1.711465
 40
0.01389
 41
0.01389
  0
LWPOLYLINE
  5
87
100
AcDbEntity
  8
0
 62
   254
100
AcDbPolyline
 90
        2
 70
     0
 39
0.01389
 10
1.97876
 20
1.711465
 40
0.01389
 41
0.01389
 10
1.976886
 20
1.694146
 40
0.01389
 41
0.01389
  0
LWPOLYLINE
  5
88
100
AcDbEntity
  8
0
 62
   254
100
AcDbPolyline
 90
        2
 70
     0
 39
0.01389
 10
1.97876
 20
1.711465
 40
0.01389
 41
0.01389
 10
2.623823
 20
2.080858
 40
0.01389
 41
0.01389
  0
LWPOLYLINE
  5
89
100
AcDbEntity
  8
0
 62
   254
100
AcDbPolyline
 90
        2
 70
     0
 39
0.01389
 10
2.623823
 20
2.080858
 40
0.01389
 41
0.01389
 10
2.624957
 20
2.098382
 40
0.01389
 41
0.01389
  0
LWPOLYLINE
  5
8A
100
AcDbEntity
  8
0
 62
   254
100
AcDbPolyline
 90
        2
 70
     0
 39
0.01389
 10
2.624957
 20
2.098382
 40
0.01389
 41
0.01389
 10
1.979894
 20
1.728988
 40
0.01389
 41
0.01389
  0
LWPOLYLINE
  5
8B
100
AcDbEntity
  8
0
 62
   254
100
AcDbPolyline
 90
        2
 70
     0
 39
0.01389
 10
1.979894
 20
1.728988
 40
0.01389
 41
0.01389
 10
1.97876
 20
1.711465
 40
0.01389
 41
0.01389
  0
LWPOLYLINE
  5
8C
100
AcDbEntity
  8
0
 62
   254
100
AcDbPolyline
 90
        2
 70
     0
 39
0.01389
 10
1.979894
 20
1.728988
 40
0.01389
 41
0.01389
 10
2.624957
 20
2.098382
 40
0.01389
 41
0.01389
  0
LWPOLYLINE
  5
8D
100
AcDbEntity
  8
0
 62
   254
100
AcDbPolyline
 90
        2
 70
     0
 39
0.01389
 10
2.624957
 20
2.098382
 40
0.01389
 41
0.01389
 10
2.625343
 20
2.116102
 40
0.01389
 41
0.01389
  0
LWPOLYLINE
  5
8E
100
AcDbEntity
  8
0
 62
   254
100
AcDbPolyline
 90
        2
 70
     0
 39
0.01389
 10
2.625343
 20
2.116102
 40
0.01389
 41
0.01389
 10
1.98028
 20
1.746709
 40
0.01389
 41
0.01389
  0
LWPOLYLINE
  5
8F
100
AcDbEntity
  8
0
 62
   254
100
AcDbPolyline
 90
        2
 70
     0
 39
0.01389
 10
1.98028
 20
1.746709
 40
0.01389
 41
0.01389
 10
1.979894
 20
1.728988
 40
0.01389
 41
0.01389
  0
LWPOLYLINE
  5
90
100
AcDbEntity
  8
0
 62
   254
100
AcDbPolyline
 90
        2
 70
     0
 39
0.01389
 10
1.98028
 20
1.746709
 40
0.01389
 41
0.01389
 10
2.625343
 20
2.116102
 40
0.01389
 41
0.01389
  0
LWPOLYLINE
  5
91
100
AcDbEntity
  8
0
 62
   254
100
AcDbPolyline
 90
        2
 70
     0
 39
0.01389
 10
2.625343
 20
2.116102
 40
0.01389
 41
0.01389
 10
2.624992
 20
2.132937
 40
0.01389
 41
0.01389
  0
LWPOLYLINE
  5
92
100
AcDbEntity
  8
0
 62
   254
100
AcDbPolyline
 90
        2
 70
     0
 39
0.01389
 10
2.624992
 20
2.132937
 40
0.01389
 41
0.01389
 10
1.979929
 20
1.763543
 40
0.01389
 41
0.01389
  0
LWPOLYLINE
  5
93
100
AcDbEntity
  8
0
 62
   254
100
AcDbPolyline
 90
        2
 70
     0
 39
0.01389
 10
1.979929
 20
1.763543
 40
0.01389
 41
0.01389
 10
1.98028
 20
1.746709
 40
0.01389
 41
0.01389
  0
LWPOLYLINE
  5
94
100
AcDbEntity
  8
0
 62
   254
100
AcDbPolyline
 90
        2
 70
     0
 39
0.01389
 10
1.979929
 20
1.763543
 40
0.01389
 41
0.01389
 10
2.624992
 20
2.132937
 40
0.01389
 41
0.01389
  0
LWPOLYLINE
  5
95
100
AcDbEntity
  8
0
 62
   254
100
AcDbPolyline
 90
        2
 70
     0
 39
0.01389
 10
2.624992
 20
2.132937
 40
0.01389
 41
0.01389
 10
2.623969
 20
2.149606
 40
0.01389
 41
0.01389
  0
LWPOLYLINE
  5
96
100
AcDbEntity
  8
0
 62
   254
100
AcDbPolyline
 90
        2
 70
     0
 39
0.01389
 10
2.623969
 20
2.149606
 40
0.01389
 41
0.01389
 10
1.978906
 20
1.780213
 40
0.01389
 41
0.01389
  0
LWPOLYLINE
  5
97
100
AcDbEntity
  8
0
 62
   254
100
AcDbPolyline
 90
        2
 70
     0
 39
0.01389
 10
1.978906
 20
1.780213
 40
0.01389
 41
0.01389
 10
1.979929
 20
1.763543
 40
0.01389
 41
0.01389
  0
LWPOLYLINE
  5
98
100
AcDbEntity
  8
0
 62
   254
100
AcDbPolyline
 90
        2
 70
     0
 39
0.01389
 10
1.978906
 20
1.780213
 40
0.01389
 41
0.01389
 10
2.623969
 20
2.149606
 40
0.01389
 41
0.01389
  0
LWPOLYLINE
  5
99
100
AcDbEntity
  8
0
 62
   254
100
AcDbPolyline
 90
        2
 70
     0
 39
0.01389
 10
2.623969
 20
2.149606
 40
0.01389
 41
0.01389
 10
2.622272
 20
2.166091
 40
0.01389
 41
0.01389
  0
LWPOLYLINE
  5
9A
100
AcDbEntity
  8
0
 62
   254
100
AcDbPolyline
 90
        2
 70
     0
 39
0.01389
 10
2.622272
 20
2.166091
 40
0.01389
 41
0.01389
 10
1.977209
 20
1.796697
 40
0.01389
 41
0.01389
  0
LWPOLYLINE
  5
9B
100
AcDbEntity
  8
0
 62
   254
100
AcDbPolyline
 90
        2
 70
     0
 39
0.01389
 10
1.977209
 20
1.796697
 40
0.01389
 41
0.01389
 10
1.978906
 20
1.780213
 40
0.01389
 41
0.01389
  0
LWPOLYLINE
  5
9C
100
AcDbEntity
  8
0
 62
   254
100
AcDbPolyline
 90
        2
 70
     0
 39
0.01389
 10
1.977209
 20
1.796697
 40
0.01389
 41
0.01389
 10
2.622272
 20
2.166091
 40
0.01389
 41
0.01389
  0
LWPOLYLINE
  5
9D
100
AcDbEntity
  8
0
 62
   254
100
AcDbPolyline
 90
        2
 70
     0
 39
0.01389
 10
2.622272
 20
2.166091
 40
0.01389
 41
0.01389
 10
2.619925
 20
2.182382
 40
0.01389
 41
0.01389
  0
LWPOLYLINE
  5
9E
100
AcDbEntity
  8
0
 62
   254
100
AcDbPolyline
 90
        2
 70
     0
 39
0.01389
 10
2.619925
 20
2.182382
 40
0.01389
 41
0.01389
 10
1.974862
 20
1.812988
 40
0.01389
 41
0.01389
  0
LWPOLYLINE
  5
9F
100
AcDbEntity
  8
0
 62
   254
100
AcDbPolyline
 90
        2
 70
     0
 39
0.01389
 10
1.974862
 20
1.812988
 40
0.01389
 41
0.01389
 10
1.977209
 20
1.796697
 40
0.01389
 41
0.01389
  0
LWPOLYLINE
  5
A0
100
AcDbEntity
  8
0
 62
   254
100
AcDbPolyline
 90
        2
 70
     0
 39
0.01389
 10
1.974862
 20
1.812988
 40
0.01389
 41
0.01389
 10
2.619925
 20
2.182382
 40
0.01389
 41
0.01389
  0
LWPOLYLINE
  5
A1
100
AcDbEntity
  8
0
 62
   254
100
AcDbPolyline
 90
        2
 70
     0
 39
0.01389
 10
2.619925
 20
2.182382
 40
0.01389
 41
0.01389
 10
2.616929
 20
2.198457
 40
0.01389
 41
0.01389
  0
LWPOLYLINE
  5
A2
100
AcDbEntity
  8
0
 62
   254
100
AcDbPolyline
 90
        2
 70
     0
 39
0.01389
 10
2.616929
 20
2.198457
 40
0.01389
 41
0.01389
 10
1.971866
 20
1.829063
 40
0.01389
 41
0.01389
  0
LWPOLYLINE
  5
A3
100
AcDbEntity
  8
0
 62
   254
100
AcDbPolyline
 90
        2
 70
     0
 39
0.01389
 10
1.971866
 20
1.829063
 40
0.01389
 41
0.01389
 10
1.974862
 20
1.812988
 40
0.01389
 41
0.01389
  0
LWPOLYLINE
  5
A4
100
AcDbEntity
  8
0
 62
   254
100
AcDbPolyline
 90
        2
 70
     0
 39
0.01389
 10
1.971866
 20
1.829063
 40
0.01389
 41
0.01389
 10
2.616929
 20
2.198457
 40
0.01389
 41
0.01389
  0
LWPOLYLINE
  5
A5
100
AcDbEntity
  8
0
 62
   254
100
AcDbPolyline
 90
        2
 70
     0
 39
0.01389
 10
2.616929
 20
2.198457
 40
0.01389
 41
0.01389
 10
2.613315
 20
2.214311
 40
0.01389
 41
0.01389
  0
LWPOLYLINE
  5
A6
100
AcDbEntity
  8
0
 62
   254
100
AcDbPolyline
 90
        2
 70
     0
 39
0.01389
 10
2.613315
 20
2.214311
 40
0.01389
 41
0.01389
 10
1.968252
 20
1.844917
 40
0.01389
 41
0.01389
  0
LWPOLYLINE
  5
A7
100
AcDbEntity
  8
0
 62
   254
100
AcDbPolyline
 90
        2
 70
     0
 39
0.01389
 10
1.968252
 20
1.844917
 40
0.01389
 41
0.01389
 10
1.971866
 20
1.829063
 40
0.01389
 41
0.01389
  0
LWPOLYLINE
  5
A8
100
AcDbEntity
  8
0
 62
   254
100
AcDbPolyline
 90
        2
 70
     0
 39
0.01389
 10
1.968252
 20
1.844917
 40
0.01389
 41
0.01389
 10
2.613315
 20
2.214311
 40
0.01389
 41
0.01389
  0
LWPOLYLINE
  5
A9
100
AcDbEntity
  8
0
 62
   254
100
AcDbPolyline
 90
        2
 70
     0
 39
0.01389
 10
2.613315
 20
2.214311
 40
0.01389
 41
0.01389
 10
2.609087
 20
2.229925
 40
0.01389
 41
0.01389
  0
LWPOLYLINE
  5
AA
100
AcDbEntity
  8
0
 62
   254
100
AcDbPolyline
 90
        2
 70
     0
 39
0.01389
 10
2.609087
 20
2.229925
 40
0.01389
 41
0.01389
 10
1.964024
 20
1.860531
 40
0.01389
 41
0.01389
  0
LWPOLYLINE
  5
AB
100
AcDbEntity
  8
0
 62
   254
100
AcDbPolyline
 90
        2
 70
     0
 39
0.01389
 10
1.964024
 20
1.860531
 40
0.01389
 41
0.01389
 10
1.968252
 20
1.844917
 40
0.01389
 41
0.01389
  0
LWPOLYLINE
  5
AC
100
AcDbEntity
  8
0
 62
   254
100
AcDbPolyline
 90
        2
 70
     0
 39
0.01389
 10
1.964024
 20
1.860531
 40
0.01389
 41
0.01389
 10
2.609087
 20
2.229925
 40
0.01389
 41
0.01389
  0
LWPOLYLINE
  5
AD
100
AcDbEntity
  8
0
 62
   254
100
AcDbPolyline
 90
        2
 70
     0
 39
0.01389
 10
2.609087
 20
2.229925
 40
0.01389
 41
0.01389
 10
2.604264
 20
2.245291
 40
0.01389
 41
0.01389
  0
LWPOLYLINE
  5
AE
100
AcDbEntity
  8
0
 62
   254
100
AcDbPolyline
 90
        2
 70
     0
 39
0.01389
 10
2.604264
 20
2.245291
 40
0.01389
 41
0.01389
 10
1.959201
 20
1.875898
 40
0.01389
 41
0.01389
  0
LWPOLYLINE
  5
AF
100
AcDbEntity
  8
0
 62
   254
100
AcDbPolyline
 90
        2
 70
     0
 39
0.01389
 10
1.959201
 20
1.875898
 40
0.01389
 41
0.01389
 10
1.964024
 20
1.860531
 40
0.01389
 41
0.01389
  0
LWPOLYLINE
  5
B0
100
AcDbEntity
  8
0
 62
   254
100
AcDbPolyline
 90
        2
 70
     0
 39
0.01389
 10
1.959201
 20
1.875898
 40
0.01389
 41
0.01389
 10
2.604264
 20
2.245291
 40
0.01389
 41
0.01389
  0
LWPOLYLINE
  5
B1
100
AcDbEntity
  8
0
 62
   254
100
AcDbPolyline
 90
        2
 70
     0
 39
0.01389
 10
2.604264
 20
2.245291
 40
0.01389
 41
0.01389
 10
2.598843
 20
2.260382
 40
0.01389
 41
0.01389
  0
LWPOLYLINE
  5
B2
100
AcDbEntity
  8
0
 62
   254
100
AcDbPolyline
 90
        2
 70
     0
 39
0.01389
 10
2.598843
 20
2.260382
 40
0.01389
 41
0.01389
 10
1.95378
 20
1.890988
 40
0.01389
 41
0.01389
  0
LWPOLYLINE
  5
B3
100
AcDbEntity
  8
0
 62
   254
100
AcDbPolyline
 90
        2
 70
     0
 39
0.01389
 10
1.95378
 20
1.890988
 40
0.01389
 41
0.01389
 10
1.959201
 20
1.875898
 40
0.01389
 41
0.01389
  0
LWPOLYLINE
  5
B4
100
AcDbEntity
  8
0
 62
   254
100
AcDbPolyline
 90
        2
 70
     0
 39
0.01389
 10
1.95378
 20
1.890988
 40
0.01389
 41
0.01389
 10
2.598843
 20
2.260382
 40
0.01389
 41
0.01389
  0
LWPOLYLINE
  5
B5
100
AcDbEntity
  8
0
 62
   254
100
AcDbPolyline
 90
        2
 70
     0
 39
0.01389
 10
2.598843
 20
2.260382
 40
0.01389
 41
0.01389
 10
2.592854
 20
2.275201
 40
0.01389
 41
0.01389
  0
LWPOLYLINE
  5
B6
100
AcDbEntity
  8
0
 62
   254
100
AcDbPolyline
 90
        2
 70
     0
 39
0.01389
 10
2.592854
 20
2.275201
 40
0.01389
 41
0.01389
 10
1.947791
 20
1.905807
 40
0.01389
 41
0.01389
  0
LWPOLYLINE
  5
B7
100
AcDbEntity
  8
0
 62
   254
100
AcDbPolyline
 90
        2
 70
     0
 39
0.01389
 10
1.947791
 20
1.905807
 40
0.01389
 41
0.01389
 10
1.95378
 20
1.890988
 40
0.01389
 41
0.01389
  0
LWPOLYLINE
  5
B8
100
AcDbEntity
  8
0
 62
   254
100
AcDbPolyline
 90
        2
 70
     0
 39
0.01389
 10
1.947791
 20
1.905807
 40
0.01389
 41
0.01389
 10
2.592854
 20
2.275201
 40
0.01389
 41
0.01389
  0
LWPOLYLINE
  5
B9
100
AcDbEntity
  8
0
 62
   254
100
AcDbPolyline
 90
        2
 70
     0
 39
0.01389
 10
2.592854
 20
2.275201
 40
0.01389
 41
0.01389
 10
2.586303
 20
2.289724
 40
0.01389
 41
0.01389
  0
LWPOLYLINE
  5
BA
100
AcDbEntity
  8
0
 62
   254
100
AcDbPolyline
 90
        2
 70
     0
 39
0.01389
 10
2.586303
 20
2.289724
 40
0.01389
 41
0.01389
 10
1.94124
 20
1.920331
 40
0.01389
 41
0.01389
  0
LWPOLYLINE
  5
BB
100
AcDbEntity
  8
0
 62
   254
100
AcDbPolyline
 90
        2
 70
     0
 39
0.01389
 10
1.94124
 20
1.920331
 40
0.01389
 41
0.01389
 10
1.947791
 20
1.905807
 40
0.01389
 41
0.01389
  0
LWPOLYLINE
  5
BC
100
AcDbEntity
  8
0
 62
   254
100
AcDbPolyline
 90
        2
 70
     0
 39
0.01389
 10
1.94124
 20
1.920331
 40
0.01389
 41
0.01389
 10
2.586303
 20
2.289724
 40
0.01389
 41
0.01389
  0
LWPOLYLINE
  5
BD
100
AcDbEntity
  8
0
 62
   254
100
AcDbPolyline
 90
        2
 70
     0
 39
0.01389
 10
2.586303
 20
2.289724
 40
0.01389
 41
0.01389
 10
2.579217
 20
2.303949
 40
0.01389
 41
0.01389
  0
LWPOLYLINE
  5
BE
100
AcDbEntity
  8
0
 62
   254
100
AcDbPolyline
 90
        2
 70
     0
 39
0.01389
 10
2.579217
 20
2.303949
 40
0.01389
 41
0.01389
 10
1.934154
 20
1.934555
 40
0.01389
 41
0.01389
  0
LWPOLYLINE
  5
BF
100
AcDbEntity
  8
0
 62
   254
100
AcDbPolyline
 90
        2
 70
     0
 39
0.01389
 10
1.934154
 20
1.934555
 40
0.01389
 41
0.01389
 10
1.94124
 20
1.920331
 40
0.01389
 41
0.01389
  0
LWPOLYLINE
  5
C0
100
AcDbEntity
  8
0
 62
     9
100
AcDbPolyline
 90
        2
 70
     0
 39
0.01389
 10
1.934154
 20
1.934555
 40
0.01389
 41
0.01389
 10
2.579217
 20
2.303949
 40
0.01389
 41
0.01389
  0
LWPOLYLINE
  5
C1
100
AcDbEntity
  8
0
 62
     9
100
AcDbPolyline
 90
        2
 70
     0
 39
0.01389
 10
2.579217
 20
2.303949
 40
0.01389
 41
0.01389
 10
2.571587
 20
2.317846
 40
0.01389
 41
0.01389
  0
LWPOLYLINE
  5
C2
100
AcDbEntity
  8
0
 62
     9
100
AcDbPolyline
 90
        2
 70
     0
 39
0.01389
 10
2.571587
 20
2.317846
 40
0.01389
 41
0.01389
 10
1.926524
 20
1.948453
 40
0.01389
 41
0.01389
  0
LWPOLYLINE
  5
C3
100
AcDbEntity
  8
0
 62
     9
100
AcDbPolyline
 90
        2
 70
     0
 39
0.01389
 10
1.926524
 20
1.948453
 40
0.01389
 41
0.01389
 10
1.934154
 20
1.934555
 40
0.01389
 41
0.01389
  0
LWPOLYLINE
  5
C4
100
AcDbEntity
  8
0
 62
     9
100
AcDbPolyline
 90
        2
 70
     0
 39
0.01389
 10
1.926524
 20
1.948453
 40
0.01389
 41
0.01389
 10
2.571587
 20
2.317846
 40
0.01389
 41
0.01389
  0
LWPOLYLINE
  5
C5
100
AcDbEntity
  8
0
 62
     9
100
AcDbPolyline
 90
        2
 70
     0
 39
0.01389
 10
2.571587
 20
2.317846
 40
0.01389
 41
0.01389
 10
2.563445
 20
2.331413
 40
0.01389
 41
0.01389
  0
LWPOLYLINE
  5
C6
100
AcDbEntity
  8
0
 62
     9
100
AcDbPolyline
 90
        2
 70
     0
 39
0.01389
 10
2.563445
 20
2.331413
 40
0.01389
 41
0.01389
 10
1.918382
 20
1.96202
 40
0.01389
 41
0.01389
  0
LWPOLYLINE
  5
C7
100
AcDbEntity
  8
0
 62
     9
100
AcDbPolyline
 90
        2
 70
     0
 39
0.01389
 10
1.918382
 20
1.96202
 40
0.01389
 41
0.01389
 10
1.926524
 20
1.948453
 40
0.01389
 41
0.01389
  0
LWPOLYLINE
  5
C8
100
AcDbEntity
  8
0
 62
     9
100
AcDbPolyline
 90
        2
 70
     0
 39
0.01389
 10
1.918382
 20
1.96202
 40
0.01389
 41
0.01389
 10
2.563445
 20
2.331413
 40
0.01389
 41
0.01389
  0
LWPOLYLINE
  5
C9
100
AcDbEntity
  8
0
 62
     9
100
AcDbPolyline
 90
        2
 70
     0
 39
0.01389
 10
2.563445
 20
2.331413
 40
0.01389
 41
0.01389
 10
2.554791
 20
2.344634
 40
0.01389
 41
0.01389
  0
LWPOLYLINE
  5
CA
100
AcDbEntity
  8
0
 62
     9
100
AcDbPolyline
 90
        2
 70
     0
 39
0.01389
 10
2.554791
 20
2.344634
 40
0.01389
 41
0.01389
 10
1.909728
 20
1.97524
 40
0.01389
 41
0.01389
  0
LWPOLYLINE
  5
CB
100
AcDbEntity
  8
0
 62
     9
100
AcDbPolyline
 90
        2
 70
     0
 39
0.01389
 10
1.909728
 20
1.97524
 40
0.01389
 41
0.01389
 10
1.918382
 20
1.96202
 40
0.01389
 41
0.01389
  0
LWPOLYLINE
  5
CC
100
AcDbEntity
  8
0
 62
     9
100
AcDbPolyline
 90
        2
 70
     0
 39
0.01389
 10
1.909728
 20
1.97524
 40
0.01389
 41
0.01389
 10
2.554791
 20
2.344634
 40
0.01389
 41
0.01389
  0
LWPOLYLINE
  5
CD
100
AcDbEntity
  8
0
 62
     9
100
AcDbPolyline
 90
        2
 70
     0
 39
0.01389
 10
2.554791
 20
2.344634
 40
0.01389
 41
0.01389
 10
2.545654
 20
2.3575
 40
0.01389
 41
0.01389
  0
LWPOLYLINE
  5
CE
100
AcDbEntity
  8
0
 62
     9
100
AcDbPolyline
 90
        2
 70
     0
 39
0.01389
 10
2.545654
 20
2.3575
 40
0.01389
 41
0.01389
 10
1.900591
 20
1.988106
 40
0.01389
 41
0.01389
  0
LWPOLYLINE
  5
CF
100
AcDbEntity
  8
0
 62
     9
100
AcDbPolyline
 90
        2
 70
     0
 39
0.01389
 10
1.900591
 20
1.988106
 40
0.01389
 41
0.01389
 10
1.909728
 20
1.97524
 40
0.01389
 41
0.01389
  0
LWPOLYLINE
  5
D0
100
AcDbEntity
  8
0
 62
     9
100
AcDbPolyline
 90
        2
 70
     0
 39
0.01389
 10
1.900591
 20
1.988106
 40
0.01389
 41
0.01389
 10
2.545654
 20
2.3575
 40
0.01389
 41
0.01389
  0
LWPOLYLINE
  5
D1
100
AcDbEntity
  8
0
 62
     9
100
AcDbPolyline
 90
        2
 70
     0
 39
0.01389
 10
2.545654
 20
2.3575
 40
0.01389
 41
0.01389
 10
2.536028
 20
2.36998
 40
0.01389
 41
0.01389
  0
LWPOLYLINE
  5
D2
100
AcDbEntity
  8
0
 62
     9
100
AcDbPolyline
 90
        2
 70
     0
 39
0.01389
 10
2.536028
 20
2.36998
 40
0.01389
 41
0.01389
 10
1.890965
 20
2.000587
 40
0.01389
 41
0.01389
  0
LWPOLYLINE
  5
D3
100
AcDbEntity
  8
0
 62
     9
100
AcDbPolyline
 90
        2
 70
     0
 39
0.01389
 10
1.890965
 20
2.000587
 40
0.01389
 41
0.01389
 10
1.900591
 20
1.988106
 40
0.01389
 41
0.01389
  0
LWPOLYLINE
  5
D4
100
AcDbEntity
  8
0
 62
     9
100
AcDbPolyline
 90
        2
 70
     0
 39
0.01389
 10
1.890965
 20
2.000587
 40
0.01389
 41
0.01389
 10
2.536028
 20
2.36998
 40
0.01389
 41
0.01389
  0
LWPOLYLINE
  5
D5
100
AcDbEntity
  8
0
 62
     9
100
AcDbPolyline
 90
        2
 70
     0
 39
0.01389
 10
2.536028
 20
2.36998
 40
0.01389
 41
0.01389
 10
2.525945
 20
2.382079
 40
0.01389
 41
0.01389
  0
LWPOLYLINE
  5
D6
100
AcDbEntity
  8
0
 62
     9
100
AcDbPolyline
 90
        2
 70
     0
 39
0.01389
 10
2.525945
 20
2.382079
 40
0.01389
 41
0.01389
 10
1.880882
 20
2.012685
 40
0.01389
 41
0.01389
  0
LWPOLYLINE
  5
D7
100
AcDbEntity
  8
0
 62
     9
100
AcDbPolyline
 90
        2
 70
     0
 39
0.01389
 10
1.880882
 20
2.012685
 40
0.01389
 41
0.01389
 10
1.890965
 20
2.000587
 40
0.01389
 41
0.01389
  0
LWPOLYLINE
  5
D8
100
AcDbEntity
  8
0
 62
     9
100
AcDbPolyline
 90
        2
 70
     0
 39
0.01389
 10
1.880882
 20
2.012685
 40
0.01389
 41
0.01389
 10
2.525945
 20
2.382079
 40
0.01389
 41
0.01389
  0
LWPOLYLINE
  5
D9
100
AcDbEntity
  8
0
 62
     9
100
AcDbPolyline
 90
        2
 70
     0
 39
0.01389
 10
2.525945
 20
2.382079
 40
0.01389
 41
0.01389
 10
2.515406
 20
2.393776
 40
0.01389
 41
0.01389
  0
LWPOLYLINE
  5
DA
100
AcDbEntity
  8
0
 62
     9
100
AcDbPolyline
 90
        2
 70
     0
 39
0.01389
 10
2.515406
 20
2.393776
 40
0.01389
 41
0.01389
 10
1.870343
 20
2.024382
 40
0.01389
 41
0.01389
  0
LWPOLYLINE
  5
DB
100
AcDbEntity
  8
0
 62
     9
100
AcDbPolyline
 90
        2
 70
     0
 39
0.01389
 10
1.870343
 20
2.024382
 40
0.01389
 41
0.01389
 10
1.880882
 20
2.012685
 40
0.01389
 41
0.01389
  0
LWPOLYLINE
  5
DC
100
AcDbEntity
  8
0
 62
     9
100
AcDbPolyline
 90
        2
 70
     0
 39
0.01389
 10
1.870343
 20
2.024382
 40
0.01389
 41
0.01389
 10
2.515406
 20
2.393776
 40
0.01389
 41
0.01389
  0
LWPOLYLINE
  5
DD
100
AcDbEntity
  8
0
 62
     9
100
AcDbPolyline
 90
        2
 70
     0
 39
0.01389
 10
2.515406
 20
2.393776
 40
0.01389
 41
0.01389
 10
2.504437
 20
2.405063
 40
0.01389
 41
0.01389
  0
LWPOLYLINE
  5
DE
100
AcDbEntity
  8
0
 62
     9
100
AcDbPolyline
 90
        2
 70
     0
 39
0.01389
 10
2.504437
 20
2.405063
 40
0.01389
 41
0.01389
 10
1.859374
 20
2.035669
 40
0.01389
 41
0.01389
  0
LWPOLYLINE
  5
DF
100
AcDbEntity
  8
0
 62
     9
100
AcDbPolyline
 90
        2
 70
     0
 39
0.01389
 10
1.859374
 20
2.035669
 40
0.01389
 41
0.01389
 10
1.870343
 20
2.024382
 40
0.01389
 41
0.01389
  0
LWPOLYLINE
  5
E0
100
AcDbEntity
  8
0
 62
     9
100
AcDbPolyline
 90
        2
 70
     0
 39
0.01389
 10
1.859374
 20
2.035669
 40
0.01389
 41
0.01389
 10
2.504437
 20
2.405063
 40
0.01389
 41
0.01389
  0
LWPOLYLINE
  5
E1
100
AcDbEntity
  8
0
 62
     9
100
AcDbPolyline
 90
        2
 70
     0
 39
0.01389
 10
2.504437
 20
2.405063
 40
0.01389
 41
0.01389
 10
2.493035
 20
2.415913
 40
0.01389
 41
0.01389
  0
LWPOLYLINE
  5
E2
100
AcDbEntity
  8
0
 62
     9
100
AcDbPolyline
 90
        2
 70
     0
 39
0.01389
 10
2.493035
 20
2.415913
 40
0.01389
 41
0.01389
 10
1.847972
 20
2.04652
 40
0.01389
 41
0.01389
  0
LWPOLYLINE
  5
E3
100
AcDbEntity
  8
0
 62
     9
100
AcDbPolyline
 90
        2
 70
     0
 39
0.01389
 10
1.847972
 20
2.04652
 40
0.01389
 41
0.01389
 10
1.859374
 20
2.035669
 40
0.01389
 41
0.01389
  0
LWPOLYLINE
  5
E4
100
AcDbEntity
  8
0
 62
     9
100
AcDbPolyline
 90
        2
 70
     0
 39
0.01389
 10
1.847972
 20
2.04652
 40
0.01389
 41
0.01389
 10
2.493035
 20
2.415913
 40
0.01389
 41
0.01389
  0
LWPOLYLINE
  5
E5
100
AcDbEntity
  8
0
 62
     9
100
AcDbPolyline
 90
        2
 70
     0
 39
0.01389
 10
2.493035
 20
2.415913
 40
0.01389
 41
0.01389
 10
2.481228
 20
2.426331
 40
0.01389
 41
0.01389
  0
LWPOLYLINE
  5
E6
100
AcDbEntity
  8
0
 62
     9
100
AcDbPolyline
 90
        2
 70
     0
 39
0.01389
 10
2.481228
 20
2.426331
 40
0.01389
 41
0.01389
 10
1.836165
 20
2.056937
 40
0.01389
 41
0.01389
  0
LWPOLYLINE
  5
E7
100
AcDbEntity
  8
0
 62
     9
100
AcDbPolyline
 90
        2
 70
     0
 39
0.01389
 10
1.836165
 20
2.056937
 40
0.01389
 41
0.01389
 10
1.847972
 20
2.04652
 40
0.01389
 41
0.01389
  0
LWPOLYLINE
  5
E8
100
AcDbEntity
  8
0
 62
     9
100
AcDbPolyline
 90
        2
 70
     0
 39
0.01389
 10
1.836165
 20
2.056937
 40
0.01389
 41
0.01389
 10
2.481228
 20
2.426331
 40
0.01389
 41
0.01389
  0
LWPOLYLINE
  5
E9
100
AcDbEntity
  8
0
 62
     9
100
AcDbPolyline
 90
        2
 70
     0
 39
0.01389
 10
2.481228
 20
2.426331
 40
0.01389
 41
0.01389
 10
2.46902
 20
2.436291
 40
0.01389
 41
0.01389
  0
LWPOLYLINE
  5
EA
100
AcDbEntity
  8
0
 62
     9
100
AcDbPolyline
 90
        2
 70
     0
 39
0.01389
 10
2.46902
 20
2.436291
 40
0.01389
 41
0.01389
 10
1.823957
 20
2.066898
 40
0.01389
 41
0.01389
  0
LWPOLYLINE
  5
EB
100
AcDbEntity
  8
0
 62
     9
100
AcDbPolyline
 90
        2
 70
     0
 39
0.01389
 10
1.823957
 20
2.066898
 40
0.01389
 41
0.01389
 10
1.836165
 20
2.056937
 40
0.01389
 41
0.01389
  0
LWPOLYLINE
  5
EC
100
AcDbEntity
  8
0
 62
     9
100
AcDbPolyline
 90
        2
 70
     0
 39
0.01389
 10
1.823957
 20
2.066898
 40
0.01389
 41
0.01389
 10
2.46902
 20
2.436291
 40
0.01389
 41
0.01389
  0
LWPOLYLINE
  5
ED
100
AcDbEntity
  8
0
 62
     9
100
AcDbPolyline
 90
        2
 70
     0
 39
0.01389
 10
2.46902
 20
2.436291
 40
0.01389
 41
0.01389
 10
2.456437
 20
2.445787
 40
0.01389
 41
0.01389
  0
LWPOLYLINE
  5
EE
100
AcDbEntity
  8
0
 62
     9
100
AcDbPolyline
 90
        2
 70
     0
 39
0.01389
 10
2.456437
 20
2.445787
 40
0.01389
 41
0.01389
 10
1.811374
 20
2.076394
 40
0.01389
 41
0.01389
  0
LWPOLYLINE
  5
EF
100
AcDbEntity
  8
0
 62
     9
100
AcDbPolyline
 90
        2
 70
     0
 39
0.01389
 10
1.811374
 20
2.076394
 40
0.01389
 41
0.01389
 10
1.823957
 20
2.066898
 40
0.01389
 41
0.01389
  0
LWPOLYLINE
  5
F0
100
AcDbEntity
  8
0
 62
     9
100
AcDbPolyline
 90
        2
 70
     0
 39
0.01389
 10
1.811374
 20
2.076394
 40
0.01389
 41
0.01389
 10
2.456437
 20
2.445787
 40
0.01389
 41
0.01389
  0
LWPOLYLINE
  5
F1
100
AcDbEntity
  8
0
 62
     9
100
AcDbPolyline
 90
        2
 70
     0
 39
0.01389
 10
2.456437
 20
2.445787
 40
0.01389
 41
0.01389
 10
2.443472
 20
2.454795
 40
0.01389
 41
0.01389
  0
LWPOLYLINE
  5
F2
100
AcDbEntity
  8
0
 62
     9
100
AcDbPolyline
 90
        2
 70
     0
 39
0.01389
 10
2.443472
 20
2.454795
 40
0.01389
 41
0.01389
 10
1.798409
 20
2.085402
 40
0.01389
 41
0.01389
  0
LWPOLYLINE
  5
F3
100
AcDbEntity
  8
0
 62
     9
100
AcDbPolyline
 90
        2
 70
     0
 39
0.01389
 10
1.798409
 20
2.085402
 40
0.01389
 41
0.01389
 10
1.811374
 20
2.076394
 40
0.01389
 41
0.01389
  0
LWPOLYLINE
  5
F4
100
AcDbEntity
  8
0
 62
     9
100
AcDbPolyline
 90
        2
 70
     0
 39
0.01389
 10
1.798409
 20
2.085402
 40
0.01389
 41
0.01389
 10
2.443472
 20
2.454795
 40
0.01389
 41
0.01389
  0
LWPOLYLINE
  5
F5
100
AcDbEntity
  8
0
 62
     9
100
AcDbPolyline
 90
        2
 70
     0
 39
0.01389
 10
2.443472
 20
2.454795
 40
0.01389
 41
0.01389
 10
2.430161
 20
2.463311
 40
0.01389
 41
0.01389
  0
LWPOLYLINE
  5
F6
100
AcDbEntity
  8
0
 62
     9
100
AcDbPolyline
 90
        2
 70
     0
 39
0.01389
 10
2.430161
 20
2.463311
 40
0.01389
 41
0.01389
 10
1.785098
 20
2.093917
 40
0.01389
 41
0.01389
  0
LWPOLYLINE
  5
F7
100
AcDbEntity
  8
0
 62
     9
100
AcDbPolyline
 90
        2
 70
     0
 39
0.01389
 10
1.785098
 20
2.093917
 40
0.01389
 41
0.01389
 10
1.798409
 20
2.085402
 40
0.01389
 41
0.01389
  0
LWPOLYLINE
  5
F8
100
AcDbEntity
  8
0
 62
     9
100
AcDbPolyline
 90
        2
 70
     0
 39
0.01389
 10
1.785098
 20
2.093917
 40
0.01389
 41
0.01389
 10
2.430161
 20
2.463311
 40
0.01389
 41
0.01389
  0
LWPOLYLINE
  5
F9
100
AcDbEntity
  8
0
 62
     9
100
AcDbPolyline
 90
        2
 70
     0
 39
0.01389
 10
2.430161
 20
2.463311
 40
0.01389
 41
0.01389
 10
2.4165
 20
2.471315
 40
0.01389
 41
0.01389
  0
LWPOLYLINE
  5
FA
100
AcDbEntity
  8
0
 62
     9
100
AcDbPolyline
 90
        2
 70
     0
 39
0.01389
 10
2.4165
 20
2.471315
 40
0.01389
 41
0.01389
 10
1.771437
 20
2.101921
 40
0.01389
 41
0.01389
  0
LWPOLYLINE
  5
FB
100
AcDbEntity
  8
0
 62
     9
100
AcDbPolyline
 90
        2
 70
     0
 39
0.01389
 10
1.771437
 20
2.101921
 40
0.01389
 41
0.01389
 10
1.785098
 20
2.093917
 40
0.01389
 41
0.01389
  0
LWPOLYLINE
  5
FC
100
AcDbEntity
  8
0
 62
     9
100
AcDbPolyline
 90
        2
 70
     0
 39
0.01389
 10
1.771437
 20
2.101921
 40
0.01389
 41
0.01389
 10
2.4165
 20
2.471315
 40
0.01389
 41
0.01389
  0
LWPOLYLINE
  5
FD
100
AcDbEntity
  8
0
 62
     9
100
AcDbPolyline
 90
        2
 70
     0
 39
0.01389
 10
2.4165
 20
2.471315
 40
0.01389
 41
0.01389
 10
2.40252
 20
2.478799
 40
0.01389
 41
0.01389
  0
LWPOLYLINE
  5
FE
100
AcDbEntity
  8
0
 62
     9
100
AcDbPolyline
 90
        2
 70
     0
 39
0.01389
 10
2.40252
 20
2.478799
 40
0.01389
 41
0.01389
 10
1.757457
 20
2.109406
 40
0.01389
 41
0.01389
  0
LWPOLYLINE
  5
FF
100
AcDbEntity
  8
0
 62
     9
100
AcDbPolyline
 90
        2
 70
     0
 39
0.01389
 10
1.757457
 20
2.109406
 40
0.01389
 41
0.01389
 10
1.771437
 20
2.101921
 40
0.01389
 41
0.01389
  0
LWPOLYLINE
  5
100
100
AcDbEntity
  8
0
 62
     9
100
AcDbPolyline
 90
        2
 70
     0
 39
0.01389
 10
1.757457
 20
2.109406
 40
0.01389
 41
0.01389
 10
2.40252
 20
2.478799
 40
0.01389
 41
0.01389
  0
LWPOLYLINE
  5
101
100
AcDbEntity
  8
0
 62
     9
100
AcDbPolyline
 90
        2
 70
     0
 39
0.01389
 10
2.40252
 20
2.478799
 40
0.01389
 41
0.01389
 10
2.388213
 20
2.485744
 40
0.01389
 41
0.01389
  0
LWPOLYLINE
  5
102
100
AcDbEntity
  8
0
 62
     9
100
AcDbPolyline
 90
        2
 70
     0
 39
0.01389
 10
2.388213
 20
2.485744
 40
0.01389
 41
0.01389
 10
1.74315
 20
2.11635
 40
0.01389
 41
0.01389
  0
LWPOLYLINE
  5
103
100
AcDbEntity
  8
0
 62
     9
100
AcDbPolyline
 90
        2
 70
     0
 39
0.01389
 10
1.74315
 20
2.11635
 40
0.01389
 41
0.01389
 10
1.757457
 20
2.109406
 40
0.01389
 41
0.01389
  0
LWPOLYLINE
  5
104
100
AcDbEntity
  8
0
 62
     9
100
AcDbPolyline
 90
        2
 70
     0
 39
0.01389
 10
1.74315
 20
2.11635
 40
0.01389
 41
0.01389
 10
2.388213
 20
2.485744
 40
0.01389
 41
0.01389
  0
LWPOLYLINE
  5
105
100
AcDbEntity
  8
0
 62
     9
100
AcDbPolyline
 90
        2
 70
     0
 39
0.01389
 10
2.388213
 20
2.485744
 40
0.01389
 41
0.01389
 10
2.37361
 20
2.492142
 40
0.01389
 41
0.01389
  0
LWPOLYLINE
  5
106
100
AcDbEntity
  8
0
 62
     9
100
AcDbPolyline
 90
        2
 70
     0
 39
0.01389
 10
2.37361
 20
2.492142
 40
0.01389
 41
0.01389
 10
1.728547
 20
2.122748
 40
0.01389
 41
0.01389
  0
LWPOLYLINE
  5
107
100
AcDbEntity
  8
0
 62
     9
100
AcDbPolyline
 90
        2
 70
     0
 39
0.01389
 10
1.728547
 20
2.122748
 40
0.01389
 41
0.01389
 10
1.74315
 20
2.11635
 40
0.01389
 41
0.01389
  0
LWPOLYLINE
  5
108
100
AcDbEntity
  8
0
 62
     9
100
AcDbPolyline
 90
        2
 70
     0
 39
0.01389
 10
1.728547
 20
2.122748
 40
0.01389
 41
0.01389
 10
2.37361
 20
2.492142
 40
0.01389
 41
0.01389
  0
LWPOLYLINE
  5
109
100
AcDbEntity
  8
0
 62
     9
100
AcDbPolyline
 90
        2
 70
     0
 39
0.01389
 10
2.37361
 20
2.492142
 40
0.01389
 41
0.01389
 10
2.358717
 20
2.497972
 40
0.01389
 41
0.01389
  0
LWPOLYLINE
  5
10A
100
AcDbEntity
  8
0
 62
     9
100
AcDbPolyline
 90
        2
 70
     0
 39
0.01389
 10
2.358717
 20
2.497972
 40
0.01389
 41
0.01389
 10
1.713654
 20
2.128579
 40
0.01389
 41
0.01389
  0
LWPOLYLINE
  5
10B
100
AcDbEntity
  8
0
 62
     9
100
AcDbPolyline
 90
        2
 70
     0
 39
0.01389
 10
1.713654
 20
2.128579
 40
0.01389
 41
0.01389
 10
1.728547
 20
2.122748
 40
0.01389
 41
0.01389
  0
LWPOLYLINE
  5
10C
100
AcDbEntity
  8
0
 62
     9
100
AcDbPolyline
 90
        2
 70
     0
 39
0.01389
 10
1.713654
 20
2.128579
 40
0.01389
 41
0.01389
 10
2.358717
 20
2.497972
 40
0.01389
 41
0.01389
  0
LWPOLYLINE
  5
10D
100
AcDbEntity
  8
0
 62
     9
100
AcDbPolyline
 90
        2
 70
     0
 39
0.01389
 10
2.358717
 20
2.497972
 40
0.01389
 41
0.01389
 10
2.343551
 20
2.503236
 40
0.01389
 41
0.01389
  0
LWPOLYLINE
  5
10E
100
AcDbEntity
  8
0
 62
     9
100
AcDbPolyline
 90
        2
 70
     0
 39
0.01389
 10
2.343551
 20
2.503236
 40
0.01389
 41
0.01389
 10
1.698488
 20
2.133843
 40
0.01389
 41
0.01389
  0
LWPOLYLINE
  5
10F
100
AcDbEntity
  8
0
 62
     9
100
AcDbPolyline
 90
        2
 70
     0
 39
0.01389
 10
1.698488
 20
2.133843
 40
0.01389
 41
0.01389
 10
1.713654
 20
2.128579
 40
0.01389
 41
0.01389
  0
LWPOLYLINE
  5
110
100
AcDbEntity
  8
0
 62
     0
100
AcDbPolyline
 90
        2
 70
     0
 39
0.003
 10
1.808823
 20
1.415185
 40
0.003
 41
0.003
 10
2.453886
 20
1.784579
 40
0.003
 41
0.003
  0
LWPOLYLINE
  5
111
100
AcDbEntity
  8
0
 62
     0
100
AcDbPolyline
 90
        2
 70
     0
 39
0.003
 10
2.453886
 20
1.784579
 40
0.003
 41
0.003
 10
2.467201
 20
1.794476
 40
0.003
 41
0.003
  0
LWPOLYLINE
  5
112
100
AcDbEntity
  8
0
 62
     0
100
AcDbPolyline
 90
        2
 70
     0
 39
0.003
 10
2.467201
 20
1.794476
 40
0.003
 41
0.003
 10
2.480087
 20
1.804894
 40
0.003
 41
0.003
  0
LWPOLYLINE
  5
113
100
AcDbEntity
  8
0
 62
     0
100
AcDbPolyline
 90
        2
 70
     0
 39
0.003
 10
2.480087
 20
1.804894
 40
0.003
 41
0.003
 10
2.492543
 20
1.815823
 40
0.003
 41
0.003
  0
LWPOLYLINE
  5
114
100
AcDbEntity
  8
0
 62
     0
100
AcDbPolyline
 90
        2
 70
     0
 39
0.003
 10
2.492543
 20
1.815823
 40
0.003
 41
0.003
 10
2.504539
 20
1.827236
 40
0.003
 41
0.003
  0
LWPOLYLINE
  5
115
100
AcDbEntity
  8
0
 62
     0
100
AcDbPolyline
 90
        2
 70
     0
 39
0.003
 10
2.504539
 20
1.827236
 40
0.003
 41
0.003
 10
2.516071
 20
1.839126
 40
0.003
 41
0.003
  0
LWPOLYLINE
  5
116
100
AcDbEntity
  8
0
 62
     0
100
AcDbPolyline
 90
        2
 70
     0
 39
0.003
 10
2.516071
 20
1.839126
 40
0.003
 41
0.003
 10
2.527114
 20
1.851472
 40
0.003
 41
0.003
  0
LWPOLYLINE
  5
117
100
AcDbEntity
  8
0
 62
     0
100
AcDbPolyline
 90
        2
 70
     0
 39
0.003
 10
2.527114
 20
1.851472
 40
0.003
 41
0.003
 10
2.537661
 20
1.864264
 40
0.003
 41
0.003
  0
LWPOLYLINE
  5
118
100
AcDbEntity
  8
0
 62
     0
100
AcDbPolyline
 90
        2
 70
     0
 39
0.003
 10
2.537661
 20
1.864264
 40
0.003
 41
0.003
 10
2.547685
 20
1.877472
 40
0.003
 41
0.003
  0
LWPOLYLINE
  5
119
100
AcDbEntity
  8
0
 62
     0
100
AcDbPolyline
 90
        2
 70
     0
 39
0.003
 10
2.547685
 20
1.877472
 40
0.003
 41
0.003
 10
2.557177
 20
1.891094
 40
0.003
 41
0.003
  0
LWPOLYLINE
  5
11A
100
AcDbEntity
  8
0
 62
     0
100
AcDbPolyline
 90
        2
 70
     0
 39
0.003
 10
2.557177
 20
1.891094
 40
0.003
 41
0.003
 10
2.566118
 20
1.90511
 40
0.003
 41
0.003
  0
LWPOLYLINE
  5
11B
100
AcDbEntity
  8
0
 62
     0
100
AcDbPolyline
 90
        2
 70
     0
 39
0.003
 10
2.566118
 20
1.90511
 40
0.003
 41
0.003
 10
2.574504
 20
1.919512
 40
0.003
 41
0.003
  0
LWPOLYLINE
  5
11C
100
AcDbEntity
  8
0
 62
     0
100
AcDbPolyline
 90
        2
 70
     0
 39
0.003
 10
2.574504
 20
1.919512
 40
0.003
 41
0.003
 10
2.582299
 20
1.934268
 40
0.003
 41
0.003
  0
LWPOLYLINE
  5
11D
100
AcDbEntity
  8
0
 62
     0
100
AcDbPolyline
 90
        2
 70
     0
 39
0.003
 10
2.582299
 20
1.934268
 40
0.003
 41
0.003
 10
2.589508
 20
1.949382
 40
0.003
 41
0.003
  0
LWPOLYLINE
  5
11E
100
AcDbEntity
  8
0
 62
     0
100
AcDbPolyline
 90
        2
 70
     0
 39
0.003
 10
2.589508
 20
1.949382
 40
0.003
 41
0.003
 10
2.596102
 20
1.964819
 40
0.003
 41
0.003
  0
LWPOLYLINE
  5
11F
100
AcDbEntity
  8
0
 62
     0
100
AcDbPolyline
 90
        2
 70
     0
 39
0.003
 10
2.596102
 20
1.964819
 40
0.003
 41
0.003
 10
2.602075
 20
1.980579
 40
0.003
 41
0.003
  0
LWPOLYLINE
  5
120
100
AcDbEntity
  8
0
 62
     0
100
AcDbPolyline
 90
        2
 70
     0
 39
0.003
 10
2.602075
 20
1.980579
 40
0.003
 41
0.003
 10
2.607394
 20
1.99663
 40
0.003
 41
0.003
  0
LWPOLYLINE
  5
121
100
AcDbEntity
  8
0
 62
     0
100
AcDbPolyline
 90
        2
 70
     0
 39
0.003
 10
2.607394
 20
1.99663
 40
0.003
 41
0.003
 10
2.612059
 20
2.012972
 40
0.003
 41
0.003
  0
LWPOLYLINE
  5
122
100
AcDbEntity
  8
0
 62
     0
100
AcDbPolyline
 90
        2
 70
     0
 39
0.003
 10
2.612059
 20
2.012972
 40
0.003
 41
0.003
 10
2.616051
 20
2.029579
 40
0.003
 41
0.003
  0
LWPOLYLINE
  5
123
100
AcDbEntity
  8
0
 62
     0
100
AcDbPolyline
 90
        2
 70
     0
 39
0.003
 10
2.616051
 20
2.029579
 40
0.003
 41
0.003
 10
2.619354
 20
2.046445
 40
0.003
 41
0.003
  0
LWPOLYLINE
  5
124
100
AcDbEntity
  8
0
 62
     0
100
AcDbPolyline
 90
        2
 70
     0
 39
0.003
 10
2.619354
 20
2.046445
 40
0.003
 41
0.003
 10
2.621949
 20
2.063539
 40
0.003
 41
0.003
  0
LWPOLYLINE
  5
125
100
AcDbEntity
  8
0
 62
     0
100
AcDbPolyline
 90
        2
 70
     0
 39
0.003
 10
2.621949
 20
2.063539
 40
0.003
 41
0.003
 10
2.623823
 20
2.080858
 40
0.003
 41
0.003
  0
LWPOLYLINE
  5
126
100
AcDbEntity
  8
0
 62
     0
100
AcDbPolyline
 90
        2
 70
     0
 39
0.003
 10
2.623823
 20
2.080858
 40
0.003
 41
0.003
 10
2.624957
 20
2.098382
 40
0.003
 41
0.003
  0
LWPOLYLINE
  5
127
100
AcDbEntity
  8
0
 62
     0
100
AcDbPolyline
 90
        2
 70
     0
 39
0.003
 10
2.624957
 20
2.098382
 40
0.003
 41
0.003
 10
2.625343
 20
2.116102
 40
0.003
 41
0.003
  0
LWPOLYLINE
  5
128
100
AcDbEntity
  8
0
 62
     0
100
AcDbPolyline
 90
        2
 70
     0
 39
0.003
 10
2.625343
 20
2.116102
 40
0.003
 41
0.003
 10
2.624992
 20
2.132937
 40
0.003
 41
0.003
  0
LWPOLYLINE
  5
129
100
AcDbEntity
  8
0
 62
     0
100
AcDbPolyline
 90
        2
 70
     0
 39
0.003
 10
2.624992
 20
2.132937
 40
0.003
 41
0.003
 10
2.623969
 20
2.149606
 40
0.003
 41
0.003
  0
LWPOLYLINE
  5
12A
100
AcDbEntity
  8
0
 62
     0
100
AcDbPolyline
 90
        2
 70
     0
 39
0.003
 10
2.623969
 20
2.149606
 40
0.003
 41
0.003
 10
2.622272
 20
2.166091
 40
0.003
 41
0.003
  0
LWPOLYLINE
  5
12B
100
AcDbEntity
  8
0
 62
     0
100
AcDbPolyline
 90
        2
 70
     0
 39
0.003
 10
2.622272
 20
2.166091
 40
0.003
 41
0.003
 10
2.619925
 20
2.182382
 40
0.003
 41
0.003
  0
LWPOLYLINE
  5
12C
100
AcDbEntity
  8
0
 62
     0
100
AcDbPolyline
 90
        2
 70
     0
 39
0.003
 10
2.619925
 20
2.182382
 40
0.003
 41
0.003
 10
2.616929
 20
2.198457
 40
0.003
 41
0.003
  0
LWPOLYLINE
  5
12D
100
AcDbEntity
  8
0
 62
     0
100
AcDbPolyline
 90
        2
 70
     0
 39
0.003
 10
2.616929
 20
2.198457
 40
0.003
 41
0.003
 10
2.613315
 20
2.214311
 40
0.003
 41
0.003
  0
LWPOLYLINE
  5
12E
100
AcDbEntity
  8
0
 62
     0
100
AcDbPolyline
 90
        2
 70
     0
 39
0.003
 10
2.613315
 20
2.214311
 40
0.003
 41
0.003
 10
2.609087
 20
2.229925
 40
0.003
 41
0.003
  0
LWPOLYLINE
  5
12F
100
AcDbEntity
  8
0
 62
     0
100
AcDbPolyline
 90
        2
 70
     0
 39
0.003
 10
2.609087
 20
2.229925
 40
0.003
 41
0.003
 10
2.604264
 20
2.245291
 40
0.003
 41
0.003
  0
LWPOLYLINE
  5
130
100
AcDbEntity
  8
0
 62
     0
100
AcDbPolyline
 90
        2
 70
     0
 39
0.003
 10
2.604264
 20
2.245291
 40
0.003
 41
0.003
 10
2.598843
 20
2.260382
 40
0.003
 41
0.003
  0
LWPOLYLINE
  5
131
100
AcDbEntity
  8
0
 62
     0
100
AcDbPolyline
 90
        2
 70
     0
 39
0.003
 10
2.598843
 20
2.260382
 40
0.003
 41
0.003
 10
2.592854
 20
2.275201
 40
0.003
 41
0.003
  0
LWPOLYLINE
  5
132
100
AcDbEntity
  8
0
 62
     0
100
AcDbPolyline
 90
        2
 70
     0
 39
0.003
 10
2.592854
 20
2.275201
 40
0.003
 41
0.003
 10
2.586303
 20
2.289724
 40
0.003
 41
0.003
  0
LWPOLYLINE
  5
133
100
AcDbEntity
  8
0
 62
     0
100
AcDbPolyline
 90
        2
 70
     0
 39
0.003
 10
2.586303
 20
2.289724
 40
0.003
 41
0.003
 10
2.579217
 20
2.303949
 40
0.003
 41
0.003
  0
LWPOLYLINE
  5
134
100
AcDbEntity
  8
0
 62
     0
100
AcDbPolyline
 90
        2
 70
     0
 39
0.003
 10
2.579217
 20
2.303949
 40
0.003
 41
0.003
 10
2.571587
 20
2.317846
 40
0.003
 41
0.003
  0
LWPOLYLINE
  5
135
100
AcDbEntity
  8
0
 62
     0
100
AcDbPolyline
 90
        2
 70
     0
 39
0.003
 10
2.571587
 20
2.317846
 40
0.003
 41
0.003
 10
2.563445
 20
2.331413
 40
0.003
 41
0.003
  0
LWPOLYLINE
  5
136
100
AcDbEntity
  8
0
 62
     0
100
AcDbPolyline
 90
        2
 70
     0
 39
0.003
 10
2.563445
 20
2.331413
 40
0.003
 41
0.003
 10
2.554791
 20
2.344634
 40
0.003
 41
0.003
  0
LWPOLYLINE
  5
137
100
AcDbEntity
  8
0
 62
     0
100
AcDbPolyline
 90
        2
 70
     0
 39
0.003
 10
2.554791
 20
2.344634
 40
0.003
 41
0.003
 10
2.545654
 20
2.3575
 40
0.003
 41
0.003
  0
LWPOLYLINE
  5
138
100
AcDbEntity
  8
0
 62
     0
100
AcDbPolyline
 90
        2
 70
     0
 39
0.003
 10
2.545654
 20
2.3575
 40
0.003
 41
0.003
 10
2.536028
 20
2.36998
 40
0.003
 41
0.003
  0
LWPOLYLINE
  5
139
100
AcDbEntity
  8
0
 62
     0
100
AcDbPolyline
 90
        2
 70
     0
 39
0.003
 10
2.536028
 20
2.36998
 40
0.003
 41
0.003
 10
2.525945
 20
2.382079
 40
0.003
 41
0.003
  0
LWPOLYLINE
  5
13A
100
AcDbEntity
  8
0
 62
     0
100
AcDbPolyline
 90
        2
 70
     0
 39
0.003
 10
2.525945
 20
2.382079
 40
0.003
 41
0.003
 10
2.515406
 20
2.393776
 40
0.003
 41
0.003
  0
LWPOLYLINE
  5
13B
100
AcDbEntity
  8
0
 62
     0
100
AcDbPolyline
 90
        2
 70
     0
 39
0.003
 10
2.515406
 20
2.393776
 40
0.003
 41
0.003
 10
2.504437
 20
2.405063
 40
0.003
 41
0.003
  0
LWPOLYLINE
  5
13C
100
AcDbEntity
  8
0
 62
     0
100
AcDbPolyline
 90
        2
 70
     0
 39
0.003
 10
2.504437
 20
2.405063
 40
0.003
 41
0.003
 10
2.493035
 20
2.415913
 40
0.003
 41
0.003
  0
LWPOLYLINE
  5
13D
100
AcDbEntity
  8
0
 62
     0
100
AcDbPolyline
 90
        2
 70
     0
 39
0.003
 10
2.493035
 20
2.415913
 40
0.003
 41
0.003
 10
2.481228
 20
2.426331
 40
0.003
 41
0.003
  0
LWPOLYLINE
  5
13E
100
AcDbEntity
  8
0
 62
     0
100
AcDbPolyline
 90
        2
 70
     0
 39
0.003
 10
2.481228
 20
2.426331
 40
0.003
 41
0.003
 10
2.46902
 20
2.436291
 40
0.003
 41
0.003
  0
LWPOLYLINE
  5
13F
100
AcDbEntity
  8
0
 62
     0
100
AcDbPolyline
 90
        2
 70
     0
 39
0.003
 10
2.46902
 20
2.436291
 40
0.003
 41
0.003
 10
2.456437
 20
2.445787
 40
0.003
 41
0.003
  0
LWPOLYLINE
  5
140
100
AcDbEntity
  8
0
 62
     0
100
AcDbPolyline
 90
        2
 70
     0
 39
0.003
 10
2.456437
 20
2.445787
 40
0.003
 41
0.003
 10
2.443472
 20
2.454795
 40
0.003
 41
0.003
  0
LWPOLYLINE
  5
141
100
AcDbEntity
  8
0
 62
     0
100
AcDbPolyline
 90
        2
 70
     0
 39
0.003
 10
2.443472
 20
2.454795
 40
0.003
 41
0.003
 10
2.430161
 20
2.463311
 40
0.003
 41
0.003
  0
LWPOLYLINE
  5
142
100
AcDbEntity
  8
0
 62
     0
100
AcDbPolyline
 90
        2
 70
     0
 39
0.003
 10
2.430161
 20
2.463311
 40
0.003
 41
0.003
 10
2.4165
 20
2.471315
 40
0.003
 41
0.003
  0
LWPOLYLINE
  5
143
100
AcDbEntity
  8
0
 62
     0
100
AcDbPolyline
 90
        2
 70
     0
 39
0.003
 10
2.4165
 20
2.471315
 40
0.003
 41
0.003
 10
2.40252
 20
2.478799
 40
0.003
 41
0.003
  0
LWPOLYLINE
  5
144
100
AcDbEntity
  8
0
 62
     0
100
AcDbPolyline
 90
        2
 70
     0
 39
0.003
 10
2.40252
 20
2.478799
 40
0.003
 41
0.003
 10
2.388213
 20
2.485744
 40
0.003
 41
0.003
  0
LWPOLYLINE
  5
145
100
AcDbEntity
  8
0
 62
     0
100
AcDbPolyline
 90
        2
 70
     0
 39
0.003
 10
2.388213
 20
2.485744
 40
0.003
 41
0.003
 10
2.37361
 20
2.492142
 40
0.003
 41
0.003
  0
LWPOLYLINE
  5
146
100
AcDbEntity
  8
0
 62
     0
100
AcDbPolyline
 90
        2
 70
     0
 39
0.003
 10
2.37361
 20
2.492142
 40
0.003
 41
0.003
 10
2.358717
 20
2.497972
 40
0.003
 41
0.003
  0
LWPOLYLINE
  5
147
100
AcDbEntity
  8
0
 62
     0
100
AcDbPolyline
 90
        2
 70
     0
 39
0.003
 10
2.358717
 20
2.497972
 40
0.003
 41
0.003
 10
2.343551
 20
2.503236
 40
0.003
 41
0.003
  0
LWPOLYLINE
  5
148
100
AcDbEntity
  8
0
 62
     0
100
AcDbPolyline
 90
        2
 70
     0
 39
0.003
 10
2.343551
 20
2.503236
 40
0.003
 41
0.003
 10
1.698488
 20
2.133843
 40
0.003
 41
0.003
  0
LWPOLYLINE
  5
149
100
AcDbEntity
  8
0
 62
     0
100
AcDbPolyline
 90
        2
 70
     0
 39
0.003
 10
1.698488
 20
2.133843
 40
0.003
 41
0.003
 10
1.713654
 20
2.128579
 40
0.003
 41
0.003
  0
LWPOLYLINE
  5
14A
100
AcDbEntity
  8
0
 62
     0
100
AcDbPolyline
 90
        2
 70
     0
 39
0.003
 10
1.713654
 20
2.128579
 40
0.003
 41
0.003
 10
1.728547
 20
2.122748
 40
0.003
 41
0.003
  0
LWPOLYLINE
  5
14B
100
AcDbEntity
  8
0
 62
     0
100
AcDbPolyline
 90
        2
 70
     0
 39
0.003
 10
1.728547
 20
2.122748
 40
0.003
 41
0.003
 10
1.74315
 20
2.11635
 40
0.003
 41
0.003
  0
LWPOLYLINE
  5
14C
100
AcDbEntity
  8
0
 62
     0
100
AcDbPolyline
 90
        2
 70
     0
 39
0.003
 10
1.74315
 20
2.11635
 40
0.003
 41
0.003
 10
1.757457
 20
2.109406
 40
0.003
 41
0.003
  0
LWPOLYLINE
  5
14D
100
AcDbEntity
  8
0
 62
     0
100
AcDbPolyline
 90
        2
 70
     0
 39
0.003
 10
1.757457
 20
2.109406
 40
0.003
 41
0.003
 10
1.771437
 20
2.101921
 40
0.003
 41
0.003
  0
LWPOLYLINE
  5
14E
100
AcDbEntity
  8
0
 62
     0
100
AcDbPolyline
 90
        2
 70
     0
 39
0.003
 10
1.771437
 20
2.101921
 40
0.003
 41
0.003
 10
1.785098
 20
2.093917
 40
0.003
 41
0.003
  0
LWPOLYLINE
  5
14F
100
AcDbEntity
  8
0
 62
     0
100
AcDbPolyline
 90
        2
 70
     0
 39
0.003
 10
1.785098
 20
2.093917
 40
0.003
 41
0.003
 10
1.798409
 20
2.085402
 40
0.003
 41
0.003
  0
LWPOLYLINE
  5
150
100
AcDbEntity
  8
0
 62
     0
100
AcDbPolyline
 90
        2
 70
     0
 39
0.003
 10
1.798409
 20
2.085402
 40
0.003
 41
0.003
 10
1.811374
 20
2.076394
 40
0.003
 41
0.003
  0
LWPOLYLINE
  5
151
100
AcDbEntity
  8
0
 62
     0
100
AcDbPolyline
 90
        2
 70
     0
 39
0.003
 10
1.811374
 20
2.076394
 40
0.003
 41
0.003
 10
1.823957
 20
2.066898
 40
0.003
 41
0.003
  0
LWPOLYLINE
  5
152
100
AcDbEntity
  8
0
 62
     0
100
AcDbPolyline
 90
        2
 70
     0
 39
0.003
 10
1.823957
 20
2.066898
 40
0.003
 41
0.003
 10
1.836165
 20
2.056937
 40
0.003
 41
0.003
  0
LWPOLYLINE
  5
153
100
AcDbEntity
  8
0
 62
     0
100
AcDbPolyline
 90
        2
 70
     0
 39
0.003
 10
1.836165
 20
2.056937
 40
0.003
 41
0.003
 10
1.847972
 20
2.04652
 40
0.003
 41
0.003
  0
LWPOLYLINE
  5
154
100
AcDbEntity
  8
0
 62
     0
100
AcDbPolyline
 90
        2
 70
     0
 39
0.003
 10
1.847972
 20
2.04652
 40
0.003
 41
0.003
 10
1.859374
 20
2.035669
 40
0.003
 41
0.003
  0
LWPOLYLINE
  5
155
100
AcDbEntity
  8
0
 62
     0
100
AcDbPolyline
 90
        2
 70
     0
 39
0.003
 10
1.859374
 20
2.035669
 40
0.003
 41
0.003
 10
1.870343
 20
2.024382
 40
0.003
 41
0.003
  0
LWPOLYLINE
  5
156
100
AcDbEntity
  8
0
 62
     0
100
AcDbPolyline
 90
        2
 70
     0
 39
0.003
 10
1.870343
 20
2.024382
 40
0.003
 41
0.003
 10
1.880882
 20
2.012685
 40
0.003
 41
0.003
  0
LWPOLYLINE
  5
157
100
AcDbEntity
  8
0
 62
     0
100
AcDbPolyline
 90
        2
 70
     0
 39
0.003
 10
1.880882
 20
2.012685
 40
0.003
 41
0.003
 10
1.890965
 20
2.000587
 40
0.003
 41
0.003
  0
LWPOLYLINE
  5
158
100
AcDbEntity
  8
0
 62
     0
100
AcDbPolyline
 90
        2
 70
     0
 39
0.003
 10
1.890965
 20
2.000587
 40
0.003
 41
0.003
 10
1.900591
 20
1.988106
 40
0.003
 41
0.003
  0
LWPOLYLINE
  5
159
100
AcDbEntity
  8
0
 62
     0
100
AcDbPolyline
 90
        2
 70
     0
 39
0.003
 10
1.900591
 20
1.988106
 40
0.003
 41
0.003
 10
1.909728
 20
1.97524
 40
0.003
 41
0.003
  0
LWPOLYLINE
  5
15A
100
AcDbEntity
  8
0
 62
     0
100
AcDbPolyline
 90
        2
 70
     0
 39
0.003
 10
1.909728
 20
1.97524
 40
0.003
 41
0.003
 10
1.918382
 20
1.96202
 40
0.003
 41
0.003
  0
LWPOLYLINE
  5
15B
100
AcDbEntity
  8
0
 62
     0
100
AcDbPolyline
 90
        2
 70
     0
 39
0.003
 10
1.918382
 20
1.96202
 40
0.003
 41
0.003
 10
1.926524
 20
1.948453
 40
0.003
 41
0.003
  0
LWPOLYLINE
  5
15C
100
AcDbEntity
  8
0
 62
     0
100
AcDbPolyline
 90
        2
 70
     0
 39
0.003
 10
1.926524
 20
1.948453
 40
0.003
 41
0.003
 10
1.934154
 20
1.934555
 40
0.003
 41
0.003
  0
LWPOLYLINE
  5
15D
100
AcDbEntity
  8
0
 62
     0
100
AcDbPolyline
 90
        2
 70
     0
 39
0.003
 10
1.934154
 20
1.934555
 40
0.003
 41
0.003
 10
1.94124
 20
1.920331
 40
0.003
 41
0.003
  0
LWPOLYLINE
  5
15E
100
AcDbEntity
  8
0
 62
     0
100
AcDbPolyline
 90
        2
 70
     0
 39
0.003
 10
1.94124
 20
1.920331
 40
0.003
 41
0.003
 10
1.947791
 20
1.905807
 40
0.003
 41
0.003
  0
LWPOLYLINE
  5
15F
100
AcDbEntity
  8
0
 62
     0
100
AcDbPolyline
 90
        2
 70
     0
 39
0.003
 10
1.947791
 20
1.905807
 40
0.003
 41
0.003
 10
1.95378
 20
1.890988
 40
0.003
 41
0.003
  0
LWPOLYLINE
  5
160
100
AcDbEntity
  8
0
 62
     0
100
AcDbPolyline
 90
        2
 70
     0
 39
0.003
 10
1.95378
 20
1.890988
 40
0.003
 41
0.003
 10
1.959201
 20
1.875898
 40
0.003
 41
0.003
  0
LWPOLYLINE
  5
161
100
AcDbEntity
  8
0
 62
     0
100
AcDbPolyline
 90
        2
 70
     0
 39
0.003
 10
1.959201
 20
1.875898
 40
0.003
 41
0.003
 10
1.964024
 20
1.860531
 40
0.003
 41
0.003
  0
LWPOLYLINE
  5
162
100
AcDbEntity
  8
0
 62
     0
100
AcDbPolyline
 90
        2
 70
     0
 39
0.003
 10
1.964024
 20
1.860531
 40
0.003
 41
0.003
 10
1.968252
 20
1.844917
 40
0.003
 41
0.003
  0
LWPOLYLINE
  5
163
100
AcDbEntity
  8
0
 62
     0
100
AcDbPolyline
 90
        2
 70
     0
 39
0.003
 10
1.968252
 20
1.844917
 40
0.003
 41
0.003
 10
1.971866
 20
1.829063
 40
0.003
 41
0.003
  0
LWPOLYLINE
  5
164
100
AcDbEntity
  8
0
 62
     0
100
AcDbPolyline
 90
        2
 70
     0
 39
0.003
 10
1.971866
 20
1.829063
 40
0.003
 41
0.003
 10
1.974862
 20
1.812988
 40
0.003
 41
0.003
  0
LWPOLYLINE
  5
165
100
AcDbEntity
  8
0
 62
     0
100
AcDbPolyline
 90
        2
 70
     0
 39
0.003
 10
1.974862
 20
1.812988
 40
0.003
 41
0.003
 10
1.977209
 20
1.796697
 40
0.003
 41
0.003
  0
LWPOLYLINE
  5
166
100
AcDbEntity
  8
0
 62
     0
100
AcDbPolyline
 90
        2
 70
     0
 39
0.003
 10
1.977209
 20
1.796697
 40
0.003
 41
0.003
 10
1.978906
 20
1.780213
 40
0.003
 41
0.003
  0
LWPOLYLINE
  5
167
100
AcDbEntity
  8
0
 62
     0
100
AcDbPolyline
 90
        2
 70
     0
 39
0.003
 10
1.978906
 20
1.780213
 40
0.003
 41
0.003
 10
1.979929
 20
1.763543
 40
0.003
 41
0.003
  0
LWPOLYLINE
  5
168
100
AcDbEntity
  8
0
 62
     0
100
AcDbPolyline
 90
        2
 70
     0
 39
0.003
 10
1.979929
 20
1.763543
 40
0.003
 41
0.003
 10
1.98028
 20
1.746709
 40
0.003
 41
0.003
  0
LWPOLYLINE
  5
169
100
AcDbEntity
  8
0
 62
     0
100
AcDbPolyline
 90
        2
 70
     0
 39
0.003
 10
1.98028
 20
1.746709
 40
0.003
 41
0.003
 10
1.979894
 20
1.728988
 40
0.003
 41
0.003
  0
LWPOLYLINE
  5
16A
100
AcDbEntity
  8
0
 62
     0
100
AcDbPolyline
 90
        2
 70
     0
 39
0.003
 10
1.979894
 20
1.728988
 40
0.003
 41
0.003
 10
1.97876
 20
1.711465
 40
0.003
 41
0.003
  0
LWPOLYLINE
  5
16B
100
AcDbEntity
  8
0
 62
     0
100
AcDbPolyline
 90
        2
 70
     0
 39
0.003
 10
1.97876
 20
1.711465
 40
0.003
 41
0.003
 10
1.976886
 20
1.694146
 40
0.003
 41
0.003
  0
LWPOLYLINE
  5
16C
100
AcDbEntity
  8
0
 62
     0
100
AcDbPolyline
 90
        2
 70
     0
 39
0.003
 10
1.976886
 20
1.694146
 40
0.003
 41
0.003
 10
1.974291
 20
1.677051
 40
0.003
 41
0.003
  0
LWPOLYLINE
  5
16D
100
AcDbEntity
  8
0
 62
     0
100
AcDbPolyline
 90
        2
 70
     0
 39
0.003
 10
1.974291
 20
1.677051
 40
0.003
 41
0.003
 10
1.970988
 20
1.660185
 40
0.003
 41
0.003
  0
LWPOLYLINE
  5
16E
100
AcDbEntity
  8
0
 62
     0
100
AcDbPolyline
 90
        2
 70
     0
 39
0.003
 10
1.970988
 20
1.660185
 40
0.003
 41
0.003
 10
1.966996
 20
1.643579
 40
0.003
 41
0.003
  0
LWPOLYLINE
  5
16F
100
AcDbEntity
  8
0
 62
     0
100
AcDbPolyline
 90
        2
 70
     0
 39
0.003
 10
1.966996
 20
1.643579
 40
0.003
 41
0.003
 10
1.962331
 20
1.627236
 40
0.003
 41
0.003
  0
LWPOLYLINE
  5
170
100
AcDbEntity
  8
0
 62
     0
100
AcDbPolyline
 90
        2
 70
     0
 39
0.003
 10
1.962331
 20
1.627236
 40
0.003
 41
0.003
 10
1.957012
 20
1.611185
 40
0.003
 41
0.003
  0
LWPOLYLINE
  5
171
100
AcDbEntity
  8
0
 62
     0
100
AcDbPolyline
 90
        2
 70
     0
 39
0.003
 10
1.957012
 20
1.611185
 40
0.003
 41
0.003
 10
1.951039
 20
1.595425
 40
0.003
 41
0.003
  0
LWPOLYLINE
  5
172
100
AcDbEntity
  8
0
 62
     0
100
AcDbPolyline
 90
        2
 70
     0
 39
0.003
 10
1.951039
 20
1.595425
 40
0.003
 41
0.003
 10
1.944445
 20
1.579988
 40
0.003
 41
0.003
  0
LWPOLYLINE
  5
173
100
AcDbEntity
  8
0
 62
     0
100
AcDbPolyline
 90
        2
 70
     0
 39
0.003
 10
1.944445
 20
1.579988
 40
0.003
 41
0.003
 10
1.937236
 20
1.564874
 40
0.003
 41
0.003
  0
LWPOLYLINE
  5
174
100
AcDbEntity
  8
0
 62
     0
100
AcDbPolyline
 90
        2
 70
     0
 39
0.003
 10
1.937236
 20
1.564874
 40
0.003
 41
0.003
 10
1.929441
 20
1.550118
 40
0.003
 41
0.003
  0
LWPOLYLINE
  5
175
100
AcDbEntity
  8
0
 62
     0
100
AcDbPolyline
 90
        2
 70
     0
 39
0.003
 10
1.929441
 20
1.550118
 40
0.003
 41
0.003
 10
1.921055
 20
1.535717
 40
0.003
 41
0.003
  0
LWPOLYLINE
  5
176
100
AcDbEntity
  8
0
 62
     0
100
AcDbPolyline
 90
        2
 70
     0
 39
0.003
 10
1.921055
 20
1.535717
 40
0.003
 41
0.003
 10
1.912114
 20
1.521701
 40
0.003
 41
0.003
  0
LWPOLYLINE
  5
177
100
AcDbEntity
  8
0
 62
     0
100
AcDbPolyline
 90
        2
 70
     0
 39
0.003
 10
1.912114
 20
1.521701
 40
0.003
 41
0.003
 10
1.902622
 20
1.508079
 40
0.003
 41
0.003
  0
LWPOLYLINE
  5
178
100
AcDbEntity
  8
0
 62
     0
100
AcDbPolyline
 90
        2
 70
     0
 39
0.003
 10
1.902622
 20
1.508079
 40
0.003
 41
0.003
 10
1.892598
 20
1.49487
 40
0.003
 41
0.003
  0
LWPOLYLINE
  5
179
100
AcDbEntity
  8
0
 62
     0
100
AcDbPolyline
 90
        2
 70
     0
 39
0.003
 10
1.892598
 20
1.49487
 40
0.003
 41
0.003
 10
1.882051
 20
1.482079
 40
0.003
 41
0.003
  0
LWPOLYLINE
  5
17A
100
AcDbEntity
  8
0
 62
     0
100
AcDbPolyline
 90
        2
 70
     0
 39
0.003
 10
1.882051
 20
1.482079
 40
0.003
 41
0.003
 10
1.871008
 20
1.469732
 40
0.003
 41
0.003
  0
LWPOLYLINE
  5
17B
100
AcDbEntity
  8
0
 62
     0
100
AcDbPolyline
 90
        2
 70
     0
 39
0.003
 10
1.871008
 20
1.469732
 40
0.003
 41
0.003
 10
1.859476
 20
1.457843
 40
0.003
 41
0.003
  0
LWPOLYLINE
  5
17C
100
AcDbEntity
  8
0
 62
     0
100
AcDbPolyline
 90
        2
 70
     0
 39
0.003
 10
1.859476
 20
1.457843
 40
0.003
 41
0.003
 10
1.84748
 20
1.446429
 40
0.003
 41
0.003
  0
LWPOLYLINE
  5
17D
100
AcDbEntity
  8
0
 62
     0
100
AcDbPolyline
 90
        2
 70
     0
 39
0.003
 10
1.84748
 20
1.446429
 40
0.003
 41
0.003
 10
1.835024
 20
1.4355
 40
0.003
 41
0.003
  0
LWPOLYLINE
  5
17E
100
AcDbEntity
  8
0
 62
     0
100
AcDbPolyline
 90
        2
 70
     0
 39
0.003
 10
1.835024
 20
1.4355
 40
0.003
 41
0.003
 10
1.822138
 20
1.425083
 40
0.003
 41
0.003
  0
LWPOLYLINE
  5
17F
100
AcDbEntity
  8
0
 62
     0
100
AcDbPolyline
 90
        2
 70
     0
 39
0.003
 10
1.822138
 20
1.425083
 40
0.003
 41
0.003
 10
1.808823
 20
1.415185
 40
0.003
 41
0.003
  0
LWPOLYLINE
  5
180
100
AcDbEntity
  8
0
 62
   254
100
AcDbPolyline
 90
        2
 70
     0
 39
0.003
 10
1.698488
 20
2.133843
 40
0.003
 41
0.003
 10
2.343551
 20
2.503236
 40
0.003
 41
0.003
  0
LWPOLYLINE
  5
181
100
AcDbEntity
  8
0
 62
   254
100
AcDbPolyline
 90
        2
 70
     0
 39
0.003
 10
2.343551
 20
2.503236
 40
0.003
 41
0.003
 10
2.343846
 20
2.613772
 40
0.003
 41
0.003
  0
LWPOLYLINE
  5
182
100
AcDbEntity
  8
0
 62
   254
100
AcDbPolyline
 90
        2
 70
     0
 39
0.003
 10
2.343846
 20
2.613772
 40
0.003
 41
0.003
 10
1.698783
 20
2.244378
 40
0.003
 41
0.003
  0
LWPOLYLINE
  5
183
100
AcDbEntity
  8
0
 62
   254
100
AcDbPolyline
 90
        2
 70
     0
 39
0.003
 10
1.698783
 20
2.244378
 40
0.003
 41
0.003
 10
1.698488
 20
2.133843
 40
0.003
 41
0.003
  0
LWPOLYLINE
  5
184
100
AcDbEntity
  8
0
 62
     0
100
AcDbPolyline
 90
        2
 70
     0
 39
0.003
 10
1.698488
 20
2.133843
 40
0.003
 41
0.003
 10
2.343551
 20
2.503236
 40
0.003
 41
0.003
  0
LWPOLYLINE
  5
185
100
AcDbEntity
  8
0
 62
     0
100
AcDbPolyline
 90
        2
 70
     0
 39
0.003
 10
2.343551
 20
2.503236
 40
0.003
 41
0.003
 10
2.343846
 20
2.613772
 40
0.003
 41
0.003
  0
LWPOLYLINE
  5
186
100
AcDbEntity
  8
0
 62
     0
100
AcDbPolyline
 90
        2
 70
     0
 39
0.003
 10
2.343846
 20
2.613772
 40
0.003
 41
0.003
 10
1.698783
 20
2.244378
 40
0.003
 41
0.003
  0
LWPOLYLINE
  5
187
100
AcDbEntity
  8
0
 62
     0
100
AcDbPolyline
 90
        2
 70
     0
 39
0.003
 10
1.698783
 20
2.244378
 40
0.003
 41
0.003
 10
1.698488
 20
2.133843
 40
0.003
 41
0.003
  0
LWPOLYLINE
  5
188
100
AcDbEntity
  8
0
 62
     9
100
AcDbPolyline
 90
        2
 70
     0
 39
0.003
 10
1.698783
 20
2.244378
 40
0.003
 41
0.003
 10
2.343846
 20
2.613772
 40
0.003
 41
0.003
  0
LWPOLYLINE
  5
189
100
AcDbEntity
  8
0
 62
     9
100
AcDbPolyline
 90
        2
 70
     0
 39
0.003
 10
2.343846
 20
2.613772
 40
0.003
 41
0.003
 10
0.406701
 20
3.137587
 40
0.003
 41
0.003
  0
LWPOLYLINE
  5
18A
100
AcDbEntity
  8
0
 62
     9
100
AcDbPolyline
 90
        2
 70
     0
 39
0.003
 10
0.406701
 20
3.137587
 40
0.003
 41
0.003
 10
-0.238362
 20
2.768193
 40
0.003
 41
0.003
  0
LWPOLYLINE
  5
18B
100
AcDbEntity
  8
0
 62
     9
100
AcDbPolyline
 90
        2
 70
     0
 39
0.003
 10
-0.238362
 20
2.768193
 40
0.003
 41
0.003
 10
1.698783
 20
2.244378
 40
0.003
 41
0.003
  0
LWPOLYLINE
  5
18C
100
AcDbEntity
  8
0
 62
     0
100
AcDbPolyline
 90
        2
 70
     0
 39
0.003
 10
1.698783
 20
2.244378
 40
0.003
 41
0.003
 10
2.343846
 20
2.613772
 40
0.003
 41
0.003
  0
LWPOLYLINE
  5
18D
100
AcDbEntity
  8
0
 62
     0
100
AcDbPolyline
 90
        2
 70
     0
 39
0.003
 10
2.343846
 20
2.613772
 40
0.003
 41
0.003
 10
0.406701
 20
3.137587
 40
0.003
 41
0.003
  0
LWPOLYLINE
  5
18E
100
AcDbEntity
  8
0
 62
     0
100
AcDbPolyline
 90
        2
 70
     0
 39
0.003
 10
0.406701
 20
3.137587
 40
0.003
 41
0.003
 10
-0.238362
 20
2.768193
 40
0.003
 41
0.003
  0
LWPOLYLINE
  5
18F
100
AcDbEntity
  8
0
 62
     0
100
AcDbPolyline
 90
        2
 70
     0
 39
0.003
 10
-0.238362
 20
2.768193
 40
0.003
 41
0.003
 10
1.698783
 20
2.244378
 40
0.003
 41
0.003
  0
LWPOLYLINE
  5
190
100
AcDbEntity
  8
0
 62
     9
100
AcDbPolyline
 90
        2
 70
     0
 39
0.003
 10
-0.238362
 20
2.768193
 40
0.003
 41
0.003
 10
0.406701
 20
3.137587
 40
0.003
 41
0.003
  0
LWPOLYLINE
  5
191
100
AcDbEntity
  8
0
 62
     9
100
AcDbPolyline
 90
        2
 70
     0
 39
0.003
 10
0.406701
 20
3.137587
 40
0.003
 41
0.003
 10
0.403654
 20
3.138319
 40
0.003
 41
0.003
  0
LWPOLYLINE
  5
192
100
AcDbEntity
  8
0
 62
     9
100
AcDbPolyline
 90
        2
 70
     0
 39
0.003
 10
0.403654
 20
3.138319
 40
0.003
 41
0.003
 10
-0.241409
 20
2.768925
 40
0.003
 41
0.003
  0
LWPOLYLINE
  5
193
100
AcDbEntity
  8
0
 62
     9
100
AcDbPolyline
 90
        2
 70
     0
 39
0.003
 10
-0.241409
 20
2.768925
 40
0.003
 41
0.003
 10
-0.238362
 20
2.768193
 40
0.003
 41
0.003
  0
LWPOLYLINE
  5
194
100
AcDbEntity
  8
0
 62
     9
100
AcDbPolyline
 90
        2
 70
     0
 39
0.003
 10
-0.241409
 20
2.768925
 40
0.003
 41
0.003
 10
0.403654
 20
3.138319
 40
0.003
 41
0.003
  0
LWPOLYLINE
  5
195
100
AcDbEntity
  8
0
 62
     9
100
AcDbPolyline
 90
        2
 70
     0
 39
0.003
 10
0.403654
 20
3.138319
 40
0.003
 41
0.003
 10
0.400504
 20
3.139102
 40
0.003
 41
0.003
  0
LWPOLYLINE
  5
196
100
AcDbEntity
  8
0
 62
     9
100
AcDbPolyline
 90
        2
 70
     0
 39
0.003
 10
0.400504
 20
3.139102
 40
0.003
 41
0.003
 10
-0.244559
 20
2.769709
 40
0.003
 41
0.003
  0
LWPOLYLINE
  5
197
100
AcDbEntity
  8
0
 62
     9
100
AcDbPolyline
 90
        2
 70
     0
 39
0.003
 10
-0.244559
 20
2.769709
 40
0.003
 41
0.003
 10
-0.241409
 20
2.768925
 40
0.003
 41
0.003
  0
LWPOLYLINE
  5
198
100
AcDbEntity
  8
0
 62
     9
100
AcDbPolyline
 90
        2
 70
     0
 39
0.003
 10
-0.244559
 20
2.769709
 40
0.003
 41
0.003
 10
0.400504
 20
3.139102
 40
0.003
 41
0.003
  0
LWPOLYLINE
  5
199
100
AcDbEntity
  8
0
 62
     9
100
AcDbPolyline
 90
        2
 70
     0
 39
0.003
 10
0.400504
 20
3.139102
 40
0.003
 41
0.003
 10
0.397256
 20
3.139913
 40
0.003
 41
0.003
  0
LWPOLYLINE
  5
19A
100
AcDbEntity
  8
0
 62
     9
100
AcDbPolyline
 90
        2
 70
     0
 39
0.003
 10
0.397256
 20
3.139913
 40
0.003
 41
0.003
 10
-0.247807
 20
2.77052
 40
0.003
 41
0.003
  0
LWPOLYLINE
  5
19B
100
AcDbEntity
  8
0
 62
     9
100
AcDbPolyline
 90
        2
 70
     0
 39
0.003
 10
-0.247807
 20
2.77052
 40
0.003
 41
0.003
 10
-0.244559
 20
2.769709
 40
0.003
 41
0.003
  0
LWPOLYLINE
  5
19C
100
AcDbEntity
  8
0
 62
     9
100
AcDbPolyline
 90
        2
 70
     0
 39
0.003
 10
-0.247807
 20
2.77052
 40
0.003
 41
0.003
 10
0.397256
 20
3.139913
 40
0.003
 41
0.003
  0
LWPOLYLINE
  5
19D
100
AcDbEntity
  8
0
 62
     9
100
AcDbPolyline
 90
        2
 70
     0
 39
0.003
 10
0.397256
 20
3.139913
 40
0.003
 41
0.003
 10
0.393906
 20
3.140764
 40
0.003
 41
0.003
  0
LWPOLYLINE
  5
19E
100
AcDbEntity
  8
0
 62
     9
100
AcDbPolyline
 90
        2
 70
     0
 39
0.003
 10
0.393906
 20
3.140764
 40
0.003
 41
0.003
 10
-0.251157
 20
2.77137
 40
0.003
 41
0.003
  0
LWPOLYLINE
  5
19F
100
AcDbEntity
  8
0
 62
     9
100
AcDbPolyline
 90
        2
 70
     0
 39
0.003
 10
-0.251157
 20
2.77137
 40
0.003
 41
0.003
 10
-0.247807
 20
2.77052
 40
0.003
 41
0.003
  0
LWPOLYLINE
  5
1A0
100
AcDbEntity
  8
0
 62
     9
100
AcDbPolyline
 90
        2
 70
     0
 39
0.003
 10
-0.251157
 20
2.77137
 40
0.003
 41
0.003
 10
0.393906
 20
3.140764
 40
0.003
 41
0.003
  0
LWPOLYLINE
  5
1A1
100
AcDbEntity
  8
0
 62
     9
100
AcDbPolyline
 90
        2
 70
     0
 39
0.003
 10
0.393906
 20
3.140764
 40
0.003
 41
0.003
 10
0.390461
 20
3.14163
 40
0.003
 41
0.003
  0
LWPOLYLINE
  5
1A2
100
AcDbEntity
  8
0
 62
     9
100
AcDbPolyline
 90
        2
 70
     0
 39
0.003
 10
0.390461
 20
3.14163
 40
0.003
 41
0.003
 10
-0.254602
 20
2.772236
 40
0.003
 41
0.003
  0
LWPOLYLINE
  5
1A3
100
AcDbEntity
  8
0
 62
     9
100
AcDbPolyline
 90
        2
 70
     0
 39
0.003
 10
-0.254602
 20
2.772236
 40
0.003
 41
0.003
 10
-0.251157
 20
2.77137
 40
0.003
 41
0.003
  0
LWPOLYLINE
  5
1A4
100
AcDbEntity
  8
0
 62
     9
100
AcDbPolyline
 90
        2
 70
     0
 39
0.003
 10
-0.254602
 20
2.772236
 40
0.003
 41
0.003
 10
0.390461
 20
3.14163
 40
0.003
 41
0.003
  0
LWPOLYLINE
  5
1A5
100
AcDbEntity
  8
0
 62
     9
100
AcDbPolyline
 90
        2
 70
     0
 39
0.003
 10
0.390461
 20
3.14163
 40
0.003
 41
0.003
 10
0.386902
 20
3.142528
 40
0.003
 41
0.003
  0
LWPOLYLINE
  5
1A6
100
AcDbEntity
  8
0
 62
     9
100
AcDbPolyline
 90
        2
 70
     0
 39
0.003
 10
0.386902
 20
3.142528
 40
0.003
 41
0.003
 10
-0.258161
 20
2.773134
 40
0.003
 41
0.003
  0
LWPOLYLINE
  5
1A7
100
AcDbEntity
  8
0
 62
     9
100
AcDbPolyline
 90
        2
 70
     0
 39
0.003
 10
-0.258161
 20
2.773134
 40
0.003
 41
0.003
 10
-0.254602
 20
2.772236
 40
0.003
 41
0.003
  0
LWPOLYLINE
  5
1A8
100
AcDbEntity
  8
0
 62
     9
100
AcDbPolyline
 90
        2
 70
     0
 39
0.003
 10
-0.258161
 20
2.773134
 40
0.003
 41
0.003
 10
0.386902
 20
3.142528
 40
0.003
 41
0.003
  0
LWPOLYLINE
  5
1A9
100
AcDbEntity
  8
0
 62
     9
100
AcDbPolyline
 90
        2
 70
     0
 39
0.003
 10
0.386902
 20
3.142528
 40
0.003
 41
0.003
 10
0.383244
 20
3.143437
 40
0.003
 41
0.003
  0
LWPOLYLINE
  5
1AA
100
AcDbEntity
  8
0
 62
     9
100
AcDbPolyline
 90
        2
 70
     0
 39
0.003
 10
0.383244
 20
3.143437
 40
0.003
 41
0.003
 10
-0.261819
 20
2.774043
 40
0.003
 41
0.003
  0
LWPOLYLINE
  5
1AB
100
AcDbEntity
  8
0
 62
     9
100
AcDbPolyline
 90
        2
 70
     0
 39
0.003
 10
-0.261819
 20
2.774043
 40
0.003
 41
0.003
 10
-0.258161
 20
2.773134
 40
0.003
 41
0.003
  0
LWPOLYLINE
  5
1AC
100
AcDbEntity
  8
0
 62
     9
100
AcDbPolyline
 90
        2
 70
     0
 39
0.003
 10
-0.261819
 20
2.774043
 40
0.003
 41
0.003
 10
0.383244
 20
3.143437
 40
0.003
 41
0.003
  0
LWPOLYLINE
  5
1AD
100
AcDbEntity
  8
0
 62
     9
100
AcDbPolyline
 90
        2
 70
     0
 39
0.003
 10
0.383244
 20
3.143437
 40
0.003
 41
0.003
 10
0.379469
 20
3.14437
 40
0.003
 41
0.003
  0
LWPOLYLINE
  5
1AE
100
AcDbEntity
  8
0
 62
     9
100
AcDbPolyline
 90
        2
 70
     0
 39
0.003
 10
0.379469
 20
3.14437
 40
0.003
 41
0.003
 10
-0.265594
 20
2.774976
 40
0.003
 41
0.003
  0
LWPOLYLINE
  5
1AF
100
AcDbEntity
  8
0
 62
     9
100
AcDbPolyline
 90
        2
 70
     0
 39
0.003
 10
-0.265594
 20
2.774976
 40
0.003
 41
0.003
 10
-0.261819
 20
2.774043
 40
0.003
 41
0.003
  0
LWPOLYLINE
  5
1B0
100
AcDbEntity
  8
0
 62
     9
100
AcDbPolyline
 90
        2
 70
     0
 39
0.003
 10
-0.265594
 20
2.774976
 40
0.003
 41
0.003
 10
0.379469
 20
3.14437
 40
0.003
 41
0.003
  0
LWPOLYLINE
  5
1B1
100
AcDbEntity
  8
0
 62
     9
100
AcDbPolyline
 90
        2
 70
     0
 39
0.003
 10
0.379469
 20
3.14437
 40
0.003
 41
0.003
 10
0.375594
 20
3.145303
 40
0.003
 41
0.003
  0
LWPOLYLINE
  5
1B2
100
AcDbEntity
  8
0
 62
     9
100
AcDbPolyline
 90
        2
 70
     0
 39
0.003
 10
0.375594
 20
3.145303
 40
0.003
 41
0.003
 10
-0.269469
 20
2.775909
 40
0.003
 41
0.003
  0
LWPOLYLINE
  5
1B3
100
AcDbEntity
  8
0
 62
     9
100
AcDbPolyline
 90
        2
 70
     0
 39
0.003
 10
-0.269469
 20
2.775909
 40
0.003
 41
0.003
 10
-0.265594
 20
2.774976
 40
0.003
 41
0.003
  0
LWPOLYLINE
  5
1B4
100
AcDbEntity
  8
0
 62
     9
100
AcDbPolyline
 90
        2
 70
     0
 39
0.003
 10
-0.269469
 20
2.775909
 40
0.003
 41
0.003
 10
0.375594
 20
3.145303
 40
0.003
 41
0.003
  0
LWPOLYLINE
  5
1B5
100
AcDbEntity
  8
0
 62
     9
100
AcDbPolyline
 90
        2
 70
     0
 39
0.003
 10
0.375594
 20
3.145303
 40
0.003
 41
0.003
 10
0.371598
 20
3.146248
 40
0.003
 41
0.003
  0
LWPOLYLINE
  5
1B6
100
AcDbEntity
  8
0
 62
     9
100
AcDbPolyline
 90
        2
 70
     0
 39
0.003
 10
0.371598
 20
3.146248
 40
0.003
 41
0.003
 10
-0.273465
 20
2.776854
 40
0.003
 41
0.003
  0
LWPOLYLINE
  5
1B7
100
AcDbEntity
  8
0
 62
     9
100
AcDbPolyline
 90
        2
 70
     0
 39
0.003
 10
-0.273465
 20
2.776854
 40
0.003
 41
0.003
 10
-0.269469
 20
2.775909
 40
0.003
 41
0.003
  0
LWPOLYLINE
  5
1B8
100
AcDbEntity
  8
0
 62
     9
100
AcDbPolyline
 90
        2
 70
     0
 39
0.003
 10
-0.273465
 20
2.776854
 40
0.003
 41
0.003
 10
0.371598
 20
3.146248
 40
0.003
 41
0.003
  0
LWPOLYLINE
  5
1B9
100
AcDbEntity
  8
0
 62
     9
100
AcDbPolyline
 90
        2
 70
     0
 39
0.003
 10
0.371598
 20
3.146248
 40
0.003
 41
0.003
 10
0.367488
 20
3.147193
 40
0.003
 41
0.003
  0
LWPOLYLINE
  5
1BA
100
AcDbEntity
  8
0
 62
     9
100
AcDbPolyline
 90
        2
 70
     0
 39
0.003
 10
0.367488
 20
3.147193
 40
0.003
 41
0.003
 10
-0.277575
 20
2.777799
 40
0.003
 41
0.003
  0
LWPOLYLINE
  5
1BB
100
AcDbEntity
  8
0
 62
     9
100
AcDbPolyline
 90
        2
 70
     0
 39
0.003
 10
-0.277575
 20
2.777799
 40
0.003
 41
0.003
 10
-0.273465
 20
2.776854
 40
0.003
 41
0.003
  0
LWPOLYLINE
  5
1BC
100
AcDbEntity
  8
0
 62
     9
100
AcDbPolyline
 90
        2
 70
     0
 39
0.003
 10
-0.277575
 20
2.777799
 40
0.003
 41
0.003
 10
0.367488
 20
3.147193
 40
0.003
 41
0.003
  0
LWPOLYLINE
  5
1BD
100
AcDbEntity
  8
0
 62
     9
100
AcDbPolyline
 90
        2
 70
     0
 39
0.003
 10
0.367488
 20
3.147193
 40
0.003
 41
0.003
 10
0.363256
 20
3.148138
 40
0.003
 41
0.003
  0
LWPOLYLINE
  5
1BE
100
AcDbEntity
  8
0
 62
     9
100
AcDbPolyline
 90
        2
 70
     0
 39
0.003
 10
0.363256
 20
3.148138
 40
0.003
 41
0.003
 10
-0.281807
 20
2.778744
 40
0.003
 41
0.003
  0
LWPOLYLINE
  5
1BF
100
AcDbEntity
  8
0
 62
     9
100
AcDbPolyline
 90
        2
 70
     0
 39
0.003
 10
-0.281807
 20
2.778744
 40
0.003
 41
0.003
 10
-0.277575
 20
2.777799
 40
0.003
 41
0.003
  0
LWPOLYLINE
  5
1C0
100
AcDbEntity
  8
0
 62
     9
100
AcDbPolyline
 90
        2
 70
     0
 39
0.003
 10
-0.281807
 20
2.778744
 40
0.003
 41
0.003
 10
0.363256
 20
3.148138
 40
0.003
 41
0.003
  0
LWPOLYLINE
  5
1C1
100
AcDbEntity
  8
0
 62
     9
100
AcDbPolyline
 90
        2
 70
     0
 39
0.003
 10
0.363256
 20
3.148138
 40
0.003
 41
0.003
 10
0.358909
 20
3.149071
 40
0.003
 41
0.003
  0
LWPOLYLINE
  5
1C2
100
AcDbEntity
  8
0
 62
     9
100
AcDbPolyline
 90
        2
 70
     0
 39
0.003
 10
0.358909
 20
3.149071
 40
0.003
 41
0.003
 10
-0.286154
 20
2.779677
 40
0.003
 41
0.003
  0
LWPOLYLINE
  5
1C3
100
AcDbEntity
  8
0
 62
     9
100
AcDbPolyline
 90
        2
 70
     0
 39
0.003
 10
-0.286154
 20
2.779677
 40
0.003
 41
0.003
 10
-0.281807
 20
2.778744
 40
0.003
 41
0.003
  0
LWPOLYLINE
  5
1C4
100
AcDbEntity
  8
0
 62
     9
100
AcDbPolyline
 90
        2
 70
     0
 39
0.003
 10
-0.286154
 20
2.779677
 40
0.003
 41
0.003
 10
0.358909
 20
3.149071
 40
0.003
 41
0.003
  0
LWPOLYLINE
  5
1C5
100
AcDbEntity
  8
0
 62
     9
100
AcDbPolyline
 90
        2
 70
     0
 39
0.003
 10
0.358909
 20
3.149071
 40
0.003
 41
0.003
 10
0.354433
 20
3.15
 40
0.003
 41
0.003
  0
LWPOLYLINE
  5
1C6
100
AcDbEntity
  8
0
 62
     9
100
AcDbPolyline
 90
        2
 70
     0
 39
0.003
 10
0.354433
 20
3.15
 40
0.003
 41
0.003
 10
-0.29063
 20
2.780606
 40
0.003
 41
0.003
  0
LWPOLYLINE
  5
1C7
100
AcDbEntity
  8
0
 62
     9
100
AcDbPolyline
 90
        2
 70
     0
 39
0.003
 10
-0.29063
 20
2.780606
 40
0.003
 41
0.003
 10
-0.286154
 20
2.779677
 40
0.003
 41
0.003
  0
LWPOLYLINE
  5
1C8
100
AcDbEntity
  8
0
 62
     9
100
AcDbPolyline
 90
        2
 70
     0
 39
0.003
 10
-0.29063
 20
2.780606
 40
0.003
 41
0.003
 10
0.354433
 20
3.15
 40
0.003
 41
0.003
  0
LWPOLYLINE
  5
1C9
100
AcDbEntity
  8
0
 62
     9
100
AcDbPolyline
 90
        2
 70
     0
 39
0.003
 10
0.354433
 20
3.15
 40
0.003
 41
0.003
 10
0.349839
 20
3.150913
 40
0.003
 41
0.003
  0
LWPOLYLINE
  5
1CA
100
AcDbEntity
  8
0
 62
     9
100
AcDbPolyline
 90
        2
 70
     0
 39
0.003
 10
0.349839
 20
3.150913
 40
0.003
 41
0.003
 10
-0.295224
 20
2.78152
 40
0.003
 41
0.003
  0
LWPOLYLINE
  5
1CB
100
AcDbEntity
  8
0
 62
     9
100
AcDbPolyline
 90
        2
 70
     0
 39
0.003
 10
-0.295224
 20
2.78152
 40
0.003
 41
0.003
 10
-0.29063
 20
2.780606
 40
0.003
 41
0.003
  0
LWPOLYLINE
  5
1CC
100
AcDbEntity
  8
0
 62
     9
100
AcDbPolyline
 90
        2
 70
     0
 39
0.003
 10
-0.295224
 20
2.78152
 40
0.003
 41
0.003
 10
0.349839
 20
3.150913
 40
0.003
 41
0.003
  0
LWPOLYLINE
  5
1CD
100
AcDbEntity
  8
0
 62
     9
100
AcDbPolyline
 90
        2
 70
     0
 39
0.003
 10
0.349839
 20
3.150913
 40
0.003
 41
0.003
 10
0.34511
 20
3.151811
 40
0.003
 41
0.003
  0
LWPOLYLINE
  5
1CE
100
AcDbEntity
  8
0
 62
     9
100
AcDbPolyline
 90
        2
 70
     0
 39
0.003
 10
0.34511
 20
3.151811
 40
0.003
 41
0.003
 10
-0.299953
 20
2.782417
 40
0.003
 41
0.003
  0
LWPOLYLINE
  5
1CF
100
AcDbEntity
  8
0
 62
     9
100
AcDbPolyline
 90
        2
 70
     0
 39
0.003
 10
-0.299953
 20
2.782417
 40
0.003
 41
0.003
 10
-0.295224
 20
2.78152
 40
0.003
 41
0.003
  0
LWPOLYLINE
  5
1D0
100
AcDbEntity
  8
0
 62
     9
100
AcDbPolyline
 90
        2
 70
     0
 39
0.003
 10
-0.299953
 20
2.782417
 40
0.003
 41
0.003
 10
0.34511
 20
3.151811
 40
0.003
 41
0.003
  0
LWPOLYLINE
  5
1D1
100
AcDbEntity
  8
0
 62
     9
100
AcDbPolyline
 90
        2
 70
     0
 39
0.003
 10
0.34511
 20
3.151811
 40
0.003
 41
0.003
 10
0.340264
 20
3.152673
 40
0.003
 41
0.003
  0
LWPOLYLINE
  5
1D2
100
AcDbEntity
  8
0
 62
     9
100
AcDbPolyline
 90
        2
 70
     0
 39
0.003
 10
0.340264
 20
3.152673
 40
0.003
 41
0.003
 10
-0.304799
 20
2.78328
 40
0.003
 41
0.003
  0
LWPOLYLINE
  5
1D3
100
AcDbEntity
  8
0
 62
     9
100
AcDbPolyline
 90
        2
 70
     0
 39
0.003
 10
-0.304799
 20
2.78328
 40
0.003
 41
0.003
 10
-0.299953
 20
2.782417
 40
0.003
 41
0.003
  0
LWPOLYLINE
  5
1D4
100
AcDbEntity
  8
0
 62
     9
100
AcDbPolyline
 90
        2
 70
     0
 39
0.003
 10
-0.304799
 20
2.78328
 40
0.003
 41
0.003
 10
0.340264
 20
3.152673
 40
0.003
 41
0.003
  0
LWPOLYLINE
  5
1D5
100
AcDbEntity
  8
0
 62
     9
100
AcDbPolyline
 90
        2
 70
     0
 39
0.003
 10
0.340264
 20
3.152673
 40
0.003
 41
0.003
 10
0.33528
 20
3.15352
 40
0.003
 41
0.003
  0
LWPOLYLINE
  5
1D6
100
AcDbEntity
  8
0
 62
     9
100
AcDbPolyline
 90
        2
 70
     0
 39
0.003
 10
0.33528
 20
3.15352
 40
0.003
 41
0.003
 10
-0.309783
 20
2.784126
 40
0.003
 41
0.003
  0
LWPOLYLINE
  5
1D7
100
AcDbEntity
  8
0
 62
     9
100
AcDbPolyline
 90
        2
 70
     0
 39
0.003
 10
-0.309783
 20
2.784126
 40
0.003
 41
0.003
 10
-0.304799
 20
2.78328
 40
0.003
 41
0.003
  0
LWPOLYLINE
  5
1D8
100
AcDbEntity
  8
0
 62
     9
100
AcDbPolyline
 90
        2
 70
     0
 39
0.003
 10
-0.309783
 20
2.784126
 40
0.003
 41
0.003
 10
0.33528
 20
3.15352
 40
0.003
 41
0.003
  0
LWPOLYLINE
  5
1D9
100
AcDbEntity
  8
0
 62
     9
100
AcDbPolyline
 90
        2
 70
     0
 39
0.003
 10
0.33528
 20
3.15352
 40
0.003
 41
0.003
 10
0.330161
 20
3.154331
 40
0.003
 41
0.003
  0
LWPOLYLINE
  5
1DA
100
AcDbEntity
  8
0
 62
     9
100
AcDbPolyline
 90
        2
 70
     0
 39
0.003
 10
0.330161
 20
3.154331
 40
0.003
 41
0.003
 10
-0.314902
 20
2.784937
 40
0.003
 41
0.003
  0
LWPOLYLINE
  5
1DB
100
AcDbEntity
  8
0
 62
     9
100
AcDbPolyline
 90
        2
 70
     0
 39
0.003
 10
-0.314902
 20
2.784937
 40
0.003
 41
0.003
 10
-0.309783
 20
2.784126
 40
0.003
 41
0.003
  0
LWPOLYLINE
  5
1DC
100
AcDbEntity
  8
0
 62
     9
100
AcDbPolyline
 90
        2
 70
     0
 39
0.003
 10
-0.314902
 20
2.784937
 40
0.003
 41
0.003
 10
0.330161
 20
3.154331
 40
0.003
 41
0.003
  0
LWPOLYLINE
  5
1DD
100
AcDbEntity
  8
0
 62
     9
100
AcDbPolyline
 90
        2
 70
     0
 39
0.003
 10
0.330161
 20
3.154331
 40
0.003
 41
0.003
 10
0.324902
 20
3.155114
 40
0.003
 41
0.003
  0
LWPOLYLINE
  5
1DE
100
AcDbEntity
  8
0
 62
     9
100
AcDbPolyline
 90
        2
 70
     0
 39
0.003
 10
0.324902
 20
3.155114
 40
0.003
 41
0.003
 10
-0.320161
 20
2.78572
 40
0.003
 41
0.003
  0
LWPOLYLINE
  5
1DF
100
AcDbEntity
  8
0
 62
     9
100
AcDbPolyline
 90
        2
 70
     0
 39
0.003
 10
-0.320161
 20
2.78572
 40
0.003
 41
0.003
 10
-0.314902
 20
2.784937
 40
0.003
 41
0.003
  0
LWPOLYLINE
  5
1E0
100
AcDbEntity
  8
0
 62
     9
100
AcDbPolyline
 90
        2
 70
     0
 39
0.003
 10
-0.320161
 20
2.78572
 40
0.003
 41
0.003
 10
0.324902
 20
3.155114
 40
0.003
 41
0.003
  0
LWPOLYLINE
  5
1E1
100
AcDbEntity
  8
0
 62
     9
100
AcDbPolyline
 90
        2
 70
     0
 39
0.003
 10
0.324902
 20
3.155114
 40
0.003
 41
0.003
 10
0.319512
 20
3.15585
 40
0.003
 41
0.003
  0
LWPOLYLINE
  5
1E2
100
AcDbEntity
  8
0
 62
     9
100
AcDbPolyline
 90
        2
 70
     0
 39
0.003
 10
0.319512
 20
3.15585
 40
0.003
 41
0.003
 10
-0.325551
 20
2.786457
 40
0.003
 41
0.003
  0
LWPOLYLINE
  5
1E3
100
AcDbEntity
  8
0
 62
     9
100
AcDbPolyline
 90
        2
 70
     0
 39
0.003
 10
-0.325551
 20
2.786457
 40
0.003
 41
0.003
 10
-0.320161
 20
2.78572
 40
0.003
 41
0.003
  0
LWPOLYLINE
  5
1E4
100
AcDbEntity
  8
0
 62
     9
100
AcDbPolyline
 90
        2
 70
     0
 39
0.003
 10
-0.325551
 20
2.786457
 40
0.003
 41
0.003
 10
0.319512
 20
3.15585
 40
0.003
 41
0.003
  0
LWPOLYLINE
  5
1E5
100
AcDbEntity
  8
0
 62
     9
100
AcDbPolyline
 90
        2
 70
     0
 39
0.003
 10
0.319512
 20
3.15585
 40
0.003
 41
0.003
 10
0.313972
 20
3.156547
 40
0.003
 41
0.003
  0
LWPOLYLINE
  5
1E6
100
AcDbEntity
  8
0
 62
     9
100
AcDbPolyline
 90
        2
 70
     0
 39
0.003
 10
0.313972
 20
3.156547
 40
0.003
 41
0.003
 10
-0.331091
 20
2.787154
 40
0.003
 41
0.003
  0
LWPOLYLINE
  5
1E7
100
AcDbEntity
  8
0
 62
     9
100
AcDbPolyline
 90
        2
 70
     0
 39
0.003
 10
-0.331091
 20
2.787154
 40
0.003
 41
0.003
 10
-0.325551
 20
2.786457
 40
0.003
 41
0.003
  0
LWPOLYLINE
  5
1E8
100
AcDbEntity
  8
0
 62
     9
100
AcDbPolyline
 90
        2
 70
     0
 39
0.003
 10
-0.331091
 20
2.787154
 40
0.003
 41
0.003
 10
0.313972
 20
3.156547
 40
0.003
 41
0.003
  0
LWPOLYLINE
  5
1E9
100
AcDbEntity
  8
0
 62
     9
100
AcDbPolyline
 90
        2
 70
     0
 39
0.003
 10
0.313972
 20
3.156547
 40
0.003
 41
0.003
 10
0.308291
 20
3.157193
 40
0.003
 41
0.003
  0
LWPOLYLINE
  5
1EA
100
AcDbEntity
  8
0
 62
     9
100
AcDbPolyline
 90
        2
 70
     0
 39
0.003
 10
0.308291
 20
3.157193
 40
0.003
 41
0.003
 10
-0.336772
 20
2.787799
 40
0.003
 41
0.003
  0
LWPOLYLINE
  5
1EB
100
AcDbEntity
  8
0
 62
     9
100
AcDbPolyline
 90
        2
 70
     0
 39
0.003
 10
-0.336772
 20
2.787799
 40
0.003
 41
0.003
 10
-0.331091
 20
2.787154
 40
0.003
 41
0.003
  0
LWPOLYLINE
  5
1EC
100
AcDbEntity
  8
0
 62
     9
100
AcDbPolyline
 90
        2
 70
     0
 39
0.003
 10
-0.336772
 20
2.787799
 40
0.003
 41
0.003
 10
0.308291
 20
3.157193
 40
0.003
 41
0.003
  0
LWPOLYLINE
  5
1ED
100
AcDbEntity
  8
0
 62
     9
100
AcDbPolyline
 90
        2
 70
     0
 39
0.003
 10
0.308291
 20
3.157193
 40
0.003
 41
0.003
 10
0.302465
 20
3.157795
 40
0.003
 41
0.003
  0
LWPOLYLINE
  5
1EE
100
AcDbEntity
  8
0
 62
     9
100
AcDbPolyline
 90
        2
 70
     0
 39
0.003
 10
0.302465
 20
3.157795
 40
0.003
 41
0.003
 10
-0.342598
 20
2.788402
 40
0.003
 41
0.003
  0
LWPOLYLINE
  5
1EF
100
AcDbEntity
  8
0
 62
     9
100
AcDbPolyline
 90
        2
 70
     0
 39
0.003
 10
-0.342598
 20
2.788402
 40
0.003
 41
0.003
 10
-0.336772
 20
2.787799
 40
0.003
 41
0.003
  0
LWPOLYLINE
  5
1F0
100
AcDbEntity
  8
0
 62
   253
100
AcDbPolyline
 90
        2
 70
     0
 39
0.003
 10
-0.342598
 20
2.788402
 40
0.003
 41
0.003
 10
0.302465
 20
3.157795
 40
0.003
 41
0.003
  0
LWPOLYLINE
  5
1F1
100
AcDbEntity
  8
0
 62
   253
100
AcDbPolyline
 90
        2
 70
     0
 39
0.003
 10
0.302465
 20
3.157795
 40
0.003
 41
0.003
 10
0.296492
 20
3.158331
 40
0.003
 41
0.003
  0
LWPOLYLINE
  5
1F2
100
AcDbEntity
  8
0
 62
   253
100
AcDbPolyline
 90
        2
 70
     0
 39
0.003
 10
0.296492
 20
3.158331
 40
0.003
 41
0.003
 10
-0.348571
 20
2.788937
 40
0.003
 41
0.003
  0
LWPOLYLINE
  5
1F3
100
AcDbEntity
  8
0
 62
   253
100
AcDbPolyline
 90
        2
 70
     0
 39
0.003
 10
-0.348571
 20
2.788937
 40
0.003
 41
0.003
 10
-0.342598
 20
2.788402
 40
0.003
 41
0.003
  0
LWPOLYLINE
  5
1F4
100
AcDbEntity
  8
0
 62
   253
100
AcDbPolyline
 90
        2
 70
     0
 39
0.003
 10
-0.348571
 20
2.788937
 40
0.003
 41
0.003
 10
0.296492
 20
3.158331
 40
0.003
 41
0.003
  0
LWPOLYLINE
  5
1F5
100
AcDbEntity
  8
0
 62
   253
100
AcDbPolyline
 90
        2
 70
     0
 39
0.003
 10
0.296492
 20
3.158331
 40
0.003
 41
0.003
 10
0.29037
 20
3.158815
 40
0.003
 41
0.003
  0
LWPOLYLINE
  5
1F6
100
AcDbEntity
  8
0
 62
   253
100
AcDbPolyline
 90
        2
 70
     0
 39
0.003
 10
0.29037
 20
3.158815
 40
0.003
 41
0.003
 10
-0.354693
 20
2.789421
 40
0.003
 41
0.003
  0
LWPOLYLINE
  5
1F7
100
AcDbEntity
  8
0
 62
   253
100
AcDbPolyline
 90
        2
 70
     0
 39
0.003
 10
-0.354693
 20
2.789421
 40
0.003
 41
0.003
 10
-0.348571
 20
2.788937
 40
0.003
 41
0.003
  0
LWPOLYLINE
  5
1F8
100
AcDbEntity
  8
0
 62
   253
100
AcDbPolyline
 90
        2
 70
     0
 39
0.003
 10
-0.354693
 20
2.789421
 40
0.003
 41
0.003
 10
0.29037
 20
3.158815
 40
0.003
 41
0.003
  0
LWPOLYLINE
  5
1F9
100
AcDbEntity
  8
0
 62
   253
100
AcDbPolyline
 90
        2
 70
     0
 39
0.003
 10
0.29037
 20
3.158815
 40
0.003
 41
0.003
 10
0.284094
 20
3.159232
 40
0.003
 41
0.003
  0
LWPOLYLINE
  5
1FA
100
AcDbEntity
  8
0
 62
   253
100
AcDbPolyline
 90
        2
 70
     0
 39
0.003
 10
0.284094
 20
3.159232
 40
0.003
 41
0.003
 10
-0.360969
 20
2.789839
 40
0.003
 41
0.003
  0
LWPOLYLINE
  5
1FB
100
AcDbEntity
  8
0
 62
   253
100
AcDbPolyline
 90
        2
 70
     0
 39
0.003
 10
-0.360969
 20
2.789839
 40
0.003
 41
0.003
 10
-0.354693
 20
2.789421
 40
0.003
 41
0.003
  0
LWPOLYLINE
  5
1FC
100
AcDbEntity
  8
0
 62
   253
100
AcDbPolyline
 90
        2
 70
     0
 39
0.003
 10
-0.360969
 20
2.789839
 40
0.003
 41
0.003
 10
0.284094
 20
3.159232
 40
0.003
 41
0.003
  0
LWPOLYLINE
  5
1FD
100
AcDbEntity
  8
0
 62
   253
100
AcDbPolyline
 90
        2
 70
     0
 39
0.003
 10
0.284094
 20
3.159232
 40
0.003
 41
0.003
 10
0.277661
 20
3.159587
 40
0.003
 41
0.003
  0
LWPOLYLINE
  5
1FE
100
AcDbEntity
  8
0
 62
   253
100
AcDbPolyline
 90
        2
 70
     0
 39
0.003
 10
0.277661
 20
3.159587
 40
0.003
 41
0.003
 10
-0.367402
 20
2.790193
 40
0.003
 41
0.003
  0
LWPOLYLINE
  5
1FF
100
AcDbEntity
  8
0
 62
   253
100
AcDbPolyline
 90
        2
 70
     0
 39
0.003
 10
-0.367402
 20
2.790193
 40
0.003
 41
0.003
 10
-0.360969
 20
2.789839
 40
0.003
 41
0.003
  0
LWPOLYLINE
  5
200
100
AcDbEntity
  8
0
 62
   253
100
AcDbPolyline
 90
        2
 70
     0
 39
0.003
 10
-0.367402
 20
2.790193
 40
0.003
 41
0.003
 10
0.277661
 20
3.159587
 40
0.003
 41
0.003
  0
LWPOLYLINE
  5
201
100
AcDbEntity
  8
0
 62
   253
100
AcDbPolyline
 90
        2
 70
     0
 39
0.003
 10
0.277661
 20
3.159587
 40
0.003
 41
0.003
 10
0.271079
 20
3.159858
 40
0.003
 41
0.003
  0
LWPOLYLINE
  5
202
100
AcDbEntity
  8
0
 62
   253
100
AcDbPolyline
 90
        2
 70
     0
 39
0.003
 10
0.271079
 20
3.159858
 40
0.003
 41
0.003
 10
-0.373984
 20
2.790465
 40
0.003
 41
0.003
  0
LWPOLYLINE
  5
203
100
AcDbEntity
  8
0
 62
   253
100
AcDbPolyline
 90
        2
 70
     0
 39
0.003
 10
-0.373984
 20
2.790465
 40
0.003
 41
0.003
 10
-0.367402
 20
2.790193
 40
0.003
 41
0.003
  0
LWPOLYLINE
  5
204
100
AcDbEntity
  8
0
 62
   253
100
AcDbPolyline
 90
        2
 70
     0
 39
0.003
 10
-0.373984
 20
2.790465
 40
0.003
 41
0.003
 10
0.271079
 20
3.159858
 40
0.003
 41
0.003
  0
LWPOLYLINE
  5
205
100
AcDbEntity
  8
0
 62
   253
100
AcDbPolyline
 90
        2
 70
     0
 39
0.003
 10
0.271079
 20
3.159858
 40
0.003
 41
0.003
 10
0.264331
 20
3.160067
 40
0.003
 41
0.003
  0
LWPOLYLINE
  5
206
100
AcDbEntity
  8
0
 62
   253
100
AcDbPolyline
 90
        2
 70
     0
 39
0.003
 10
0.264331
 20
3.160067
 40
0.003
 41
0.003
 10
-0.380732
 20
2.790673
 40
0.003
 41
0.003
  0
LWPOLYLINE
  5
207
100
AcDbEntity
  8
0
 62
   253
100
AcDbPolyline
 90
        2
 70
     0
 39
0.003
 10
-0.380732
 20
2.790673
 40
0.003
 41
0.003
 10
-0.373984
 20
2.790465
 40
0.003
 41
0.003
  0
LWPOLYLINE
  5
208
100
AcDbEntity
  8
0
 62
   253
100
AcDbPolyline
 90
        2
 70
     0
 39
0.003
 10
-0.380732
 20
2.790673
 40
0.003
 41
0.003
 10
0.264331
 20
3.160067
 40
0.003
 41
0.003
  0
LWPOLYLINE
  5
209
100
AcDbEntity
  8
0
 62
   253
100
AcDbPolyline
 90
        2
 70
     0
 39
0.003
 10
0.264331
 20
3.160067
 40
0.003
 41
0.003
 10
0.257421
 20
3.160189
 40
0.003
 41
0.003
  0
LWPOLYLINE
  5
20A
100
AcDbEntity
  8
0
 62
   253
100
AcDbPolyline
 90
        2
 70
     0
 39
0.003
 10
0.257421
 20
3.160189
 40
0.003
 41
0.003
 10
-0.387642
 20
2.790795
 40
0.003
 41
0.003
  0
LWPOLYLINE
  5
20B
100
AcDbEntity
  8
0
 62
   253
100
AcDbPolyline
 90
        2
 70
     0
 39
0.003
 10
-0.387642
 20
2.790795
 40
0.003
 41
0.003
 10
-0.380732
 20
2.790673
 40
0.003
 41
0.003
  0
LWPOLYLINE
  5
20C
100
AcDbEntity
  8
0
 62
   253
100
AcDbPolyline
 90
        2
 70
     0
 39
0.003
 10
-0.387642
 20
2.790795
 40
0.003
 41
0.003
 10
0.257421
 20
3.160189
 40
0.003
 41
0.003
  0
LWPOLYLINE
  5
20D
100
AcDbEntity
  8
0
 62
   253
100
AcDbPolyline
 90
        2
 70
     0
 39
0.003
 10
0.257421
 20
3.160189
 40
0.003
 41
0.003
 10
0.250346
 20
3.160228
 40
0.003
 41
0.003
  0
LWPOLYLINE
  5
20E
100
AcDbEntity
  8
0
 62
   253
100
AcDbPolyline
 90
        2
 70
     0
 39
0.003
 10
0.250346
 20
3.160228
 40
0.003
 41
0.003
 10
-0.394717
 20
2.790835
 40
0.003
 41
0.003
  0
LWPOLYLINE
  5
20F
100
AcDbEntity
  8
0
 62
   253
100
AcDbPolyline
 90
        2
 70
     0
 39
0.003
 10
-0.394717
 20
2.790835
 40
0.003
 41
0.003
 10
-0.387642
 20
2.790795
 40
0.003
 41
0.003
  0
LWPOLYLINE
  5
210
100
AcDbEntity
  8
0
 62
     0
100
AcDbPolyline
 90
        2
 70
     0
 39
0.003
 10
-0.238362
 20
2.768193
 40
0.003
 41
0.003
 10
0.406701
 20
3.137587
 40
0.003
 41
0.003
  0
LWPOLYLINE
  5
211
100
AcDbEntity
  8
0
 62
     0
100
AcDbPolyline
 90
        2
 70
     0
 39
0.003
 10
0.406701
 20
3.137587
 40
0.003
 41
0.003
 10
0.403654
 20
3.138319
 40
0.003
 41
0.003
  0
LWPOLYLINE
  5
212
100
AcDbEntity
  8
0
 62
     0
100
AcDbPolyline
 90
        2
 70
     0
 39
0.003
 10
0.403654
 20
3.138319
 40
0.003
 41
0.003
 10
0.400504
 20
3.139102
 40
0.003
 41
0.003
  0
LWPOLYLINE
  5
213
100
AcDbEntity
  8
0
 62
     0
100
AcDbPolyline
 90
        2
 70
     0
 39
0.003
 10
0.400504
 20
3.139102
 40
0.003
 41
0.003
 10
0.397256
 20
3.139913
 40
0.003
 41
0.003
  0
LWPOLYLINE
  5
214
100
AcDbEntity
  8
0
 62
     0
100
AcDbPolyline
 90
        2
 70
     0
 39
0.003
 10
0.397256
 20
3.139913
 40
0.003
 41
0.003
 10
0.393906
 20
3.140764
 40
0.003
 41
0.003
  0
LWPOLYLINE
  5
215
100
AcDbEntity
  8
0
 62
     0
100
AcDbPolyline
 90
        2
 70
     0
 39
0.003
 10
0.393906
 20
3.140764
 40
0.003
 41
0.003
 10
0.390461
 20
3.14163
 40
0.003
 41
0.003
  0
LWPOLYLINE
  5
216
100
AcDbEntity
  8
0
 62
     0
100
AcDbPolyline
 90
        2
 70
     0
 39
0.003
 10
0.390461
 20
3.14163
 40
0.003
 41
0.003
 10
0.386902
 20
3.142528
 40
0.003
 41
0.003
  0
LWPOLYLINE
  5
217
100
AcDbEntity
  8
0
 62
     0
100
AcDbPolyline
 90
        2
 70
     0
 39
0.003
 10
0.386902
 20
3.142528
 40
0.003
 41
0.003
 10
0.383244
 20
3.143437
 40
0.003
 41
0.003
  0
LWPOLYLINE
  5
218
100
AcDbEntity
  8
0
 62
     0
100
AcDbPolyline
 90
        2
 70
     0
 39
0.003
 10
0.383244
 20
3.143437
 40
0.003
 41
0.003
 10
0.379469
 20
3.14437
 40
0.003
 41
0.003
  0
LWPOLYLINE
  5
219
100
AcDbEntity
  8
0
 62
     0
100
AcDbPolyline
 90
        2
 70
     0
 39
0.003
 10
0.379469
 20
3.14437
 40
0.003
 41
0.003
 10
0.375594
 20
3.145303
 40
0.003
 41
0.003
  0
LWPOLYLINE
  5
21A
100
AcDbEntity
  8
0
 62
     0
100
AcDbPolyline
 90
        2
 70
     0
 39
0.003
 10
0.375594
 20
3.145303
 40
0.003
 41
0.003
 10
0.371598
 20
3.146248
 40
0.003
 41
0.003
  0
LWPOLYLINE
  5
21B
100
AcDbEntity
  8
0
 62
     0
100
AcDbPolyline
 90
        2
 70
     0
 39
0.003
 10
0.371598
 20
3.146248
 40
0.003
 41
0.003
 10
0.367488
 20
3.147193
 40
0.003
 41
0.003
  0
LWPOLYLINE
  5
21C
100
AcDbEntity
  8
0
 62
     0
100
AcDbPolyline
 90
        2
 70
     0
 39
0.003
 10
0.367488
 20
3.147193
 40
0.003
 41
0.003
 10
0.363256
 20
3.148138
 40
0.003
 41
0.003
  0
LWPOLYLINE
  5
21D
100
AcDbEntity
  8
0
 62
     0
100
AcDbPolyline
 90
        2
 70
     0
 39
0.003
 10
0.363256
 20
3.148138
 40
0.003
 41
0.003
 10
0.358909
 20
3.149071
 40
0.003
 41
0.003
  0
LWPOLYLINE
  5
21E
100
AcDbEntity
  8
0
 62
     0
100
AcDbPolyline
 90
        2
 70
     0
 39
0.003
 10
0.358909
 20
3.149071
 40
0.003
 41
0.003
 10
0.354433
 20
3.15
 40
0.003
 41
0.003
  0
LWPOLYLINE
  5
21F
100
AcDbEntity
  8
0
 62
     0
100
AcDbPolyline
 90
        2
 70
     0
 39
0.003
 10
0.354433
 20
3.15
 40
0.003
 41
0.003
 10
0.349839
 20
3.150913
 40
0.003
 41
0.003
  0
LWPOLYLINE
  5
220
100
AcDbEntity
  8
0
 62
     0
100
AcDbPolyline
 90
        2
 70
     0
 39
0.003
 10
0.349839
 20
3.150913
 40
0.003
 41
0.003
 10
0.34511
 20
3.151811
 40
0.003
 41
0.003
  0
LWPOLYLINE
  5
221
100
AcDbEntity
  8
0
 62
     0
100
AcDbPolyline
 90
        2
 70
     0
 39
0.003
 10
0.34511
 20
3.151811
 40
0.003
 41
0.003
 10
0.340264
 20
3.152673
 40
0.003
 41
0.003
  0
LWPOLYLINE
  5
222
100
AcDbEntity
  8
0
 62
     0
100
AcDbPolyline
 90
        2
 70
     0
 39
0.003
 10
0.340264
 20
3.152673
 40
0.003
 41
0.003
 10
0.33528
 20
3.15352
 40
0.003
 41
0.003
  0
LWPOLYLINE
  5
223
100
AcDbEntity
  8
0
 62
     0
100
AcDbPolyline
 90
        2
 70
     0
 39
0.003
 10
0.33528
 20
3.15352
 40
0.003
 41
0.003
 10
0.330161
 20
3.154331
 40
0.003
 41
0.003
  0
LWPOLYLINE
  5
224
100
AcDbEntity
  8
0
 62
     0
100
AcDbPolyline
 90
        2
 70
     0
 39
0.003
 10
0.330161
 20
3.154331
 40
0.003
 41
0.003
 10
0.324902
 20
3.155114
 40
0.003
 41
0.003
  0
LWPOLYLINE
  5
225
100
AcDbEntity
  8
0
 62
     0
100
AcDbPolyline
 90
        2
 70
     0
 39
0.003
 10
0.324902
 20
3.155114
 40
0.003
 41
0.003
 10
0.319512
 20
3.15585
 40
0.003
 41
0.003
  0
LWPOLYLINE
  5
226
100
AcDbEntity
  8
0
 62
     0
100
AcDbPolyline
 90
        2
 70
     0
 39
0.003
 10
0.319512
 20
3.15585
 40
0.003
 41
0.003
 10
0.313972
 20
3.156547
 40
0.003
 41
0.003
  0
LWPOLYLINE
  5
227
100
AcDbEntity
  8
0
 62
     0
100
AcDbPolyline
 90
        2
 70
     0
 39
0.003
 10
0.313972
 20
3.156547
 40
0.003
 41
0.003
 10
0.308291
 20
3.157193
 40
0.003
 41
0.003
  0
LWPOLYLINE
  5
228
100
AcDbEntity
  8
0
 62
     0
100
AcDbPolyline
 90
        2
 70
     0
 39
0.003
 10
0.308291
 20
3.157193
 40
0.003
 41
0.003
 10
0.302465
 20
3.157795
 40
0.003
 41
0.003
  0
LWPOLYLINE
  5
229
100
AcDbEntity
  8
0
 62
     0
100
AcDbPolyline
 90
        2
 70
     0
 39
0.003
 10
0.302465
 20
3.157795
 40
0.003
 41
0.003
 10
0.296492
 20
3.158331
 40
0.003
 41
0.003
  0
LWPOLYLINE
  5
22A
100
AcDbEntity
  8
0
 62
     0
100
AcDbPolyline
 90
        2
 70
     0
 39
0.003
 10
0.296492
 20
3.158331
 40
0.003
 41
0.003
 10
0.29037
 20
3.158815
 40
0.003
 41
0.003
  0
LWPOLYLINE
  5
22B
100
AcDbEntity
  8
0
 62
     0
100
AcDbPolyline
 90
        2
 70
     0
 39
0.003
 10
0.29037
 20
3.158815
 40
0.003
 41
0.003
 10
0.284094
 20
3.159232
 40
0.003
 41
0.003
  0
LWPOLYLINE
  5
22C
100
AcDbEntity
  8
0
 62
     0
100
AcDbPolyline
 90
        2
 70
     0
 39
0.003
 10
0.284094
 20
3.159232
 40
0.003
 41
0.003
 10
0.277661
 20
3.159587
 40
0.003
 41
0.003
  0
LWPOLYLINE
  5
22D
100
AcDbEntity
  8
0
 62
     0
100
AcDbPolyline
 90
        2
 70
     0
 39
0.003
 10
0.277661
 20
3.159587
 40
0.003
 41
0.003
 10
0.271079
 20
3.159858
 40
0.003
 41
0.003
  0
LWPOLYLINE
  5
22E
100
AcDbEntity
  8
0
 62
     0
100
AcDbPolyline
 90
        2
 70
     0
 39
0.003
 10
0.271079
 20
3.159858
 40
0.003
 41
0.003
 10
0.264331
 20
3.160067
 40
0.003
 41
0.003
  0
LWPOLYLINE
  5
22F
100
AcDbEntity
  8
0
 62
     0
100
AcDbPolyline
 90
        2
 70
     0
 39
0.003
 10
0.264331
 20
3.160067
 40
0.003
 41
0.003
 10
0.257421
 20
3.160189
 40
0.003
 41
0.003
  0
LWPOLYLINE
  5
230
100
AcDbEntity
  8
0
 62
     0
100
AcDbPolyline
 90
        2
 70
     0
 39
0.003
 10
0.257421
 20
3.160189
 40
0.003
 41
0.003
 10
0.250346
 20
3.160228
 40
0.003
 41
0.003
  0
LWPOLYLINE
  5
231
100
AcDbEntity
  8
0
 62
     0
100
AcDbPolyline
 90
        2
 70
     0
 39
0.003
 10
0.250346
 20
3.160228
 40
0.003
 41
0.003
 10
-0.394717
 20
2.790835
 40
0.003
 41
0.003
  0
LWPOLYLINE
  5
232
100
AcDbEntity
  8
0
 62
     0
100
AcDbPolyline
 90
        2
 70
     0
 39
0.003
 10
-0.394717
 20
2.790835
 40
0.003
 41
0.003
 10
-0.387642
 20
2.790795
 40
0.003
 41
0.003
  0
LWPOLYLINE
  5
233
100
AcDbEntity
  8
0
 62
     0
100
AcDbPolyline
 90
        2
 70
     0
 39
0.003
 10
-0.387642
 20
2.790795
 40
0.003
 41
0.003
 10
-0.380732
 20
2.790673
 40
0.003
 41
0.003
  0
LWPOLYLINE
  5
234
100
AcDbEntity
  8
0
 62
     0
100
AcDbPolyline
 90
        2
 70
     0
 39
0.003
 10
-0.380732
 20
2.790673
 40
0.003
 41
0.003
 10
-0.373984
 20
2.790465
 40
0.003
 41
0.003
  0
LWPOLYLINE
  5
235
100
AcDbEntity
  8
0
 62
     0
100
AcDbPolyline
 90
        2
 70
     0
 39
0.003
 10
-0.373984
 20
2.790465
 40
0.003
 41
0.003
 10
-0.367402
 20
2.790193
 40
0.003
 41
0.003
  0
LWPOLYLINE
  5
236
100
AcDbEntity
  8
0
 62
     0
100
AcDbPolyline
 90
        2
 70
     0
 39
0.003
 10
-0.367402
 20
2.790193
 40
0.003
 41
0.003
 10
-0.360969
 20
2.789839
 40
0.003
 41
0.003
  0
LWPOLYLINE
  5
237
100
AcDbEntity
  8
0
 62
     0
100
AcDbPolyline
 90
        2
 70
     0
 39
0.003
 10
-0.360969
 20
2.789839
 40
0.003
 41
0.003
 10
-0.354693
 20
2.789421
 40
0.003
 41
0.003
  0
LWPOLYLINE
  5
238
100
AcDbEntity
  8
0
 62
     0
100
AcDbPolyline
 90
        2
 70
     0
 39
0.003
 10
-0.354693
 20
2.789421
 40
0.003
 41
0.003
 10
-0.348571
 20
2.788937
 40
0.003
 41
0.003
  0
LWPOLYLINE
  5
239
100
AcDbEntity
  8
0
 62
     0
100
AcDbPolyline
 90
        2
 70
     0
 39
0.003
 10
-0.348571
 20
2.788937
 40
0.003
 41
0.003
 10
-0.342598
 20
2.788402
 40
0.003
 41
0.003
  0
LWPOLYLINE
  5
23A
100
AcDbEntity
  8
0
 62
     0
100
AcDbPolyline
 90
        2
 70
     0
 39
0.003
 10
-0.342598
 20
2.788402
 40
0.003
 41
0.003
 10
-0.336772
 20
2.787799
 40
0.003
 41
0.003
  0
LWPOLYLINE
  5
23B
100
AcDbEntity
  8
0
 62
     0
100
AcDbPolyline
 90
        2
 70
     0
 39
0.003
 10
-0.336772
 20
2.787799
 40
0.003
 41
0.003
 10
-0.331091
 20
2.787154
 40
0.003
 41
0.003
  0
LWPOLYLINE
  5
23C
100
AcDbEntity
  8
0
 62
     0
100
AcDbPolyline
 90
        2
 70
     0
 39
0.003
 10
-0.331091
 20
2.787154
 40
0.003
 41
0.003
 10
-0.325551
 20
2.786457
 40
0.003
 41
0.003
  0
LWPOLYLINE
  5
23D
100
AcDbEntity
  8
0
 62
     0
100
AcDbPolyline
 90
        2
 70
     0
 39
0.003
 10
-0.325551
 20
2.786457
 40
0.003
 41
0.003
 10
-0.320161
 20
2.78572
 40
0.003
 41
0.003
  0
LWPOLYLINE
  5
23E
100
AcDbEntity
  8
0
 62
     0
100
AcDbPolyline
 90
        2
 70
     0
 39
0.003
 10
-0.320161
 20
2.78572
 40
0.003
 41
0.003
 10
-0.314902
 20
2.784937
 40
0.003
 41
0.003
  0
LWPOLYLINE
  5
23F
100
AcDbEntity
  8
0
 62
     0
100
AcDbPolyline
 90
        2
 70
     0
 39
0.003
 10
-0.314902
 20
2.784937
 40
0.003
 41
0.003
 10
-0.309783
 20
2.784126
 40
0.003
 41
0.003
  0
LWPOLYLINE
  5
240
100
AcDbEntity
  8
0
 62
     0
100
AcDbPolyline
 90
        2
 70
     0
 39
0.003
 10
-0.309783
 20
2.784126
 40
0.003
 41
0.003
 10
-0.304799
 20
2.78328
 40
0.003
 41
0.003
  0
LWPOLYLINE
  5
241
100
AcDbEntity
  8
0
 62
     0
100
AcDbPolyline
 90
        2
 70
     0
 39
0.003
 10
-0.304799
 20
2.78328
 40
0.003
 41
0.003
 10
-0.299953
 20
2.782417
 40
0.003
 41
0.003
  0
LWPOLYLINE
  5
242
100
AcDbEntity
  8
0
 62
     0
100
AcDbPolyline
 90
        2
 70
     0
 39
0.003
 10
-0.299953
 20
2.782417
 40
0.003
 41
0.003
 10
-0.295224
 20
2.78152
 40
0.003
 41
0.003
  0
LWPOLYLINE
  5
243
100
AcDbEntity
  8
0
 62
     0
100
AcDbPolyline
 90
        2
 70
     0
 39
0.003
 10
-0.295224
 20
2.78152
 40
0.003
 41
0.003
 10
-0.29063
 20
2.780606
 40
0.003
 41
0.003
  0
LWPOLYLINE
  5
244
100
AcDbEntity
  8
0
 62
     0
100
AcDbPolyline
 90
        2
 70
     0
 39
0.003
 10
-0.29063
 20
2.780606
 40
0.003
 41
0.003
 10
-0.286154
 20
2.779677
 40
0.003
 41
0.003
  0
LWPOLYLINE
  5
245
100
AcDbEntity
  8
0
 62
     0
100
AcDbPolyline
 90
        2
 70
     0
 39
0.003
 10
-0.286154
 20
2.779677
 40
0.003
 41
0.003
 10
-0.281807
 20
2.778744
 40
0.003
 41
0.003
  0
LWPOLYLINE
  5
246
100
AcDbEntity
  8
0
 62
     0
100
AcDbPolyline
 90
        2
 70
     0
 39
0.003
 10
-0.281807
 20
2.778744
 40
0.003
 41
0.003
 10
-0.277575
 20
2.777799
 40
0.003
 41
0.003
  0
LWPOLYLINE
  5
247
100
AcDbEntity
  8
0
 62
     0
100
AcDbPolyline
 90
        2
 70
     0
 39
0.003
 10
-0.277575
 20
2.777799
 40
0.003
 41
0.003
 10
-0.273465
 20
2.776854
 40
0.003
 41
0.003
  0
LWPOLYLINE
  5
248
100
AcDbEntity
  8
0
 62
     0
100
AcDbPolyline
 90
        2
 70
     0
 39
0.003
 10
-0.273465
 20
2.776854
 40
0.003
 41
0.003
 10
-0.269469
 20
2.775909
 40
0.003
 41
0.003
  0
LWPOLYLINE
  5
249
100
AcDbEntity
  8
0
 62
     0
100
AcDbPolyline
 90
        2
 70
     0
 39
0.003
 10
-0.269469
 20
2.775909
 40
0.003
 41
0.003
 10
-0.265594
 20
2.774976
 40
0.003
 41
0.003
  0
LWPOLYLINE
  5
24A
100
AcDbEntity
  8
0
 62
     0
100
AcDbPolyline
 90
        2
 70
     0
 39
0.003
 10
-0.265594
 20
2.774976
 40
0.003
 41
0.003
 10
-0.261819
 20
2.774043
 40
0.003
 41
0.003
  0
LWPOLYLINE
  5
24B
100
AcDbEntity
  8
0
 62
     0
100
AcDbPolyline
 90
        2
 70
     0
 39
0.003
 10
-0.261819
 20
2.774043
 40
0.003
 41
0.003
 10
-0.258161
 20
2.773134
 40
0.003
 41
0.003
  0
LWPOLYLINE
  5
24C
100
AcDbEntity
  8
0
 62
     0
100
AcDbPolyline
 90
        2
 70
     0
 39
0.003
 10
-0.258161
 20
2.773134
 40
0.003
 41
0.003
 10
-0.254602
 20
2.772236
 40
0.003
 41
0.003
  0
LWPOLYLINE
  5
24D
100
AcDbEntity
  8
0
 62
     0
100
AcDbPolyline
 90
        2
 70
     0
 39
0.003
 10
-0.254602
 20
2.772236
 40
0.003
 41
0.003
 10
-0.251157
 20
2.77137
 40
0.003
 41
0.003
  0
LWPOLYLINE
  5
24E
100
AcDbEntity
  8
0
 62
     0
100
AcDbPolyline
 90
        2
 70
     0
 39
0.003
 10
-0.251157
 20
2.77137
 40
0.003
 41
0.003
 10
-0.247807
 20
2.77052
 40
0.003
 41
0.003
  0
LWPOLYLINE
  5
24F
100
AcDbEntity
  8
0
 62
     0
100
AcDbPolyline
 90
        2
 70
     0
 39
0.003
 10
-0.247807
 20
2.77052
 40
0.003
 41
0.003
 10
-0.244559
 20
2.769709
 40
0.003
 41
0.003
  0
LWPOLYLINE
  5
250
100
AcDbEntity
  8
0
 62
     0
100
AcDbPolyline
 90
        2
 70
     0
 39
0.003
 10
-0.244559
 20
2.769709
 40
0.003
 41
0.003
 10
-0.241409
 20
2.768925
 40
0.003
 41
0.003
  0
LWPOLYLINE
  5
251
100
AcDbEntity
  8
0
 62
     0
100
AcDbPolyline
 90
        2
 70
     0
 39
0.003
 10
-0.241409
 20
2.768925
 40
0.003
 41
0.003
 10
-0.238362
 20
2.768193
 40
0.003
 41
0.003
  0
LWPOLYLINE
  5
252
100
AcDbEntity
  8
0
 62
     0
100
AcDbPolyline
 90
        2
 70
     0
 39
0.003
 10
-0.394717
 20
2.790835
 40
0.003
 41
0.003
 10
0.250346
 20
3.160228
 40
0.003
 41
0.003
  0
LWPOLYLINE
  5
253
100
AcDbEntity
  8
0
 62
     0
100
AcDbPolyline
 90
        2
 70
     0
 39
0.003
 10
0.250346
 20
3.160228
 40
0.003
 41
0.003
 10
0.250346
 20
3.160228
 40
0.003
 41
0.003
  0
LWPOLYLINE
  5
254
100
AcDbEntity
  8
0
 62
     0
100
AcDbPolyline
 90
        2
 70
     0
 39
0.003
 10
0.250346
 20
3.160228
 40
0.003
 41
0.003
 10
-0.394717
 20
2.790835
 40
0.003
 41
0.003
  0
LWPOLYLINE
  5
255
100
AcDbEntity
  8
0
 62
     0
100
AcDbPolyline
 90
        2
 70
     0
 39
0.003
 10
-0.394717
 20
2.790835
 40
0.003
 41
0.003
 10
-0.394717
 20
2.790835
 40
0.003
 41
0.003
  0
LWPOLYLINE
  5
256
100
AcDbEntity
  8
0
 62
     0
100
AcDbPolyline
 90
        2
 70
     0
 39
0.003
 10
0.250346
 20
3.160228
 40
0.003
 41
0.003
 10
0.250346
 20
3.160228
 40
0.003
 41
0.003
  0
LWPOLYLINE
  5
257
100
AcDbEntity
  8
0
 62
     0
100
AcDbPolyline
 90
        2
 70
     0
 39
0.003
 10
-0.394717
 20
2.790835
 40
0.003
 41
0.003
 10
-0.394717
 20
2.790835
 40
0.003
 41
0.003
  0
LWPOLYLINE
  5
258
100
AcDbEntity
  8
0
 62
   253
100
AcDbPolyline
 90
        2
 70
     0
 39
0.003
 10
-0.394717
 20
2.790835
 40
0.003
 41
0.003
 10
0.250346
 20
3.160228
 40
0.003
 41
0.003
  0
LWPOLYLINE
  5
259
100
AcDbEntity
  8
0
 62
   253
100
AcDbPolyline
 90
        2
 70
     0
 39
0.003
 10
0.250346
 20
3.160228
 40
0.003
 41
0.003
 10
0.243283
 20
3.160189
 40
0.003
 41
0.003
  0
LWPOLYLINE
  5
25A
100
AcDbEntity
  8
0
 62
   253
100
AcDbPolyline
 90
        2
 70
     0
 39
0.003
 10
0.243283
 20
3.160189
 40
0.003
 41
0.003
 10
-0.40178
 20
2.790795
 40
0.003
 41
0.003
  0
LWPOLYLINE
  5
25B
100
AcDbEntity
  8
0
 62
   253
100
AcDbPolyline
 90
        2
 70
     0
 39
0.003
 10
-0.40178
 20
2.790795
 40
0.003
 41
0.003
 10
-0.394717
 20
2.790835
 40
0.003
 41
0.003
  0
LWPOLYLINE
  5
25C
100
AcDbEntity
  8
0
 62
   253
100
AcDbPolyline
 90
        2
 70
     0
 39
0.003
 10
-0.40178
 20
2.790795
 40
0.003
 41
0.003
 10
0.243283
 20
3.160189
 40
0.003
 41
0.003
  0
LWPOLYLINE
  5
25D
100
AcDbEntity
  8
0
 62
   253
100
AcDbPolyline
 90
        2
 70
     0
 39
0.003
 10
0.243283
 20
3.160189
 40
0.003
 41
0.003
 10
0.236374
 20
3.160067
 40
0.003
 41
0.003
  0
LWPOLYLINE
  5
25E
100
AcDbEntity
  8
0
 62
   253
100
AcDbPolyline
 90
        2
 70
     0
 39
0.003
 10
0.236374
 20
3.160067
 40
0.003
 41
0.003
 10
-0.408689
 20
2.790673
 40
0.003
 41
0.003
  0
LWPOLYLINE
  5
25F
100
AcDbEntity
  8
0
 62
   253
100
AcDbPolyline
 90
        2
 70
     0
 39
0.003
 10
-0.408689
 20
2.790673
 40
0.003
 41
0.003
 10
-0.40178
 20
2.790795
 40
0.003
 41
0.003
  0
LWPOLYLINE
  5
260
100
AcDbEntity
  8
0
 62
   253
100
AcDbPolyline
 90
        2
 70
     0
 39
0.003
 10
-0.408689
 20
2.790673
 40
0.003
 41
0.003
 10
0.236374
 20
3.160067
 40
0.003
 41
0.003
  0
LWPOLYLINE
  5
261
100
AcDbEntity
  8
0
 62
   253
100
AcDbPolyline
 90
        2
 70
     0
 39
0.003
 10
0.236374
 20
3.160067
 40
0.003
 41
0.003
 10
0.22963
 20
3.159858
 40
0.003
 41
0.003
  0
LWPOLYLINE
  5
262
100
AcDbEntity
  8
0
 62
   253
100
AcDbPolyline
 90
        2
 70
     0
 39
0.003
 10
0.22963
 20
3.159858
 40
0.003
 41
0.003
 10
-0.415433
 20
2.790465
 40
0.003
 41
0.003
  0
LWPOLYLINE
  5
263
100
AcDbEntity
  8
0
 62
   253
100
AcDbPolyline
 90
        2
 70
     0
 39
0.003
 10
-0.415433
 20
2.790465
 40
0.003
 41
0.003
 10
-0.408689
 20
2.790673
 40
0.003
 41
0.003
  0
LWPOLYLINE
  5
264
100
AcDbEntity
  8
0
 62
   253
100
AcDbPolyline
 90
        2
 70
     0
 39
0.003
 10
-0.415433
 20
2.790465
 40
0.003
 41
0.003
 10
0.22963
 20
3.159858
 40
0.003
 41
0.003
  0
LWPOLYLINE
  5
265
100
AcDbEntity
  8
0
 62
   253
100
AcDbPolyline
 90
        2
 70
     0
 39
0.003
 10
0.22963
 20
3.159858
 40
0.003
 41
0.003
 10
0.223043
 20
3.159587
 40
0.003
 41
0.003
  0
LWPOLYLINE
  5
266
100
AcDbEntity
  8
0
 62
   253
100
AcDbPolyline
 90
        2
 70
     0
 39
0.003
 10
0.223043
 20
3.159587
 40
0.003
 41
0.003
 10
-0.42202
 20
2.790193
 40
0.003
 41
0.003
  0
LWPOLYLINE
  5
267
100
AcDbEntity
  8
0
 62
   253
100
AcDbPolyline
 90
        2
 70
     0
 39
0.003
 10
-0.42202
 20
2.790193
 40
0.003
 41
0.003
 10
-0.415433
 20
2.790465
 40
0.003
 41
0.003
  0
LWPOLYLINE
  5
268
100
AcDbEntity
  8
0
 62
   253
100
AcDbPolyline
 90
        2
 70
     0
 39
0.003
 10
-0.42202
 20
2.790193
 40
0.003
 41
0.003
 10
0.223043
 20
3.159587
 40
0.003
 41
0.003
  0
LWPOLYLINE
  5
269
100
AcDbEntity
  8
0
 62
   253
100
AcDbPolyline
 90
        2
 70
     0
 39
0.003
 10
0.223043
 20
3.159587
 40
0.003
 41
0.003
 10
0.216618
 20
3.159232
 40
0.003
 41
0.003
  0
LWPOLYLINE
  5
26A
100
AcDbEntity
  8
0
 62
   253
100
AcDbPolyline
 90
        2
 70
     0
 39
0.003
 10
0.216618
 20
3.159232
 40
0.003
 41
0.003
 10
-0.428445
 20
2.789839
 40
0.003
 41
0.003
  0
LWPOLYLINE
  5
26B
100
AcDbEntity
  8
0
 62
   253
100
AcDbPolyline
 90
        2
 70
     0
 39
0.003
 10
-0.428445
 20
2.789839
 40
0.003
 41
0.003
 10
-0.42202
 20
2.790193
 40
0.003
 41
0.003
  0
LWPOLYLINE
  5
26C
100
AcDbEntity
  8
0
 62
   253
100
AcDbPolyline
 90
        2
 70
     0
 39
0.003
 10
-0.428445
 20
2.789839
 40
0.003
 41
0.003
 10
0.216618
 20
3.159232
 40
0.003
 41
0.003
  0
LWPOLYLINE
  5
26D
100
AcDbEntity
  8
0
 62
   253
100
AcDbPolyline
 90
        2
 70
     0
 39
0.003
 10
0.216618
 20
3.159232
 40
0.003
 41
0.003
 10
0.210339
 20
3.158815
 40
0.003
 41
0.003
  0
LWPOLYLINE
  5
26E
100
AcDbEntity
  8
0
 62
   253
100
AcDbPolyline
 90
        2
 70
     0
 39
0.003
 10
0.210339
 20
3.158815
 40
0.003
 41
0.003
 10
-0.434724
 20
2.789421
 40
0.003
 41
0.003
  0
LWPOLYLINE
  5
26F
100
AcDbEntity
  8
0
 62
   253
100
AcDbPolyline
 90
        2
 70
     0
 39
0.003
 10
-0.434724
 20
2.789421
 40
0.003
 41
0.003
 10
-0.428445
 20
2.789839
 40
0.003
 41
0.003
  0
LWPOLYLINE
  5
270
100
AcDbEntity
  8
0
 62
   253
100
AcDbPolyline
 90
        2
 70
     0
 39
0.003
 10
-0.434724
 20
2.789421
 40
0.003
 41
0.003
 10
0.210339
 20
3.158815
 40
0.003
 41
0.003
  0
LWPOLYLINE
  5
271
100
AcDbEntity
  8
0
 62
   253
100
AcDbPolyline
 90
        2
 70
     0
 39
0.003
 10
0.210339
 20
3.158815
 40
0.003
 41
0.003
 10
0.204217
 20
3.158331
 40
0.003
 41
0.003
  0
LWPOLYLINE
  5
272
100
AcDbEntity
  8
0
 62
   253
100
AcDbPolyline
 90
        2
 70
     0
 39
0.003
 10
0.204217
 20
3.158331
 40
0.003
 41
0.003
 10
-0.440846
 20
2.788937
 40
0.003
 41
0.003
  0
LWPOLYLINE
  5
273
100
AcDbEntity
  8
0
 62
   253
100
AcDbPolyline
 90
        2
 70
     0
 39
0.003
 10
-0.440846
 20
2.788937
 40
0.003
 41
0.003
 10
-0.434724
 20
2.789421
 40
0.003
 41
0.003
  0
LWPOLYLINE
  5
274
100
AcDbEntity
  8
0
 62
   253
100
AcDbPolyline
 90
        2
 70
     0
 39
0.003
 10
-0.440846
 20
2.788937
 40
0.003
 41
0.003
 10
0.204217
 20
3.158331
 40
0.003
 41
0.003
  0
LWPOLYLINE
  5
275
100
AcDbEntity
  8
0
 62
   253
100
AcDbPolyline
 90
        2
 70
     0
 39
0.003
 10
0.204217
 20
3.158331
 40
0.003
 41
0.003
 10
0.19824
 20
3.157795
 40
0.003
 41
0.003
  0
LWPOLYLINE
  5
276
100
AcDbEntity
  8
0
 62
   253
100
AcDbPolyline
 90
        2
 70
     0
 39
0.003
 10
0.19824
 20
3.157795
 40
0.003
 41
0.003
 10
-0.446823
 20
2.788402
 40
0.003
 41
0.003
  0
LWPOLYLINE
  5
277
100
AcDbEntity
  8
0
 62
   253
100
AcDbPolyline
 90
        2
 70
     0
 39
0.003
 10
-0.446823
 20
2.788402
 40
0.003
 41
0.003
 10
-0.440846
 20
2.788937
 40
0.003
 41
0.003
  0
LWPOLYLINE
  5
278
100
AcDbEntity
  8
0
 62
   253
100
AcDbPolyline
 90
        2
 70
     0
 39
0.003
 10
-0.446823
 20
2.788402
 40
0.003
 41
0.003
 10
0.19824
 20
3.157795
 40
0.003
 41
0.003
  0
LWPOLYLINE
  5
279
100
AcDbEntity
  8
0
 62
   253
100
AcDbPolyline
 90
        2
 70
     0
 39
0.003
 10
0.19824
 20
3.157795
 40
0.003
 41
0.003
 10
0.192425
 20
3.157193
 40
0.003
 41
0.003
  0
LWPOLYLINE
  5
27A
100
AcDbEntity
  8
0
 62
   253
100
AcDbPolyline
 90
        2
 70
     0
 39
0.003
 10
0.192425
 20
3.157193
 40
0.003
 41
0.003
 10
-0.452638
 20
2.787799
 40
0.003
 41
0.003
  0
LWPOLYLINE
  5
27B
100
AcDbEntity
  8
0
 62
   253
100
AcDbPolyline
 90
        2
 70
     0
 39
0.003
 10
-0.452638
 20
2.787799
 40
0.003
 41
0.003
 10
-0.446823
 20
2.788402
 40
0.003
 41
0.003
  0
LWPOLYLINE
  5
27C
100
AcDbEntity
  8
0
 62
   253
100
AcDbPolyline
 90
        2
 70
     0
 39
0.003
 10
-0.452638
 20
2.787799
 40
0.003
 41
0.003
 10
0.192425
 20
3.157193
 40
0.003
 41
0.003
  0
LWPOLYLINE
  5
27D
100
AcDbEntity
  8
0
 62
   253
100
AcDbPolyline
 90
        2
 70
     0
 39
0.003
 10
0.192425
 20
3.157193
 40
0.003
 41
0.003
 10
0.186744
 20
3.156547
 40
0.003
 41
0.003
  0
LWPOLYLINE
  5
27E
100
AcDbEntity
  8
0
 62
   253
100
AcDbPolyline
 90
        2
 70
     0
 39
0.003
 10
0.186744
 20
3.156547
 40
0.003
 41
0.003
 10
-0.458319
 20
2.787154
 40
0.003
 41
0.003
  0
LWPOLYLINE
  5
27F
100
AcDbEntity
  8
0
 62
   253
100
AcDbPolyline
 90
        2
 70
     0
 39
0.003
 10
-0.458319
 20
2.787154
 40
0.003
 41
0.003
 10
-0.452638
 20
2.787799
 40
0.003
 41
0.003
  0
LWPOLYLINE
  5
280
100
AcDbEntity
  8
0
 62
   253
100
AcDbPolyline
 90
        2
 70
     0
 39
0.003
 10
-0.458319
 20
2.787154
 40
0.003
 41
0.003
 10
0.186744
 20
3.156547
 40
0.003
 41
0.003
  0
LWPOLYLINE
  5
281
100
AcDbEntity
  8
0
 62
   253
100
AcDbPolyline
 90
        2
 70
     0
 39
0.003
 10
0.186744
 20
3.156547
 40
0.003
 41
0.003
 10
0.181209
 20
3.15585
 40
0.003
 41
0.003
  0
LWPOLYLINE
  5
282
100
AcDbEntity
  8
0
 62
   253
100
AcDbPolyline
 90
        2
 70
     0
 39
0.003
 10
0.181209
 20
3.15585
 40
0.003
 41
0.003
 10
-0.463854
 20
2.786457
 40
0.003
 41
0.003
  0
LWPOLYLINE
  5
283
100
AcDbEntity
  8
0
 62
   253
100
AcDbPolyline
 90
        2
 70
     0
 39
0.003
 10
-0.463854
 20
2.786457
 40
0.003
 41
0.003
 10
-0.458319
 20
2.787154
 40
0.003
 41
0.003
  0
LWPOLYLINE
  5
284
100
AcDbEntity
  8
0
 62
   253
100
AcDbPolyline
 90
        2
 70
     0
 39
0.003
 10
-0.463854
 20
2.786457
 40
0.003
 41
0.003
 10
0.181209
 20
3.15585
 40
0.003
 41
0.003
  0
LWPOLYLINE
  5
285
100
AcDbEntity
  8
0
 62
   253
100
AcDbPolyline
 90
        2
 70
     0
 39
0.003
 10
0.181209
 20
3.15585
 40
0.003
 41
0.003
 10
0.175811
 20
3.155114
 40
0.003
 41
0.003
  0
LWPOLYLINE
  5
286
100
AcDbEntity
  8
0
 62
   253
100
AcDbPolyline
 90
        2
 70
     0
 39
0.003
 10
0.175811
 20
3.155114
 40
0.003
 41
0.003
 10
-0.469252
 20
2.78572
 40
0.003
 41
0.003
  0
LWPOLYLINE
  5
287
100
AcDbEntity
  8
0
 62
   253
100
AcDbPolyline
 90
        2
 70
     0
 39
0.003
 10
-0.469252
 20
2.78572
 40
0.003
 41
0.003
 10
-0.463854
 20
2.786457
 40
0.003
 41
0.003
  0
LWPOLYLINE
  5
288
100
AcDbEntity
  8
0
 62
   253
100
AcDbPolyline
 90
        2
 70
     0
 39
0.003
 10
-0.469252
 20
2.78572
 40
0.003
 41
0.003
 10
0.175811
 20
3.155114
 40
0.003
 41
0.003
  0
LWPOLYLINE
  5
289
100
AcDbEntity
  8
0
 62
   253
100
AcDbPolyline
 90
        2
 70
     0
 39
0.003
 10
0.175811
 20
3.155114
 40
0.003
 41
0.003
 10
0.170555
 20
3.154331
 40
0.003
 41
0.003
  0
LWPOLYLINE
  5
28A
100
AcDbEntity
  8
0
 62
   253
100
AcDbPolyline
 90
        2
 70
     0
 39
0.003
 10
0.170555
 20
3.154331
 40
0.003
 41
0.003
 10
-0.474508
 20
2.784937
 40
0.003
 41
0.003
  0
LWPOLYLINE
  5
28B
100
AcDbEntity
  8
0
 62
   253
100
AcDbPolyline
 90
        2
 70
     0
 39
0.003
 10
-0.474508
 20
2.784937
 40
0.003
 41
0.003
 10
-0.469252
 20
2.78572
 40
0.003
 41
0.003
  0
LWPOLYLINE
  5
28C
100
AcDbEntity
  8
0
 62
   252
100
AcDbPolyline
 90
        2
 70
     0
 39
0.003
 10
-0.474508
 20
2.784937
 40
0.003
 41
0.003
 10
0.170555
 20
3.154331
 40
0.003
 41
0.003
  0
LWPOLYLINE
  5
28D
100
AcDbEntity
  8
0
 62
   252
100
AcDbPolyline
 90
        2
 70
     0
 39
0.003
 10
0.170555
 20
3.154331
 40
0.003
 41
0.003
 10
0.165433
 20
3.15352
 40
0.003
 41
0.003
  0
LWPOLYLINE
  5
28E
100
AcDbEntity
  8
0
 62
   252
100
AcDbPolyline
 90
        2
 70
     0
 39
0.003
 10
0.165433
 20
3.15352
 40
0.003
 41
0.003
 10
-0.47963
 20
2.784126
 40
0.003
 41
0.003
  0
LWPOLYLINE
  5
28F
100
AcDbEntity
  8
0
 62
   252
100
AcDbPolyline
 90
        2
 70
     0
 39
0.003
 10
-0.47963
 20
2.784126
 40
0.003
 41
0.003
 10
-0.474508
 20
2.784937
 40
0.003
 41
0.003
  0
LWPOLYLINE
  5
290
100
AcDbEntity
  8
0
 62
   252
100
AcDbPolyline
 90
        2
 70
     0
 39
0.003
 10
-0.47963
 20
2.784126
 40
0.003
 41
0.003
 10
0.165433
 20
3.15352
 40
0.003
 41
0.003
  0
LWPOLYLINE
  5
291
100
AcDbEntity
  8
0
 62
   252
100
AcDbPolyline
 90
        2
 70
     0
 39
0.003
 10
0.165433
 20
3.15352
 40
0.003
 41
0.003
 10
0.160449
 20
3.152673
 40
0.003
 41
0.003
  0
LWPOLYLINE
  5
292
100
AcDbEntity
  8
0
 62
   252
100
AcDbPolyline
 90
        2
 70
     0
 39
0.003
 10
0.160449
 20
3.152673
 40
0.003
 41
0.003
 10
-0.484614
 20
2.78328
 40
0.003
 41
0.003
  0
LWPOLYLINE
  5
293
100
AcDbEntity
  8
0
 62
   252
100
AcDbPolyline
 90
        2
 70
     0
 39
0.003
 10
-0.484614
 20
2.78328
 40
0.003
 41
0.003
 10
-0.47963
 20
2.784126
 40
0.003
 41
0.003
  0
LWPOLYLINE
  5
294
100
AcDbEntity
  8
0
 62
   252
100
AcDbPolyline
 90
        2
 70
     0
 39
0.003
 10
-0.484614
 20
2.78328
 40
0.003
 41
0.003
 10
0.160449
 20
3.152673
 40
0.003
 41
0.003
  0
LWPOLYLINE
  5
295
100
AcDbEntity
  8
0
 62
   252
100
AcDbPolyline
 90
        2
 70
     0
 39
0.003
 10
0.160449
 20
3.152673
 40
0.003
 41
0.003
 10
0.155591
 20
3.151811
 40
0.003
 41
0.003
  0
LWPOLYLINE
  5
296
100
AcDbEntity
  8
0
 62
   252
100
AcDbPolyline
 90
        2
 70
     0
 39
0.003
 10
0.155591
 20
3.151811
 40
0.003
 41
0.003
 10
-0.489472
 20
2.782417
 40
0.003
 41
0.003
  0
LWPOLYLINE
  5
297
100
AcDbEntity
  8
0
 62
   252
100
AcDbPolyline
 90
        2
 70
     0
 39
0.003
 10
-0.489472
 20
2.782417
 40
0.003
 41
0.003
 10
-0.484614
 20
2.78328
 40
0.003
 41
0.003
  0
LWPOLYLINE
  5
298
100
AcDbEntity
  8
0
 62
   252
100
AcDbPolyline
 90
        2
 70
     0
 39
0.003
 10
-0.489472
 20
2.782417
 40
0.003
 41
0.003
 10
0.155591
 20
3.151811
 40
0.003
 41
0.003
  0
LWPOLYLINE
  5
299
100
AcDbEntity
  8
0
 62
   252
100
AcDbPolyline
 90
        2
 70
     0
 39
0.003
 10
0.155591
 20
3.151811
 40
0.003
 41
0.003
 10
0.150874
 20
3.150913
 40
0.003
 41
0.003
  0
LWPOLYLINE
  5
29A
100
AcDbEntity
  8
0
 62
   252
100
AcDbPolyline
 90
        2
 70
     0
 39
0.003
 10
0.150874
 20
3.150913
 40
0.003
 41
0.003
 10
-0.494189
 20
2.78152
 40
0.003
 41
0.003
  0
LWPOLYLINE
  5
29B
100
AcDbEntity
  8
0
 62
   252
100
AcDbPolyline
 90
        2
 70
     0
 39
0.003
 10
-0.494189
 20
2.78152
 40
0.003
 41
0.003
 10
-0.489472
 20
2.782417
 40
0.003
 41
0.003
  0
LWPOLYLINE
  5
29C
100
AcDbEntity
  8
0
 62
   252
100
AcDbPolyline
 90
        2
 70
     0
 39
0.003
 10
-0.494189
 20
2.78152
 40
0.003
 41
0.003
 10
0.150874
 20
3.150913
 40
0.003
 41
0.003
  0
LWPOLYLINE
  5
29D
100
AcDbEntity
  8
0
 62
   252
100
AcDbPolyline
 90
        2
 70
     0
 39
0.003
 10
0.150874
 20
3.150913
 40
0.003
 41
0.003
 10
0.146276
 20
3.15
 40
0.003
 41
0.003
  0
LWPOLYLINE
  5
29E
100
AcDbEntity
  8
0
 62
   252
100
AcDbPolyline
 90
        2
 70
     0
 39
0.003
 10
0.146276
 20
3.15
 40
0.003
 41
0.003
 10
-0.498787
 20
2.780606
 40
0.003
 41
0.003
  0
LWPOLYLINE
  5
29F
100
AcDbEntity
  8
0
 62
   252
100
AcDbPolyline
 90
        2
 70
     0
 39
0.003
 10
-0.498787
 20
2.780606
 40
0.003
 41
0.003
 10
-0.494189
 20
2.78152
 40
0.003
 41
0.003
  0
LWPOLYLINE
  5
2A0
100
AcDbEntity
  8
0
 62
   252
100
AcDbPolyline
 90
        2
 70
     0
 39
0.003
 10
-0.498787
 20
2.780606
 40
0.003
 41
0.003
 10
0.146276
 20
3.15
 40
0.003
 41
0.003
  0
LWPOLYLINE
  5
2A1
100
AcDbEntity
  8
0
 62
   252
100
AcDbPolyline
 90
        2
 70
     0
 39
0.003
 10
0.146276
 20
3.15
 40
0.003
 41
0.003
 10
0.141807
 20
3.149071
 40
0.003
 41
0.003
  0
LWPOLYLINE
  5
2A2
100
AcDbEntity
  8
0
 62
   252
100
AcDbPolyline
 90
        2
 70
     0
 39
0.003
 10
0.141807
 20
3.149071
 40
0.003
 41
0.003
 10
-0.503256
 20
2.779677
 40
0.003
 41
0.003
  0
LWPOLYLINE
  5
2A3
100
AcDbEntity
  8
0
 62
   252
100
AcDbPolyline
 90
        2
 70
     0
 39
0.003
 10
-0.503256
 20
2.779677
 40
0.003
 41
0.003
 10
-0.498787
 20
2.780606
 40
0.003
 41
0.003
  0
LWPOLYLINE
  5
2A4
100
AcDbEntity
  8
0
 62
   252
100
AcDbPolyline
 90
        2
 70
     0
 39
0.003
 10
-0.503256
 20
2.779677
 40
0.003
 41
0.003
 10
0.141807
 20
3.149071
 40
0.003
 41
0.003
  0
LWPOLYLINE
  5
2A5
100
AcDbEntity
  8
0
 62
   252
100
AcDbPolyline
 90
        2
 70
     0
 39
0.003
 10
0.141807
 20
3.149071
 40
0.003
 41
0.003
 10
0.137453
 20
3.148138
 40
0.003
 41
0.003
  0
LWPOLYLINE
  5
2A6
100
AcDbEntity
  8
0
 62
   252
100
AcDbPolyline
 90
        2
 70
     0
 39
0.003
 10
0.137453
 20
3.148138
 40
0.003
 41
0.003
 10
-0.50761
 20
2.778744
 40
0.003
 41
0.003
  0
LWPOLYLINE
  5
2A7
100
AcDbEntity
  8
0
 62
   252
100
AcDbPolyline
 90
        2
 70
     0
 39
0.003
 10
-0.50761
 20
2.778744
 40
0.003
 41
0.003
 10
-0.503256
 20
2.779677
 40
0.003
 41
0.003
  0
LWPOLYLINE
  5
2A8
100
AcDbEntity
  8
0
 62
     8
100
AcDbPolyline
 90
        2
 70
     0
 39
0.003
 10
-0.50761
 20
2.778744
 40
0.003
 41
0.003
 10
0.137453
 20
3.148138
 40
0.003
 41
0.003
  0
LWPOLYLINE
  5
2A9
100
AcDbEntity
  8
0
 62
     8
100
AcDbPolyline
 90
        2
 70
     0
 39
0.003
 10
0.137453
 20
3.148138
 40
0.003
 41
0.003
 10
0.133228
 20
3.147193
 40
0.003
 41
0.003
  0
LWPOLYLINE
  5
2AA
100
AcDbEntity
  8
0
 62
     8
100
AcDbPolyline
 90
        2
 70
     0
 39
0.003
 10
0.133228
 20
3.147193
 40
0.003
 41
0.003
 10
-0.511835
 20
2.777799
 40
0.003
 41
0.003
  0
LWPOLYLINE
  5
2AB
100
AcDbEntity
  8
0
 62
     8
100
AcDbPolyline
 90
        2
 70
     0
 39
0.003
 10
-0.511835
 20
2.777799
 40
0.003
 41
0.003
 10
-0.50761
 20
2.778744
 40
0.003
 41
0.003
  0
LWPOLYLINE
  5
2AC
100
AcDbEntity
  8
0
 62
     8
100
AcDbPolyline
 90
        2
 70
     0
 39
0.003
 10
-0.511835
 20
2.777799
 40
0.003
 41
0.003
 10
0.133228
 20
3.147193
 40
0.003
 41
0.003
  0
LWPOLYLINE
  5
2AD
100
AcDbEntity
  8
0
 62
     8
100
AcDbPolyline
 90
        2
 70
     0
 39
0.003
 10
0.133228
 20
3.147193
 40
0.003
 41
0.003
 10
0.129118
 20
3.146248
 40
0.003
 41
0.003
  0
LWPOLYLINE
  5
2AE
100
AcDbEntity
  8
0
 62
     8
100
AcDbPolyline
 90
        2
 70
     0
 39
0.003
 10
0.129118
 20
3.146248
 40
0.003
 41
0.003
 10
-0.515945
 20
2.776854
 40
0.003
 41
0.003
  0
LWPOLYLINE
  5
2AF
100
AcDbEntity
  8
0
 62
     8
100
AcDbPolyline
 90
        2
 70
     0
 39
0.003
 10
-0.515945
 20
2.776854
 40
0.003
 41
0.003
 10
-0.511835
 20
2.777799
 40
0.003
 41
0.003
  0
LWPOLYLINE
  5
2B0
100
AcDbEntity
  8
0
 62
     8
100
AcDbPolyline
 90
        2
 70
     0
 39
0.003
 10
-0.515945
 20
2.776854
 40
0.003
 41
0.003
 10
0.129118
 20
3.146248
 40
0.003
 41
0.003
  0
LWPOLYLINE
  5
2B1
100
AcDbEntity
  8
0
 62
     8
100
AcDbPolyline
 90
        2
 70
     0
 39
0.003
 10
0.129118
 20
3.146248
 40
0.003
 41
0.003
 10
0.125122
 20
3.145303
 40
0.003
 41
0.003
  0
LWPOLYLINE
  5
2B2
100
AcDbEntity
  8
0
 62
     8
100
AcDbPolyline
 90
        2
 70
     0
 39
0.003
 10
0.125122
 20
3.145303
 40
0.003
 41
0.003
 10
-0.519941
 20
2.775909
 40
0.003
 41
0.003
  0
LWPOLYLINE
  5
2B3
100
AcDbEntity
  8
0
 62
     8
100
AcDbPolyline
 90
        2
 70
     0
 39
0.003
 10
-0.519941
 20
2.775909
 40
0.003
 41
0.003
 10
-0.515945
 20
2.776854
 40
0.003
 41
0.003
  0
LWPOLYLINE
  5
2B4
100
AcDbEntity
  8
0
 62
     8
100
AcDbPolyline
 90
        2
 70
     0
 39
0.003
 10
-0.519941
 20
2.775909
 40
0.003
 41
0.003
 10
0.125122
 20
3.145303
 40
0.003
 41
0.003
  0
LWPOLYLINE
  5
2B5
100
AcDbEntity
  8
0
 62
     8
100
AcDbPolyline
 90
        2
 70
     0
 39
0.003
 10
0.125122
 20
3.145303
 40
0.003
 41
0.003
 10
0.121236
 20
3.14437
 40
0.003
 41
0.003
  0
LWPOLYLINE
  5
2B6
100
AcDbEntity
  8
0
 62
     8
100
AcDbPolyline
 90
        2
 70
     0
 39
0.003
 10
0.121236
 20
3.14437
 40
0.003
 41
0.003
 10
-0.523827
 20
2.774976
 40
0.003
 41
0.003
  0
LWPOLYLINE
  5
2B7
100
AcDbEntity
  8
0
 62
     8
100
AcDbPolyline
 90
        2
 70
     0
 39
0.003
 10
-0.523827
 20
2.774976
 40
0.003
 41
0.003
 10
-0.519941
 20
2.775909
 40
0.003
 41
0.003
  0
LWPOLYLINE
  5
2B8
100
AcDbEntity
  8
0
 62
     8
100
AcDbPolyline
 90
        2
 70
     0
 39
0.003
 10
-0.523827
 20
2.774976
 40
0.003
 41
0.003
 10
0.121236
 20
3.14437
 40
0.003
 41
0.003
  0
LWPOLYLINE
  5
2B9
100
AcDbEntity
  8
0
 62
     8
100
AcDbPolyline
 90
        2
 70
     0
 39
0.003
 10
0.121236
 20
3.14437
 40
0.003
 41
0.003
 10
0.117469
 20
3.143437
 40
0.003
 41
0.003
  0
LWPOLYLINE
  5
2BA
100
AcDbEntity
  8
0
 62
     8
100
AcDbPolyline
 90
        2
 70
     0
 39
0.003
 10
0.117469
 20
3.143437
 40
0.003
 41
0.003
 10
-0.527594
 20
2.774043
 40
0.003
 41
0.003
  0
LWPOLYLINE
  5
2BB
100
AcDbEntity
  8
0
 62
     8
100
AcDbPolyline
 90
        2
 70
     0
 39
0.003
 10
-0.527594
 20
2.774043
 40
0.003
 41
0.003
 10
-0.523827
 20
2.774976
 40
0.003
 41
0.003
  0
LWPOLYLINE
  5
2BC
100
AcDbEntity
  8
0
 62
     8
100
AcDbPolyline
 90
        2
 70
     0
 39
0.003
 10
-0.527594
 20
2.774043
 40
0.003
 41
0.003
 10
0.117469
 20
3.143437
 40
0.003
 41
0.003
  0
LWPOLYLINE
  5
2BD
100
AcDbEntity
  8
0
 62
     8
100
AcDbPolyline
 90
        2
 70
     0
 39
0.003
 10
0.117469
 20
3.143437
 40
0.003
 41
0.003
 10
0.113807
 20
3.142528
 40
0.003
 41
0.003
  0
LWPOLYLINE
  5
2BE
100
AcDbEntity
  8
0
 62
     8
100
AcDbPolyline
 90
        2
 70
     0
 39
0.003
 10
0.113807
 20
3.142528
 40
0.003
 41
0.003
 10
-0.531256
 20
2.773134
 40
0.003
 41
0.003
  0
LWPOLYLINE
  5
2BF
100
AcDbEntity
  8
0
 62
     8
100
AcDbPolyline
 90
        2
 70
     0
 39
0.003
 10
-0.531256
 20
2.773134
 40
0.003
 41
0.003
 10
-0.527594
 20
2.774043
 40
0.003
 41
0.003
  0
LWPOLYLINE
  5
2C0
100
AcDbEntity
  8
0
 62
     8
100
AcDbPolyline
 90
        2
 70
     0
 39
0.003
 10
-0.531256
 20
2.773134
 40
0.003
 41
0.003
 10
0.113807
 20
3.142528
 40
0.003
 41
0.003
  0
LWPOLYLINE
  5
2C1
100
AcDbEntity
  8
0
 62
     8
100
AcDbPolyline
 90
        2
 70
     0
 39
0.003
 10
0.113807
 20
3.142528
 40
0.003
 41
0.003
 10
0.110256
 20
3.14163
 40
0.003
 41
0.003
  0
LWPOLYLINE
  5
2C2
100
AcDbEntity
  8
0
 62
     8
100
AcDbPolyline
 90
        2
 70
     0
 39
0.003
 10
0.110256
 20
3.14163
 40
0.003
 41
0.003
 10
-0.534807
 20
2.772236
 40
0.003
 41
0.003
  0
LWPOLYLINE
  5
2C3
100
AcDbEntity
  8
0
 62
     8
100
AcDbPolyline
 90
        2
 70
     0
 39
0.003
 10
-0.534807
 20
2.772236
 40
0.003
 41
0.003
 10
-0.531256
 20
2.773134
 40
0.003
 41
0.003
  0
LWPOLYLINE
  5
2C4
100
AcDbEntity
  8
0
 62
     8
100
AcDbPolyline
 90
        2
 70
     0
 39
0.003
 10
-0.534807
 20
2.772236
 40
0.003
 41
0.003
 10
0.110256
 20
3.14163
 40
0.003
 41
0.003
  0
LWPOLYLINE
  5
2C5
100
AcDbEntity
  8
0
 62
     8
100
AcDbPolyline
 90
        2
 70
     0
 39
0.003
 10
0.110256
 20
3.14163
 40
0.003
 41
0.003
 10
0.106799
 20
3.140764
 40
0.003
 41
0.003
  0
LWPOLYLINE
  5
2C6
100
AcDbEntity
  8
0
 62
     8
100
AcDbPolyline
 90
        2
 70
     0
 39
0.003
 10
0.106799
 20
3.140764
 40
0.003
 41
0.003
 10
-0.538264
 20
2.77137
 40
0.003
 41
0.003
  0
LWPOLYLINE
  5
2C7
100
AcDbEntity
  8
0
 62
     8
100
AcDbPolyline
 90
        2
 70
     0
 39
0.003
 10
-0.538264
 20
2.77137
 40
0.003
 41
0.003
 10
-0.534807
 20
2.772236
 40
0.003
 41
0.003
  0
LWPOLYLINE
  5
2C8
100
AcDbEntity
  8
0
 62
     8
100
AcDbPolyline
 90
        2
 70
     0
 39
0.003
 10
-0.538264
 20
2.77137
 40
0.003
 41
0.003
 10
0.106799
 20
3.140764
 40
0.003
 41
0.003
  0
LWPOLYLINE
  5
2C9
100
AcDbEntity
  8
0
 62
     8
100
AcDbPolyline
 90
        2
 70
     0
 39
0.003
 10
0.106799
 20
3.140764
 40
0.003
 41
0.003
 10
0.103453
 20
3.139913
 40
0.003
 41
0.003
  0
LWPOLYLINE
  5
2CA
100
AcDbEntity
  8
0
 62
     8
100
AcDbPolyline
 90
        2
 70
     0
 39
0.003
 10
0.103453
 20
3.139913
 40
0.003
 41
0.003
 10
-0.54161
 20
2.77052
 40
0.003
 41
0.003
  0
LWPOLYLINE
  5
2CB
100
AcDbEntity
  8
0
 62
     8
100
AcDbPolyline
 90
        2
 70
     0
 39
0.003
 10
-0.54161
 20
2.77052
 40
0.003
 41
0.003
 10
-0.538264
 20
2.77137
 40
0.003
 41
0.003
  0
LWPOLYLINE
  5
2CC
100
AcDbEntity
  8
0
 62
     8
100
AcDbPolyline
 90
        2
 70
     0
 39
0.003
 10
-0.54161
 20
2.77052
 40
0.003
 41
0.003
 10
0.103453
 20
3.139913
 40
0.003
 41
0.003
  0
LWPOLYLINE
  5
2CD
100
AcDbEntity
  8
0
 62
     8
100
AcDbPolyline
 90
        2
 70
     0
 39
0.003
 10
0.103453
 20
3.139913
 40
0.003
 41
0.003
 10
0.100201
 20
3.139102
 40
0.003
 41
0.003
  0
LWPOLYLINE
  5
2CE
100
AcDbEntity
  8
0
 62
     8
100
AcDbPolyline
 90
        2
 70
     0
 39
0.003
 10
0.100201
 20
3.139102
 40
0.003
 41
0.003
 10
-0.544862
 20
2.769709
 40
0.003
 41
0.003
  0
LWPOLYLINE
  5
2CF
100
AcDbEntity
  8
0
 62
     8
100
AcDbPolyline
 90
        2
 70
     0
 39
0.003
 10
-0.544862
 20
2.769709
 40
0.003
 41
0.003
 10
-0.54161
 20
2.77052
 40
0.003
 41
0.003
  0
LWPOLYLINE
  5
2D0
100
AcDbEntity
  8
0
 62
     8
100
AcDbPolyline
 90
        2
 70
     0
 39
0.003
 10
-0.544862
 20
2.769709
 40
0.003
 41
0.003
 10
0.100201
 20
3.139102
 40
0.003
 41
0.003
  0
LWPOLYLINE
  5
2D1
100
AcDbEntity
  8
0
 62
     8
100
AcDbPolyline
 90
        2
 70
     0
 39
0.003
 10
0.100201
 20
3.139102
 40
0.003
 41
0.003
 10
0.097051
 20
3.138319
 40
0.003
 41
0.003
  0
LWPOLYLINE
  5
2D2
100
AcDbEntity
  8
0
 62
     8
100
AcDbPolyline
 90
        2
 70
     0
 39
0.003
 10
0.097051
 20
3.138319
 40
0.003
 41
0.003
 10
-0.548012
 20
2.768925
 40
0.003
 41
0.003
  0
LWPOLYLINE
  5
2D3
100
AcDbEntity
  8
0
 62
     8
100
AcDbPolyline
 90
        2
 70
     0
 39
0.003
 10
-0.548012
 20
2.768925
 40
0.003
 41
0.003
 10
-0.544862
 20
2.769709
 40
0.003
 41
0.003
  0
LWPOLYLINE
  5
2D4
100
AcDbEntity
  8
0
 62
     8
100
AcDbPolyline
 90
        2
 70
     0
 39
0.003
 10
-0.548012
 20
2.768925
 40
0.003
 41
0.003
 10
0.097051
 20
3.138319
 40
0.003
 41
0.003
  0
LWPOLYLINE
  5
2D5
100
AcDbEntity
  8
0
 62
     8
100
AcDbPolyline
 90
        2
 70
     0
 39
0.003
 10
0.097051
 20
3.138319
 40
0.003
 41
0.003
 10
0.093992
 20
3.137587
 40
0.003
 41
0.003
  0
LWPOLYLINE
  5
2D6
100
AcDbEntity
  8
0
 62
     8
100
AcDbPolyline
 90
        2
 70
     0
 39
0.003
 10
0.093992
 20
3.137587
 40
0.003
 41
0.003
 10
-0.551071
 20
2.768193
 40
0.003
 41
0.003
  0
LWPOLYLINE
  5
2D7
100
AcDbEntity
  8
0
 62
     8
100
AcDbPolyline
 90
        2
 70
     0
 39
0.003
 10
-0.551071
 20
2.768193
 40
0.003
 41
0.003
 10
-0.548012
 20
2.768925
 40
0.003
 41
0.003
  0
LWPOLYLINE
  5
2D8
100
AcDbEntity
  8
0
 62
     0
100
AcDbPolyline
 90
        2
 70
     0
 39
0.003
 10
-0.394717
 20
2.790835
 40
0.003
 41
0.003
 10
0.250346
 20
3.160228
 40
0.003
 41
0.003
  0
LWPOLYLINE
  5
2D9
100
AcDbEntity
  8
0
 62
     0
100
AcDbPolyline
 90
        2
 70
     0
 39
0.003
 10
0.250346
 20
3.160228
 40
0.003
 41
0.003
 10
0.243283
 20
3.160189
 40
0.003
 41
0.003
  0
LWPOLYLINE
  5
2DA
100
AcDbEntity
  8
0
 62
     0
100
AcDbPolyline
 90
        2
 70
     0
 39
0.003
 10
0.243283
 20
3.160189
 40
0.003
 41
0.003
 10
0.236374
 20
3.160067
 40
0.003
 41
0.003
  0
LWPOLYLINE
  5
2DB
100
AcDbEntity
  8
0
 62
     0
100
AcDbPolyline
 90
        2
 70
     0
 39
0.003
 10
0.236374
 20
3.160067
 40
0.003
 41
0.003
 10
0.22963
 20
3.159858
 40
0.003
 41
0.003
  0
LWPOLYLINE
  5
2DC
100
AcDbEntity
  8
0
 62
     0
100
AcDbPolyline
 90
        2
 70
     0
 39
0.003
 10
0.22963
 20
3.159858
 40
0.003
 41
0.003
 10
0.223043
 20
3.159587
 40
0.003
 41
0.003
  0
LWPOLYLINE
  5
2DD
100
AcDbEntity
  8
0
 62
     0
100
AcDbPolyline
 90
        2
 70
     0
 39
0.003
 10
0.223043
 20
3.159587
 40
0.003
 41
0.003
 10
0.216618
 20
3.159232
 40
0.003
 41
0.003
  0
LWPOLYLINE
  5
2DE
100
AcDbEntity
  8
0
 62
     0
100
AcDbPolyline
 90
        2
 70
     0
 39
0.003
 10
0.216618
 20
3.159232
 40
0.003
 41
0.003
 10
0.210339
 20
3.158815
 40
0.003
 41
0.003
  0
LWPOLYLINE
  5
2DF
100
AcDbEntity
  8
0
 62
     0
100
AcDbPolyline
 90
        2
 70
     0
 39
0.003
 10
0.210339
 20
3.158815
 40
0.003
 41
0.003
 10
0.204217
 20
3.158331
 40
0.003
 41
0.003
  0
LWPOLYLINE
  5
2E0
100
AcDbEntity
  8
0
 62
     0
100
AcDbPolyline
 90
        2
 70
     0
 39
0.003
 10
0.204217
 20
3.158331
 40
0.003
 41
0.003
 10
0.19824
 20
3.157795
 40
0.003
 41
0.003
  0
LWPOLYLINE
  5
2E1
100
AcDbEntity
  8
0
 62
     0
100
AcDbPolyline
 90
        2
 70
     0
 39
0.003
 10
0.19824
 20
3.157795
 40
0.003
 41
0.003
 10
0.192425
 20
3.157193
 40
0.003
 41
0.003
  0
LWPOLYLINE
  5
2E2
100
AcDbEntity
  8
0
 62
     0
100
AcDbPolyline
 90
        2
 70
     0
 39
0.003
 10
0.192425
 20
3.157193
 40
0.003
 41
0.003
 10
0.186744
 20
3.156547
 40
0.003
 41
0.003
  0
LWPOLYLINE
  5
2E3
100
AcDbEntity
  8
0
 62
     0
100
AcDbPolyline
 90
        2
 70
     0
 39
0.003
 10
0.186744
 20
3.156547
 40
0.003
 41
0.003
 10
0.181209
 20
3.15585
 40
0.003
 41
0.003
  0
LWPOLYLINE
  5
2E4
100
AcDbEntity
  8
0
 62
     0
100
AcDbPolyline
 90
        2
 70
     0
 39
0.003
 10
0.181209
 20
3.15585
 40
0.003
 41
0.003
 10
0.175811
 20
3.155114
 40
0.003
 41
0.003
  0
LWPOLYLINE
  5
2E5
100
AcDbEntity
  8
0
 62
     0
100
AcDbPolyline
 90
        2
 70
     0
 39
0.003
 10
0.175811
 20
3.155114
 40
0.003
 41
0.003
 10
0.170555
 20
3.154331
 40
0.003
 41
0.003
  0
LWPOLYLINE
  5
2E6
100
AcDbEntity
  8
0
 62
     0
100
AcDbPolyline
 90
        2
 70
     0
 39
0.003
 10
0.170555
 20
3.154331
 40
0.003
 41
0.003
 10
0.165433
 20
3.15352
 40
0.003
 41
0.003
  0
LWPOLYLINE
  5
2E7
100
AcDbEntity
  8
0
 62
     0
100
AcDbPolyline
 90
        2
 70
     0
 39
0.003
 10
0.165433
 20
3.15352
 40
0.003
 41
0.003
 10
0.160449
 20
3.152673
 40
0.003
 41
0.003
  0
LWPOLYLINE
  5
2E8
100
AcDbEntity
  8
0
 62
     0
100
AcDbPolyline
 90
        2
 70
     0
 39
0.003
 10
0.160449
 20
3.152673
 40
0.003
 41
0.003
 10
0.155591
 20
3.151811
 40
0.003
 41
0.003
  0
LWPOLYLINE
  5
2E9
100
AcDbEntity
  8
0
 62
     0
100
AcDbPolyline
 90
        2
 70
     0
 39
0.003
 10
0.155591
 20
3.151811
 40
0.003
 41
0.003
 10
0.150874
 20
3.150913
 40
0.003
 41
0.003
  0
LWPOLYLINE
  5
2EA
100
AcDbEntity
  8
0
 62
     0
100
AcDbPolyline
 90
        2
 70
     0
 39
0.003
 10
0.150874
 20
3.150913
 40
0.003
 41
0.003
 10
0.146276
 20
3.15
 40
0.003
 41
0.003
  0
LWPOLYLINE
  5
2EB
100
AcDbEntity
  8
0
 62
     0
100
AcDbPolyline
 90
        2
 70
     0
 39
0.003
 10
0.146276
 20
3.15
 40
0.003
 41
0.003
 10
0.141807
 20
3.149071
 40
0.003
 41
0.003
  0
LWPOLYLINE
  5
2EC
100
AcDbEntity
  8
0
 62
     0
100
AcDbPolyline
 90
        2
 70
     0
 39
0.003
 10
0.141807
 20
3.149071
 40
0.003
 41
0.003
 10
0.137453
 20
3.148138
 40
0.003
 41
0.003
  0
LWPOLYLINE
  5
2ED
100
AcDbEntity
  8
0
 62
     0
100
AcDbPolyline
 90
        2
 70
     0
 39
0.003
 10
0.137453
 20
3.148138
 40
0.003
 41
0.003
 10
0.133228
 20
3.147193
 40
0.003
 41
0.003
  0
LWPOLYLINE
  5
2EE
100
AcDbEntity
  8
0
 62
     0
100
AcDbPolyline
 90
        2
 70
     0
 39
0.003
 10
0.133228
 20
3.147193
 40
0.003
 41
0.003
 10
0.129118
 20
3.146248
 40
0.003
 41
0.003
  0
LWPOLYLINE
  5
2EF
100
AcDbEntity
  8
0
 62
     0
100
AcDbPolyline
 90
        2
 70
     0
 39
0.003
 10
0.129118
 20
3.146248
 40
0.003
 41
0.003
 10
0.125122
 20
3.145303
 40
0.003
 41
0.003
  0
LWPOLYLINE
  5
2F0
100
AcDbEntity
  8
0
 62
     0
100
AcDbPolyline
 90
        2
 70
     0
 39
0.003
 10
0.125122
 20
3.145303
 40
0.003
 41
0.003
 10
0.121236
 20
3.14437
 40
0.003
 41
0.003
  0
LWPOLYLINE
  5
2F1
100
AcDbEntity
  8
0
 62
     0
100
AcDbPolyline
 90
        2
 70
     0
 39
0.003
 10
0.121236
 20
3.14437
 40
0.003
 41
0.003
 10
0.117469
 20
3.143437
 40
0.003
 41
0.003
  0
LWPOLYLINE
  5
2F2
100
AcDbEntity
  8
0
 62
     0
100
AcDbPolyline
 90
        2
 70
     0
 39
0.003
 10
0.117469
 20
3.143437
 40
0.003
 41
0.003
 10
0.113807
 20
3.142528
 40
0.003
 41
0.003
  0
LWPOLYLINE
  5
2F3
100
AcDbEntity
  8
0
 62
     0
100
AcDbPolyline
 90
        2
 70
     0
 39
0.003
 10
0.113807
 20
3.142528
 40
0.003
 41
0.003
 10
0.110256
 20
3.14163
 40
0.003
 41
0.003
  0
LWPOLYLINE
  5
2F4
100
AcDbEntity
  8
0
 62
     0
100
AcDbPolyline
 90
        2
 70
     0
 39
0.003
 10
0.110256
 20
3.14163
 40
0.003
 41
0.003
 10
0.106799
 20
3.140764
 40
0.003
 41
0.003
  0
LWPOLYLINE
  5
2F5
100
AcDbEntity
  8
0
 62
     0
100
AcDbPolyline
 90
        2
 70
     0
 39
0.003
 10
0.106799
 20
3.140764
 40
0.003
 41
0.003
 10
0.103453
 20
3.139913
 40
0.003
 41
0.003
  0
LWPOLYLINE
  5
2F6
100
AcDbEntity
  8
0
 62
     0
100
AcDbPolyline
 90
        2
 70
     0
 39
0.003
 10
0.103453
 20
3.139913
 40
0.003
 41
0.003
 10
0.100201
 20
3.139102
 40
0.003
 41
0.003
  0
LWPOLYLINE
  5
2F7
100
AcDbEntity
  8
0
 62
     0
100
AcDbPolyline
 90
        2
 70
     0
 39
0.003
 10
0.100201
 20
3.139102
 40
0.003
 41
0.003
 10
0.097051
 20
3.138319
 40
0.003
 41
0.003
  0
LWPOLYLINE
  5
2F8
100
AcDbEntity
  8
0
 62
     0
100
AcDbPolyline
 90
        2
 70
     0
 39
0.003
 10
0.097051
 20
3.138319
 40
0.003
 41
0.003
 10
0.093992
 20
3.137587
 40
0.003
 41
0.003
  0
LWPOLYLINE
  5
2F9
100
AcDbEntity
  8
0
 62
     0
100
AcDbPolyline
 90
        2
 70
     0
 39
0.003
 10
0.093992
 20
3.137587
 40
0.003
 41
0.003
 10
-0.551071
 20
2.768193
 40
0.003
 41
0.003
  0
LWPOLYLINE
  5
2FA
100
AcDbEntity
  8
0
 62
     0
100
AcDbPolyline
 90
        2
 70
     0
 39
0.003
 10
-0.551071
 20
2.768193
 40
0.003
 41
0.003
 10
-0.548012
 20
2.768925
 40
0.003
 41
0.003
  0
LWPOLYLINE
  5
2FB
100
AcDbEntity
  8
0
 62
     0
100
AcDbPolyline
 90
        2
 70
     0
 39
0.003
 10
-0.548012
 20
2.768925
 40
0.003
 41
0.003
 10
-0.544862
 20
2.769709
 40
0.003
 41
0.003
  0
LWPOLYLINE
  5
2FC
100
AcDbEntity
  8
0
 62
     0
100
AcDbPolyline
 90
        2
 70
     0
 39
0.003
 10
-0.544862
 20
2.769709
 40
0.003
 41
0.003
 10
-0.54161
 20
2.77052
 40
0.003
 41
0.003
  0
LWPOLYLINE
  5
2FD
100
AcDbEntity
  8
0
 62
     0
100
AcDbPolyline
 90
        2
 70
     0
 39
0.003
 10
-0.54161
 20
2.77052
 40
0.003
 41
0.003
 10
-0.538264
 20
2.77137
 40
0.003
 41
0.003
  0
LWPOLYLINE
  5
2FE
100
AcDbEntity
  8
0
 62
     0
100
AcDbPolyline
 90
        2
 70
     0
 39
0.003
 10
-0.538264
 20
2.77137
 40
0.003
 41
0.003
 10
-0.534807
 20
2.772236
 40
0.003
 41
0.003
  0
LWPOLYLINE
  5
2FF
100
AcDbEntity
  8
0
 62
     0
100
AcDbPolyline
 90
        2
 70
     0
 39
0.003
 10
-0.534807
 20
2.772236
 40
0.003
 41
0.003
 10
-0.531256
 20
2.773134
 40
0.003
 41
0.003
  0
LWPOLYLINE
  5
300
100
AcDbEntity
  8
0
 62
     0
100
AcDbPolyline
 90
        2
 70
     0
 39
0.003
 10
-0.531256
 20
2.773134
 40
0.003
 41
0.003
 10
-0.527594
 20
2.774043
 40
0.003
 41
0.003
  0
LWPOLYLINE
  5
301
100
AcDbEntity
  8
0
 62
     0
100
AcDbPolyline
 90
        2
 70
     0
 39
0.003
 10
-0.527594
 20
2.774043
 40
0.003
 41
0.003
 10
-0.523827
 20
2.774976
 40
0.003
 41
0.003
  0
LWPOLYLINE
  5
302
100
AcDbEntity
  8
0
 62
     0
100
AcDbPolyline
 90
        2
 70
     0
 39
0.003
 10
-0.523827
 20
2.774976
 40
0.003
 41
0.003
 10
-0.519941
 20
2.775909
 40
0.003
 41
0.003
  0
LWPOLYLINE
  5
303
100
AcDbEntity
  8
0
 62
     0
100
AcDbPolyline
 90
        2
 70
     0
 39
0.003
 10
-0.519941
 20
2.775909
 40
0.003
 41
0.003
 10
-0.515945
 20
2.776854
 40
0.003
 41
0.003
  0
LWPOLYLINE
  5
304
100
AcDbEntity
  8
0
 62
     0
100
AcDbPolyline
 90
        2
 70
     0
 39
0.003
 10
-0.515945
 20
2.776854
 40
0.003
 41
0.003
 10
-0.511835
 20
2.777799
 40
0.003
 41
0.003
  0
LWPOLYLINE
  5
305
100
AcDbEntity
  8
0
 62
     0
100
AcDbPolyline
 90
        2
 70
     0
 39
0.003
 10
-0.511835
 20
2.777799
 40
0.003
 41
0.003
 10
-0.50761
 20
2.778744
 40
0.003
 41
0.003
  0
LWPOLYLINE
  5
306
100
AcDbEntity
  8
0
 62
     0
100
AcDbPolyline
 90
        2
 70
     0
 39
0.003
 10
-0.50761
 20
2.778744
 40
0.003
 41
0.003
 10
-0.503256
 20
2.779677
 40
0.003
 41
0.003
  0
LWPOLYLINE
  5
307
100
AcDbEntity
  8
0
 62
     0
100
AcDbPolyline
 90
        2
 70
     0
 39
0.003
 10
-0.503256
 20
2.779677
 40
0.003
 41
0.003
 10
-0.498787
 20
2.780606
 40
0.003
 41
0.003
  0
LWPOLYLINE
  5
308
100
AcDbEntity
  8
0
 62
     0
100
AcDbPolyline
 90
        2
 70
     0
 39
0.003
 10
-0.498787
 20
2.780606
 40
0.003
 41
0.003
 10
-0.494189
 20
2.78152
 40
0.003
 41
0.003
  0
LWPOLYLINE
  5
309
100
AcDbEntity
  8
0
 62
     0
100
AcDbPolyline
 90
        2
 70
     0
 39
0.003
 10
-0.494189
 20
2.78152
 40
0.003
 41
0.003
 10
-0.489472
 20
2.782417
 40
0.003
 41
0.003
  0
LWPOLYLINE
  5
30A
100
AcDbEntity
  8
0
 62
     0
100
AcDbPolyline
 90
        2
 70
     0
 39
0.003
 10
-0.489472
 20
2.782417
 40
0.003
 41
0.003
 10
-0.484614
 20
2.78328
 40
0.003
 41
0.003
  0
LWPOLYLINE
  5
30B
100
AcDbEntity
  8
0
 62
     0
100
AcDbPolyline
 90
        2
 70
     0
 39
0.003
 10
-0.484614
 20
2.78328
 40
0.003
 41
0.003
 10
-0.47963
 20
2.784126
 40
0.003
 41
0.003
  0
LWPOLYLINE
  5
30C
100
AcDbEntity
  8
0
 62
     0
100
AcDbPolyline
 90
        2
 70
     0
 39
0.003
 10
-0.47963
 20
2.784126
 40
0.003
 41
0.003
 10
-0.474508
 20
2.784937
 40
0.003
 41
0.003
  0
LWPOLYLINE
  5
30D
100
AcDbEntity
  8
0
 62
     0
100
AcDbPolyline
 90
        2
 70
     0
 39
0.003
 10
-0.474508
 20
2.784937
 40
0.003
 41
0.003
 10
-0.469252
 20
2.78572
 40
0.003
 41
0.003
  0
LWPOLYLINE
  5
30E
100
AcDbEntity
  8
0
 62
     0
100
AcDbPolyline
 90
        2
 70
     0
 39
0.003
 10
-0.469252
 20
2.78572
 40
0.003
 41
0.003
 10
-0.463854
 20
2.786457
 40
0.003
 41
0.003
  0
LWPOLYLINE
  5
30F
100
AcDbEntity
  8
0
 62
     0
100
AcDbPolyline
 90
        2
 70
     0
 39
0.003
 10
-0.463854
 20
2.786457
 40
0.003
 41
0.003
 10
-0.458319
 20
2.787154
 40
0.003
 41
0.003
  0
LWPOLYLINE
  5
310
100
AcDbEntity
  8
0
 62
     0
100
AcDbPolyline
 90
        2
 70
     0
 39
0.003
 10
-0.458319
 20
2.787154
 40
0.003
 41
0.003
 10
-0.452638
 20
2.787799
 40
0.003
 41
0.003
  0
LWPOLYLINE
  5
311
100
AcDbEntity
  8
0
 62
     0
100
AcDbPolyline
 90
        2
 70
     0
 39
0.003
 10
-0.452638
 20
2.787799
 40
0.003
 41
0.003
 10
-0.446823
 20
2.788402
 40
0.003
 41
0.003
  0
LWPOLYLINE
  5
312
100
AcDbEntity
  8
0
 62
     0
100
AcDbPolyline
 90
        2
 70
     0
 39
0.003
 10
-0.446823
 20
2.788402
 40
0.003
 41
0.003
 10
-0.440846
 20
2.788937
 40
0.003
 41
0.003
  0
LWPOLYLINE
  5
313
100
AcDbEntity
  8
0
 62
     0
100
AcDbPolyline
 90
        2
 70
     0
 39
0.003
 10
-0.440846
 20
2.788937
 40
0.003
 41
0.003
 10
-0.434724
 20
2.789421
 40
0.003
 41
0.003
  0
LWPOLYLINE
  5
314
100
AcDbEntity
  8
0
 62
     0
100
AcDbPolyline
 90
        2
 70
     0
 39
0.003
 10
-0.434724
 20
2.789421
 40
0.003
 41
0.003
 10
-0.428445
 20
2.789839
 40
0.003
 41
0.003
  0
LWPOLYLINE
  5
315
100
AcDbEntity
  8
0
 62
     0
100
AcDbPolyline
 90
        2
 70
     0
 39
0.003
 10
-0.428445
 20
2.789839
 40
0.003
 41
0.003
 10
-0.42202
 20
2.790193
 40
0.003
 41
0.003
  0
LWPOLYLINE
  5
316
100
AcDbEntity
  8
0
 62
     0
100
AcDbPolyline
 90
        2
 70
     0
 39
0.003
 10
-0.42202
 20
2.790193
 40
0.003
 41
0.003
 10
-0.415433
 20
2.790465
 40
0.003
 41
0.003
  0
LWPOLYLINE
  5
317
100
AcDbEntity
  8
0
 62
     0
100
AcDbPolyline
 90
        2
 70
     0
 39
0.003
 10
-0.415433
 20
2.790465
 40
0.003
 41
0.003
 10
-0.408689
 20
2.790673
 40
0.003
 41
0.003
  0
LWPOLYLINE
  5
318
100
AcDbEntity
  8
0
 62
     0
100
AcDbPolyline
 90
        2
 70
     0
 39
0.003
 10
-0.408689
 20
2.790673
 40
0.003
 41
0.003
 10
-0.40178
 20
2.790795
 40
0.003
 41
0.003
  0
LWPOLYLINE
  5
319
100
AcDbEntity
  8
0
 62
     0
100
AcDbPolyline
 90
        2
 70
     0
 39
0.003
 10
-0.40178
 20
2.790795
 40
0.003
 41
0.003
 10
-0.394717
 20
2.790835
 40
0.003
 41
0.003
  0
LWPOLYLINE
  5
31A
100
AcDbEntity
  8
0
 62
   127
100
AcDbPolyline
 90
        2
 70
     0
 39
0.003
 10
-2.487921
 20
2.133843
 40
0.003
 41
0.003
 10
-1.842858
 20
2.503236
 40
0.003
 41
0.003
  0
LWPOLYLINE
  5
31B
100
AcDbEntity
  8
0
 62
   127
100
AcDbPolyline
 90
        2
 70
     0
 39
0.003
 10
-1.842858
 20
2.503236
 40
0.003
 41
0.003
 10
-1.858024
 20
2.497972
 40
0.003
 41
0.003
  0
LWPOLYLINE
  5
31C
100
AcDbEntity
  8
0
 62
   127
100
AcDbPolyline
 90
        2
 70
     0
 39
0.003
 10
-1.858024
 20
2.497972
 40
0.003
 41
0.003
 10
-2.503087
 20
2.128579
 40
0.003
 41
0.003
  0
LWPOLYLINE
  5
31D
100
AcDbEntity
  8
0
 62
   127
100
AcDbPolyline
 90
        2
 70
     0
 39
0.003
 10
-2.503087
 20
2.128579
 40
0.003
 41
0.003
 10
-2.487921
 20
2.133843
 40
0.003
 41
0.003
  0
LWPOLYLINE
  5
31E
100
AcDbEntity
  8
0
 62
   251
100
AcDbPolyline
 90
        2
 70
     0
 39
0.003
 10
-2.503087
 20
2.128579
 40
0.003
 41
0.003
 10
-1.858024
 20
2.497972
 40
0.003
 41
0.003
  0
LWPOLYLINE
  5
31F
100
AcDbEntity
  8
0
 62
   251
100
AcDbPolyline
 90
        2
 70
     0
 39
0.003
 10
-1.858024
 20
2.497972
 40
0.003
 41
0.003
 10
-1.872917
 20
2.492142
 40
0.003
 41
0.003
  0
LWPOLYLINE
  5
320
100
AcDbEntity
  8
0
 62
   251
100
AcDbPolyline
 90
        2
 70
     0
 39
0.003
 10
-1.872917
 20
2.492142
 40
0.003
 41
0.003
 10
-2.51798
 20
2.122748
 40
0.003
 41
0.003
  0
LWPOLYLINE
  5
321
100
AcDbEntity
  8
0
 62
   251
100
AcDbPolyline
 90
        2
 70
     0
 39
0.003
 10
-2.51798
 20
2.122748
 40
0.003
 41
0.003
 10
-2.503087
 20
2.128579
 40
0.003
 41
0.003
  0
LWPOLYLINE
  5
322
100
AcDbEntity
  8
0
 62
   251
100
AcDbPolyline
 90
        2
 70
     0
 39
0.003
 10
-2.51798
 20
2.122748
 40
0.003
 41
0.003
 10
-1.872917
 20
2.492142
 40
0.003
 41
0.003
  0
LWPOLYLINE
  5
323
100
AcDbEntity
  8
0
 62
   251
100
AcDbPolyline
 90
        2
 70
     0
 39
0.003
 10
-1.872917
 20
2.492142
 40
0.003
 41
0.003
 10
-1.88752
 20
2.485744
 40
0.003
 41
0.003
  0
LWPOLYLINE
  5
324
100
AcDbEntity
  8
0
 62
   251
100
AcDbPolyline
 90
        2
 70
     0
 39
0.003
 10
-1.88752
 20
2.485744
 40
0.003
 41
0.003
 10
-2.532583
 20
2.11635
 40
0.003
 41
0.003
  0
LWPOLYLINE
  5
325
100
AcDbEntity
  8
0
 62
   251
100
AcDbPolyline
 90
        2
 70
     0
 39
0.003
 10
-2.532583
 20
2.11635
 40
0.003
 41
0.003
 10
-2.51798
 20
2.122748
 40
0.003
 41
0.003
  0
LWPOLYLINE
  5
326
100
AcDbEntity
  8
0
 62
   139
100
AcDbPolyline
 90
        2
 70
     0
 39
0.003
 10
-2.532583
 20
2.11635
 40
0.003
 41
0.003
 10
-1.88752
 20
2.485744
 40
0.003
 41
0.003
  0
LWPOLYLINE
  5
327
100
AcDbEntity
  8
0
 62
   139
100
AcDbPolyline
 90
        2
 70
     0
 39
0.003
 10
-1.88752
 20
2.485744
 40
0.003
 41
0.003
 10
-1.901827
 20
2.478799
 40
0.003
 41
0.003
  0
LWPOLYLINE
  5
328
100
AcDbEntity
  8
0
 62
   139
100
AcDbPolyline
 90
        2
 70
     0
 39
0.003
 10
-1.901827
 20
2.478799
 40
0.003
 41
0.003
 10
-2.54689
 20
2.109406
 40
0.003
 41
0.003
  0
LWPOLYLINE
  5
329
100
AcDbEntity
  8
0
 62
   139
100
AcDbPolyline
 90
        2
 70
     0
 39
0.003
 10
-2.54689
 20
2.109406
 40
0.003
 41
0.003
 10
-2.532583
 20
2.11635
 40
0.003
 41
0.003
  0
LWPOLYLINE
  5
32A
100
AcDbEntity
  8
0
 62
     0
100
AcDbPolyline
 90
        2
 70
     0
 39
0.003
 10
-2.487921
 20
2.133843
 40
0.003
 41
0.003
 10
-1.842858
 20
2.503236
 40
0.003
 41
0.003
  0
LWPOLYLINE
  5
32B
100
AcDbEntity
  8
0
 62
     0
100
AcDbPolyline
 90
        2
 70
     0
 39
0.003
 10
-1.842858
 20
2.503236
 40
0.003
 41
0.003
 10
-1.858024
 20
2.497972
 40
0.003
 41
0.003
  0
LWPOLYLINE
  5
32C
100
AcDbEntity
  8
0
 62
     0
100
AcDbPolyline
 90
        2
 70
     0
 39
0.003
 10
-1.858024
 20
2.497972
 40
0.003
 41
0.003
 10
-1.872917
 20
2.492142
 40
0.003
 41
0.003
  0
LWPOLYLINE
  5
32D
100
AcDbEntity
  8
0
 62
     0
100
AcDbPolyline
 90
        2
 70
     0
 39
0.003
 10
-1.872917
 20
2.492142
 40
0.003
 41
0.003
 10
-1.88752
 20
2.485744
 40
0.003
 41
0.003
  0
LWPOLYLINE
  5
32E
100
AcDbEntity
  8
0
 62
     0
100
AcDbPolyline
 90
        2
 70
     0
 39
0.003
 10
-1.88752
 20
2.485744
 40
0.003
 41
0.003
 10
-1.901827
 20
2.478799
 40
0.003
 41
0.003
  0
LWPOLYLINE
  5
32F
100
AcDbEntity
  8
0
 62
     0
100
AcDbPolyline
 90
        2
 70
     0
 39
0.003
 10
-1.901827
 20
2.478799
 40
0.003
 41
0.003
 10
-2.54689
 20
2.109406
 40
0.003
 41
0.003
  0
LWPOLYLINE
  5
330
100
AcDbEntity
  8
0
 62
     0
100
AcDbPolyline
 90
        2
 70
     0
 39
0.003
 10
-2.54689
 20
2.109406
 40
0.003
 41
0.003
 10
-2.532583
 20
2.11635
 40
0.003
 41
0.003
  0
LWPOLYLINE
  5
331
100
AcDbEntity
  8
0
 62
     0
100
AcDbPolyline
 90
        2
 70
     0
 39
0.003
 10
-2.532583
 20
2.11635
 40
0.003
 41
0.003
 10
-2.51798
 20
2.122748
 40
0.003
 41
0.003
  0
LWPOLYLINE
  5
332
100
AcDbEntity
  8
0
 62
     0
100
AcDbPolyline
 90
        2
 70
     0
 39
0.003
 10
-2.51798
 20
2.122748
 40
0.003
 41
0.003
 10
-2.503087
 20
2.128579
 40
0.003
 41
0.003
  0
LWPOLYLINE
  5
333
100
AcDbEntity
  8
0
 62
     0
100
AcDbPolyline
 90
        2
 70
     0
 39
0.003
 10
-2.503087
 20
2.128579
 40
0.003
 41
0.003
 10
-2.487921
 20
2.133843
 40
0.003
 41
0.003
  0
LWPOLYLINE
  5
334
100
AcDbEntity
  8
0
 62
   127
100
AcDbPolyline
 90
        2
 70
     0
 39
0.003
 10
-0.551071
 20
2.768193
 40
0.003
 41
0.003
 10
0.093992
 20
3.137587
 40
0.003
 41
0.003
  0
LWPOLYLINE
  5
335
100
AcDbEntity
  8
0
 62
   127
100
AcDbPolyline
 90
        2
 70
     0
 39
0.003
 10
0.093992
 20
3.137587
 40
0.003
 41
0.003
 10
-1.843154
 20
2.613772
 40
0.003
 41
0.003
  0
LWPOLYLINE
  5
336
100
AcDbEntity
  8
0
 62
   127
100
AcDbPolyline
 90
        2
 70
     0
 39
0.003
 10
-1.843154
 20
2.613772
 40
0.003
 41
0.003
 10
-2.488217
 20
2.244378
 40
0.003
 41
0.003
  0
LWPOLYLINE
  5
337
100
AcDbEntity
  8
0
 62
   127
100
AcDbPolyline
 90
        2
 70
     0
 39
0.003
 10
-2.488217
 20
2.244378
 40
0.003
 41
0.003
 10
-0.551071
 20
2.768193
 40
0.003
 41
0.003
  0
LWPOLYLINE
  5
338
100
AcDbEntity
  8
0
 62
     0
100
AcDbPolyline
 90
        2
 70
     0
 39
0.003
 10
-0.551071
 20
2.768193
 40
0.003
 41
0.003
 10
0.093992
 20
3.137587
 40
0.003
 41
0.003
  0
LWPOLYLINE
  5
339
100
AcDbEntity
  8
0
 62
     0
100
AcDbPolyline
 90
        2
 70
     0
 39
0.003
 10
0.093992
 20
3.137587
 40
0.003
 41
0.003
 10
-1.843154
 20
2.613772
 40
0.003
 41
0.003
  0
LWPOLYLINE
  5
33A
100
AcDbEntity
  8
0
 62
     0
100
AcDbPolyline
 90
        2
 70
     0
 39
0.003
 10
-1.843154
 20
2.613772
 40
0.003
 41
0.003
 10
-2.488217
 20
2.244378
 40
0.003
 41
0.003
  0
LWPOLYLINE
  5
33B
100
AcDbEntity
  8
0
 62
     0
100
AcDbPolyline
 90
        2
 70
     0
 39
0.003
 10
-2.488217
 20
2.244378
 40
0.003
 41
0.003
 10
-0.551071
 20
2.768193
 40
0.003
 41
0.003
  0
LWPOLYLINE
  5
33C
100
AcDbEntity
  8
0
 62
     9
100
AcDbPolyline
 90
        2
 70
     0
 39
0.003
 10
1.808823
 20
1.415185
 40
0.003
 41
0.003
 10
2.453886
 20
1.784579
 40
0.003
 41
0.003
  0
LWPOLYLINE
  5
33D
100
AcDbEntity
  8
0
 62
     9
100
AcDbPolyline
 90
        2
 70
     0
 39
0.003
 10
2.453886
 20
1.784579
 40
0.003
 41
0.003
 10
2.467201
 20
1.794476
 40
0.003
 41
0.003
  0
LWPOLYLINE
  5
33E
100
AcDbEntity
  8
0
 62
     9
100
AcDbPolyline
 90
        2
 70
     0
 39
0.003
 10
2.467201
 20
1.794476
 40
0.003
 41
0.003
 10
1.822138
 20
1.425083
 40
0.003
 41
0.003
  0
LWPOLYLINE
  5
33F
100
AcDbEntity
  8
0
 62
     9
100
AcDbPolyline
 90
        2
 70
     0
 39
0.003
 10
1.822138
 20
1.425083
 40
0.003
 41
0.003
 10
1.808823
 20
1.415185
 40
0.003
 41
0.003
  0
LWPOLYLINE
  5
340
100
AcDbEntity
  8
0
 62
     9
100
AcDbPolyline
 90
        2
 70
     0
 39
0.003
 10
1.822138
 20
1.425083
 40
0.003
 41
0.003
 10
2.467201
 20
1.794476
 40
0.003
 41
0.003
  0
LWPOLYLINE
  5
341
100
AcDbEntity
  8
0
 62
     9
100
AcDbPolyline
 90
        2
 70
     0
 39
0.003
 10
2.467201
 20
1.794476
 40
0.003
 41
0.003
 10
2.480087
 20
1.804894
 40
0.003
 41
0.003
  0
LWPOLYLINE
  5
342
100
AcDbEntity
  8
0
 62
     9
100
AcDbPolyline
 90
        2
 70
     0
 39
0.003
 10
2.480087
 20
1.804894
 40
0.003
 41
0.003
 10
1.835024
 20
1.4355
 40
0.003
 41
0.003
  0
LWPOLYLINE
  5
343
100
AcDbEntity
  8
0
 62
     9
100
AcDbPolyline
 90
        2
 70
     0
 39
0.003
 10
1.835024
 20
1.4355
 40
0.003
 41
0.003
 10
1.822138
 20
1.425083
 40
0.003
 41
0.003
  0
LWPOLYLINE
  5
344
100
AcDbEntity
  8
0
 62
     9
100
AcDbPolyline
 90
        2
 70
     0
 39
0.003
 10
1.835024
 20
1.4355
 40
0.003
 41
0.003
 10
2.480087
 20
1.804894
 40
0.003
 41
0.003
  0
LWPOLYLINE
  5
345
100
AcDbEntity
  8
0
 62
     9
100
AcDbPolyline
 90
        2
 70
     0
 39
0.003
 10
2.480087
 20
1.804894
 40
0.003
 41
0.003
 10
2.492543
 20
1.815823
 40
0.003
 41
0.003
  0
LWPOLYLINE
  5
346
100
AcDbEntity
  8
0
 62
     9
100
AcDbPolyline
 90
        2
 70
     0
 39
0.003
 10
2.492543
 20
1.815823
 40
0.003
 41
0.003
 10
1.84748
 20
1.446429
 40
0.003
 41
0.003
  0
LWPOLYLINE
  5
347
100
AcDbEntity
  8
0
 62
     9
100
AcDbPolyline
 90
        2
 70
     0
 39
0.003
 10
1.84748
 20
1.446429
 40
0.003
 41
0.003
 10
1.835024
 20
1.4355
 40
0.003
 41
0.003
  0
LWPOLYLINE
  5
348
100
AcDbEntity
  8
0
 62
     9
100
AcDbPolyline
 90
        2
 70
     0
 39
0.003
 10
1.84748
 20
1.446429
 40
0.003
 41
0.003
 10
2.492543
 20
1.815823
 40
0.003
 41
0.003
  0
LWPOLYLINE
  5
349
100
AcDbEntity
  8
0
 62
     9
100
AcDbPolyline
 90
        2
 70
     0
 39
0.003
 10
2.492543
 20
1.815823
 40
0.003
 41
0.003
 10
2.504539
 20
1.827236
 40
0.003
 41
0.003
  0
LWPOLYLINE
  5
34A
100
AcDbEntity
  8
0
 62
     9
100
AcDbPolyline
 90
        2
 70
     0
 39
0.003
 10
2.504539
 20
1.827236
 40
0.003
 41
0.003
 10
1.859476
 20
1.457843
 40
0.003
 41
0.003
  0
LWPOLYLINE
  5
34B
100
AcDbEntity
  8
0
 62
     9
100
AcDbPolyline
 90
        2
 70
     0
 39
0.003
 10
1.859476
 20
1.457843
 40
0.003
 41
0.003
 10
1.84748
 20
1.446429
 40
0.003
 41
0.003
  0
LWPOLYLINE
  5
34C
100
AcDbEntity
  8
0
 62
     9
100
AcDbPolyline
 90
        2
 70
     0
 39
0.003
 10
1.859476
 20
1.457843
 40
0.003
 41
0.003
 10
2.504539
 20
1.827236
 40
0.003
 41
0.003
  0
LWPOLYLINE
  5
34D
100
AcDbEntity
  8
0
 62
     9
100
AcDbPolyline
 90
        2
 70
     0
 39
0.003
 10
2.504539
 20
1.827236
 40
0.003
 41
0.003
 10
2.516071
 20
1.839126
 40
0.003
 41
0.003
  0
LWPOLYLINE
  5
34E
100
AcDbEntity
  8
0
 62
     9
100
AcDbPolyline
 90
        2
 70
     0
 39
0.003
 10
2.516071
 20
1.839126
 40
0.003
 41
0.003
 10
1.871008
 20
1.469732
 40
0.003
 41
0.003
  0
LWPOLYLINE
  5
34F
100
AcDbEntity
  8
0
 62
     9
100
AcDbPolyline
 90
        2
 70
     0
 39
0.003
 10
1.871008
 20
1.469732
 40
0.003
 41
0.003
 10
1.859476
 20
1.457843
 40
0.003
 41
0.003
  0
LWPOLYLINE
  5
350
100
AcDbEntity
  8
0
 62
     9
100
AcDbPolyline
 90
        2
 70
     0
 39
0.003
 10
1.871008
 20
1.469732
 40
0.003
 41
0.003
 10
2.516071
 20
1.839126
 40
0.003
 41
0.003
  0
LWPOLYLINE
  5
351
100
AcDbEntity
  8
0
 62
     9
100
AcDbPolyline
 90
        2
 70
     0
 39
0.003
 10
2.516071
 20
1.839126
 40
0.003
 41
0.003
 10
2.527114
 20
1.851472
 40
0.003
 41
0.003
  0
LWPOLYLINE
  5
352
100
AcDbEntity
  8
0
 62
     9
100
AcDbPolyline
 90
        2
 70
     0
 39
0.003
 10
2.527114
 20
1.851472
 40
0.003
 41
0.003
 10
1.882051
 20
1.482079
 40
0.003
 41
0.003
  0
LWPOLYLINE
  5
353
100
AcDbEntity
  8
0
 62
     9
100
AcDbPolyline
 90
        2
 70
     0
 39
0.003
 10
1.882051
 20
1.482079
 40
0.003
 41
0.003
 10
1.871008
 20
1.469732
 40
0.003
 41
0.003
  0
LWPOLYLINE
  5
354
100
AcDbEntity
  8
0
 62
     9
100
AcDbPolyline
 90
        2
 70
     0
 39
0.003
 10
1.882051
 20
1.482079
 40
0.003
 41
0.003
 10
2.527114
 20
1.851472
 40
0.003
 41
0.003
  0
LWPOLYLINE
  5
355
100
AcDbEntity
  8
0
 62
     9
100
AcDbPolyline
 90
        2
 70
     0
 39
0.003
 10
2.527114
 20
1.851472
 40
0.003
 41
0.003
 10
2.537661
 20
1.864264
 40
0.003
 41
0.003
  0
LWPOLYLINE
  5
356
100
AcDbEntity
  8
0
 62
     9
100
AcDbPolyline
 90
        2
 70
     0
 39
0.003
 10
2.537661
 20
1.864264
 40
0.003
 41
0.003
 10
1.892598
 20
1.49487
 40
0.003
 41
0.003
  0
LWPOLYLINE
  5
357
100
AcDbEntity
  8
0
 62
     9
100
AcDbPolyline
 90
        2
 70
     0
 39
0.003
 10
1.892598
 20
1.49487
 40
0.003
 41
0.003
 10
1.882051
 20
1.482079
 40
0.003
 41
0.003
  0
LWPOLYLINE
  5
358
100
AcDbEntity
  8
0
 62
     9
100
AcDbPolyline
 90
        2
 70
     0
 39
0.003
 10
1.892598
 20
1.49487
 40
0.003
 41
0.003
 10
2.537661
 20
1.864264
 40
0.003
 41
0.003
  0
LWPOLYLINE
  5
359
100
AcDbEntity
  8
0
 62
     9
100
AcDbPolyline
 90
        2
 70
     0
 39
0.003
 10
2.537661
 20
1.864264
 40
0.003
 41
0.003
 10
2.547685
 20
1.877472
 40
0.003
 41
0.003
  0
LWPOLYLINE
  5
35A
100
AcDbEntity
  8
0
 62
     9
100
AcDbPolyline
 90
        2
 70
     0
 39
0.003
 10
2.547685
 20
1.877472
 40
0.003
 41
0.003
 10
1.902622
 20
1.508079
 40
0.003
 41
0.003
  0
LWPOLYLINE
  5
35B
100
AcDbEntity
  8
0
 62
     9
100
AcDbPolyline
 90
        2
 70
     0
 39
0.003
 10
1.902622
 20
1.508079
 40
0.003
 41
0.003
 10
1.892598
 20
1.49487
 40
0.003
 41
0.003
  0
LWPOLYLINE
  5
35C
100
AcDbEntity
  8
0
 62
     9
100
AcDbPolyline
 90
        2
 70
     0
 39
0.003
 10
1.902622
 20
1.508079
 40
0.003
 41
0.003
 10
2.547685
 20
1.877472
 40
0.003
 41
0.003
  0
LWPOLYLINE
  5
35D
100
AcDbEntity
  8
0
 62
     9
100
AcDbPolyline
 90
        2
 70
     0
 39
0.003
 10
2.547685
 20
1.877472
 40
0.003
 41
0.003
 10
2.557177
 20
1.891094
 40
0.003
 41
0.003
  0
LWPOLYLINE
  5
35E
100
AcDbEntity
  8
0
 62
     9
100
AcDbPolyline
 90
        2
 70
     0
 39
0.003
 10
2.557177
 20
1.891094
 40
0.003
 41
0.003
 10
1.912114
 20
1.521701
 40
0.003
 41
0.003
  0
LWPOLYLINE
  5
35F
100
AcDbEntity
  8
0
 62
     9
100
AcDbPolyline
 90
        2
 70
     0
 39
0.003
 10
1.912114
 20
1.521701
 40
0.003
 41
0.003
 10
1.902622
 20
1.508079
 40
0.003
 41
0.003
  0
LWPOLYLINE
  5
360
100
AcDbEntity
  8
0
 62
     9
100
AcDbPolyline
 90
        2
 70
     0
 39
0.003
 10
1.912114
 20
1.521701
 40
0.003
 41
0.003
 10
2.557177
 20
1.891094
 40
0.003
 41
0.003
  0
LWPOLYLINE
  5
361
100
AcDbEntity
  8
0
 62
     9
100
AcDbPolyline
 90
        2
 70
     0
 39
0.003
 10
2.557177
 20
1.891094
 40
0.003
 41
0.003
 10
2.566118
 20
1.90511
 40
0.003
 41
0.003
  0
LWPOLYLINE
  5
362
100
AcDbEntity
  8
0
 62
     9
100
AcDbPolyline
 90
        2
 70
     0
 39
0.003
 10
2.566118
 20
1.90511
 40
0.003
 41
0.003
 10
1.921055
 20
1.535717
 40
0.003
 41
0.003
  0
LWPOLYLINE
  5
363
100
AcDbEntity
  8
0
 62
     9
100
AcDbPolyline
 90
        2
 70
     0
 39
0.003
 10
1.921055
 20
1.535717
 40
0.003
 41
0.003
 10
1.912114
 20
1.521701
 40
0.003
 41
0.003
  0
LWPOLYLINE
  5
364
100
AcDbEntity
  8
0
 62
     9
100
AcDbPolyline
 90
        2
 70
     0
 39
0.003
 10
1.921055
 20
1.535717
 40
0.003
 41
0.003
 10
2.566118
 20
1.90511
 40
0.003
 41
0.003
  0
LWPOLYLINE
  5
365
100
AcDbEntity
  8
0
 62
     9
100
AcDbPolyline
 90
        2
 70
     0
 39
0.003
 10
2.566118
 20
1.90511
 40
0.003
 41
0.003
 10
2.574504
 20
1.919512
 40
0.003
 41
0.003
  0
LWPOLYLINE
  5
366
100
AcDbEntity
  8
0
 62
     9
100
AcDbPolyline
 90
        2
 70
     0
 39
0.003
 10
2.574504
 20
1.919512
 40
0.003
 41
0.003
 10
1.929441
 20
1.550118
 40
0.003
 41
0.003
  0
LWPOLYLINE
  5
367
100
AcDbEntity
  8
0
 62
     9
100
AcDbPolyline
 90
        2
 70
     0
 39
0.003
 10
1.929441
 20
1.550118
 40
0.003
 41
0.003
 10
1.921055
 20
1.535717
 40
0.003
 41
0.003
  0
LWPOLYLINE
  5
368
100
AcDbEntity
  8
0
 62
     9
100
AcDbPolyline
 90
        2
 70
     0
 39
0.003
 10
1.929441
 20
1.550118
 40
0.003
 41
0.003
 10
2.574504
 20
1.919512
 40
0.003
 41
0.003
  0
LWPOLYLINE
  5
369
100
AcDbEntity
  8
0
 62
     9
100
AcDbPolyline
 90
        2
 70
     0
 39
0.003
 10
2.574504
 20
1.919512
 40
0.003
 41
0.003
 10
2.582299
 20
1.934268
 40
0.003
 41
0.003
  0
LWPOLYLINE
  5
36A
100
AcDbEntity
  8
0
 62
     9
100
AcDbPolyline
 90
        2
 70
     0
 39
0.003
 10
2.582299
 20
1.934268
 40
0.003
 41
0.003
 10
1.937236
 20
1.564874
 40
0.003
 41
0.003
  0
LWPOLYLINE
  5
36B
100
AcDbEntity
  8
0
 62
     9
100
AcDbPolyline
 90
        2
 70
     0
 39
0.003
 10
1.937236
 20
1.564874
 40
0.003
 41
0.003
 10
1.929441
 20
1.550118
 40
0.003
 41
0.003
  0
LWPOLYLINE
  5
36C
100
AcDbEntity
  8
0
 62
     9
100
AcDbPolyline
 90
        2
 70
     0
 39
0.003
 10
1.937236
 20
1.564874
 40
0.003
 41
0.003
 10
2.582299
 20
1.934268
 40
0.003
 41
0.003
  0
LWPOLYLINE
  5
36D
100
AcDbEntity
  8
0
 62
     9
100
AcDbPolyline
 90
        2
 70
     0
 39
0.003
 10
2.582299
 20
1.934268
 40
0.003
 41
0.003
 10
2.589508
 20
1.949382
 40
0.003
 41
0.003
  0
LWPOLYLINE
  5
36E
100
AcDbEntity
  8
0
 62
     9
100
AcDbPolyline
 90
        2
 70
     0
 39
0.003
 10
2.589508
 20
1.949382
 40
0.003
 41
0.003
 10
1.944445
 20
1.579988
 40
0.003
 41
0.003
  0
LWPOLYLINE
  5
36F
100
AcDbEntity
  8
0
 62
     9
100
AcDbPolyline
 90
        2
 70
     0
 39
0.003
 10
1.944445
 20
1.579988
 40
0.003
 41
0.003
 10
1.937236
 20
1.564874
 40
0.003
 41
0.003
  0
LWPOLYLINE
  5
370
100
AcDbEntity
  8
0
 62
     9
100
AcDbPolyline
 90
        2
 70
     0
 39
0.003
 10
1.944445
 20
1.579988
 40
0.003
 41
0.003
 10
2.589508
 20
1.949382
 40
0.003
 41
0.003
  0
LWPOLYLINE
  5
371
100
AcDbEntity
  8
0
 62
     9
100
AcDbPolyline
 90
        2
 70
     0
 39
0.003
 10
2.589508
 20
1.949382
 40
0.003
 41
0.003
 10
2.596102
 20
1.964819
 40
0.003
 41
0.003
  0
LWPOLYLINE
  5
372
100
AcDbEntity
  8
0
 62
     9
100
AcDbPolyline
 90
        2
 70
     0
 39
0.003
 10
2.596102
 20
1.964819
 40
0.003
 41
0.003
 10
1.951039
 20
1.595425
 40
0.003
 41
0.003
  0
LWPOLYLINE
  5
373
100
AcDbEntity
  8
0
 62
     9
100
AcDbPolyline
 90
        2
 70
     0
 39
0.003
 10
1.951039
 20
1.595425
 40
0.003
 41
0.003
 10
1.944445
 20
1.579988
 40
0.003
 41
0.003
  0
LWPOLYLINE
  5
374
100
AcDbEntity
  8
0
 62
     9
100
AcDbPolyline
 90
        2
 70
     0
 39
0.003
 10
1.951039
 20
1.595425
 40
0.003
 41
0.003
 10
2.596102
 20
1.964819
 40
0.003
 41
0.003
  0
LWPOLYLINE
  5
375
100
AcDbEntity
  8
0
 62
     9
100
AcDbPolyline
 90
        2
 70
     0
 39
0.003
 10
2.596102
 20
1.964819
 40
0.003
 41
0.003
 10
2.602075
 20
1.980579
 40
0.003
 41
0.003
  0
LWPOLYLINE
  5
376
100
AcDbEntity
  8
0
 62
     9
100
AcDbPolyline
 90
        2
 70
     0
 39
0.003
 10
2.602075
 20
1.980579
 40
0.003
 41
0.003
 10
1.957012
 20
1.611185
 40
0.003
 41
0.003
  0
LWPOLYLINE
  5
377
100
AcDbEntity
  8
0
 62
     9
100
AcDbPolyline
 90
        2
 70
     0
 39
0.003
 10
1.957012
 20
1.611185
 40
0.003
 41
0.003
 10
1.951039
 20
1.595425
 40
0.003
 41
0.003
  0
LWPOLYLINE
  5
378
100
AcDbEntity
  8
0
 62
     9
100
AcDbPolyline
 90
        2
 70
     0
 39
0.003
 10
1.957012
 20
1.611185
 40
0.003
 41
0.003
 10
2.602075
 20
1.980579
 40
0.003
 41
0.003
  0
LWPOLYLINE
  5
379
100
AcDbEntity
  8
0
 62
     9
100
AcDbPolyline
 90
        2
 70
     0
 39
0.003
 10
2.602075
 20
1.980579
 40
0.003
 41
0.003
 10
2.607394
 20
1.99663
 40
0.003
 41
0.003
  0
LWPOLYLINE
  5
37A
100
AcDbEntity
  8
0
 62
     9
100
AcDbPolyline
 90
        2
 70
     0
 39
0.003
 10
2.607394
 20
1.99663
 40
0.003
 41
0.003
 10
1.962331
 20
1.627236
 40
0.003
 41
0.003
  0
LWPOLYLINE
  5
37B
100
AcDbEntity
  8
0
 62
     9
100
AcDbPolyline
 90
        2
 70
     0
 39
0.003
 10
1.962331
 20
1.627236
 40
0.003
 41
0.003
 10
1.957012
 20
1.611185
 40
0.003
 41
0.003
  0
LWPOLYLINE
  5
37C
100
AcDbEntity
  8
0
 62
     9
100
AcDbPolyline
 90
        2
 70
     0
 39
0.003
 10
1.962331
 20
1.627236
 40
0.003
 41
0.003
 10
2.607394
 20
1.99663
 40
0.003
 41
0.003
  0
LWPOLYLINE
  5
37D
100
AcDbEntity
  8
0
 62
     9
100
AcDbPolyline
 90
        2
 70
     0
 39
0.003
 10
2.607394
 20
1.99663
 40
0.003
 41
0.003
 10
2.612059
 20
2.012972
 40
0.003
 41
0.003
  0
LWPOLYLINE
  5
37E
100
AcDbEntity
  8
0
 62
     9
100
AcDbPolyline
 90
        2
 70
     0
 39
0.003
 10
2.612059
 20
2.012972
 40
0.003
 41
0.003
 10
1.966996
 20
1.643579
 40
0.003
 41
0.003
  0
LWPOLYLINE
  5
37F
100
AcDbEntity
  8
0
 62
     9
100
AcDbPolyline
 90
        2
 70
     0
 39
0.003
 10
1.966996
 20
1.643579
 40
0.003
 41
0.003
 10
1.962331
 20
1.627236
 40
0.003
 41
0.003
  0
LWPOLYLINE
  5
380
100
AcDbEntity
  8
0
 62
     9
100
AcDbPolyline
 90
        2
 70
     0
 39
0.003
 10
1.966996
 20
1.643579
 40
0.003
 41
0.003
 10
2.612059
 20
2.012972
 40
0.003
 41
0.003
  0
LWPOLYLINE
  5
381
100
AcDbEntity
  8
0
 62
     9
100
AcDbPolyline
 90
        2
 70
     0
 39
0.003
 10
2.612059
 20
2.012972
 40
0.003
 41
0.003
 10
2.616051
 20
2.029579
 40
0.003
 41
0.003
  0
LWPOLYLINE
  5
382
100
AcDbEntity
  8
0
 62
     9
100
AcDbPolyline
 90
        2
 70
     0
 39
0.003
 10
2.616051
 20
2.029579
 40
0.003
 41
0.003
 10
1.970988
 20
1.660185
 40
0.003
 41
0.003
  0
LWPOLYLINE
  5
383
100
AcDbEntity
  8
0
 62
     9
100
AcDbPolyline
 90
        2
 70
     0
 39
0.003
 10
1.970988
 20
1.660185
 40
0.003
 41
0.003
 10
1.966996
 20
1.643579
 40
0.003
 41
0.003
  0
LWPOLYLINE
  5
384
100
AcDbEntity
  8
0
 62
     9
100
AcDbPolyline
 90
        2
 70
     0
 39
0.003
 10
1.970988
 20
1.660185
 40
0.003
 41
0.003
 10
2.616051
 20
2.029579
 40
0.003
 41
0.003
  0
LWPOLYLINE
  5
385
100
AcDbEntity
  8
0
 62
     9
100
AcDbPolyline
 90
        2
 70
     0
 39
0.003
 10
2.616051
 20
2.029579
 40
0.003
 41
0.003
 10
2.619354
 20
2.046445
 40
0.003
 41
0.003
  0
LWPOLYLINE
  5
386
100
AcDbEntity
  8
0
 62
     9
100
AcDbPolyline
 90
        2
 70
     0
 39
0.003
 10
2.619354
 20
2.046445
 40
0.003
 41
0.003
 10
1.974291
 20
1.677051
 40
0.003
 41
0.003
  0
LWPOLYLINE
  5
387
100
AcDbEntity
  8
0
 62
     9
100
AcDbPolyline
 90
        2
 70
     0
 39
0.003
 10
1.974291
 20
1.677051
 40
0.003
 41
0.003
 10
1.970988
 20
1.660185
 40
0.003
 41
0.003
  0
LWPOLYLINE
  5
388
100
AcDbEntity
  8
0
 62
   254
100
AcDbPolyline
 90
        2
 70
     0
 39
0.003
 10
1.974291
 20
1.677051
 40
0.003
 41
0.003
 10
2.619354
 20
2.046445
 40
0.003
 41
0.003
  0
LWPOLYLINE
  5
389
100
AcDbEntity
  8
0
 62
   254
100
AcDbPolyline
 90
        2
 70
     0
 39
0.003
 10
2.619354
 20
2.046445
 40
0.003
 41
0.003
 10
2.621949
 20
2.063539
 40
0.003
 41
0.003
  0
LWPOLYLINE
  5
38A
100
AcDbEntity
  8
0
 62
   254
100
AcDbPolyline
 90
        2
 70
     0
 39
0.003
 10
2.621949
 20
2.063539
 40
0.003
 41
0.003
 10
1.976886
 20
1.694146
 40
0.003
 41
0.003
  0
LWPOLYLINE
  5
38B
100
AcDbEntity
  8
0
 62
   254
100
AcDbPolyline
 90
        2
 70
     0
 39
0.003
 10
1.976886
 20
1.694146
 40
0.003
 41
0.003
 10
1.974291
 20
1.677051
 40
0.003
 41
0.003
  0
LWPOLYLINE
  5
38C
100
AcDbEntity
  8
0
 62
   254
100
AcDbPolyline
 90
        2
 70
     0
 39
0.003
 10
1.976886
 20
1.694146
 40
0.003
 41
0.003
 10
2.621949
 20
2.063539
 40
0.003
 41
0.003
  0
LWPOLYLINE
  5
38D
100
AcDbEntity
  8
0
 62
   254
100
AcDbPolyline
 90
        2
 70
     0
 39
0.003
 10
2.621949
 20
2.063539
 40
0.003
 41
0.003
 10
2.623823
 20
2.080858
 40
0.003
 41
0.003
  0
LWPOLYLINE
  5
38E
100
AcDbEntity
  8
0
 62
   254
100
AcDbPolyline
 90
        2
 70
     0
 39
0.003
 10
2.623823
 20
2.080858
 40
0.003
 41
0.003
 10
1.97876
 20
1.711465
 40
0.003
 41
0.003
  0
LWPOLYLINE
  5
38F
100
AcDbEntity
  8
0
 62
   254
100
AcDbPolyline
 90
        2
 70
     0
 39
0.003
 10
1.97876
 20
1.711465
 40
0.003
 41
0.003
 10
1.976886
 20
1.694146
 40
0.003
 41
0.003
  0
LWPOLYLINE
  5
390
100
AcDbEntity
  8
0
 62
   254
100
AcDbPolyline
 90
        2
 70
     0
 39
0.003
 10
1.97876
 20
1.711465
 40
0.003
 41
0.003
 10
2.623823
 20
2.080858
 40
0.003
 41
0.003
  0
LWPOLYLINE
  5
391
100
AcDbEntity
  8
0
 62
   254
100
AcDbPolyline
 90
        2
 70
     0
 39
0.003
 10
2.623823
 20
2.080858
 40
0.003
 41
0.003
 10
2.624957
 20
2.098382
 40
0.003
 41
0.003
  0
LWPOLYLINE
  5
392
100
AcDbEntity
  8
0
 62
   254
100
AcDbPolyline
 90
        2
 70
     0
 39
0.003
 10
2.624957
 20
2.098382
 40
0.003
 41
0.003
 10
1.979894
 20
1.728988
 40
0.003
 41
0.003
  0
LWPOLYLINE
  5
393
100
AcDbEntity
  8
0
 62
   254
100
AcDbPolyline
 90
        2
 70
     0
 39
0.003
 10
1.979894
 20
1.728988
 40
0.003
 41
0.003
 10
1.97876
 20
1.711465
 40
0.003
 41
0.003
  0
LWPOLYLINE
  5
394
100
AcDbEntity
  8
0
 62
   254
100
AcDbPolyline
 90
        2
 70
     0
 39
0.003
 10
1.979894
 20
1.728988
 40
0.003
 41
0.003
 10
2.624957
 20
2.098382
 40
0.003
 41
0.003
  0
LWPOLYLINE
  5
395
100
AcDbEntity
  8
0
 62
   254
100
AcDbPolyline
 90
        2
 70
     0
 39
0.003
 10
2.624957
 20
2.098382
 40
0.003
 41
0.003
 10
2.625343
 20
2.116102
 40
0.003
 41
0.003
  0
LWPOLYLINE
  5
396
100
AcDbEntity
  8
0
 62
   254
100
AcDbPolyline
 90
        2
 70
     0
 39
0.003
 10
2.625343
 20
2.116102
 40
0.003
 41
0.003
 10
1.98028
 20
1.746709
 40
0.003
 41
0.003
  0
LWPOLYLINE
  5
397
100
AcDbEntity
  8
0
 62
   254
100
AcDbPolyline
 90
        2
 70
     0
 39
0.003
 10
1.98028
 20
1.746709
 40
0.003
 41
0.003
 10
1.979894
 20
1.728988
 40
0.003
 41
0.003
  0
LWPOLYLINE
  5
398
100
AcDbEntity
  8
0
 62
   254
100
AcDbPolyline
 90
        2
 70
     0
 39
0.003
 10
1.98028
 20
1.746709
 40
0.003
 41
0.003
 10
2.625343
 20
2.116102
 40
0.003
 41
0.003
  0
LWPOLYLINE
  5
399
100
AcDbEntity
  8
0
 62
   254
100
AcDbPolyline
 90
        2
 70
     0
 39
0.003
 10
2.625343
 20
2.116102
 40
0.003
 41
0.003
 10
2.624992
 20
2.132937
 40
0.003
 41
0.003
  0
LWPOLYLINE
  5
39A
100
AcDbEntity
  8
0
 62
   254
100
AcDbPolyline
 90
        2
 70
     0
 39
0.003
 10
2.624992
 20
2.132937
 40
0.003
 41
0.003
 10
1.979929
 20
1.763543
 40
0.003
 41
0.003
  0
LWPOLYLINE
  5
39B
100
AcDbEntity
  8
0
 62
   254
100
AcDbPolyline
 90
        2
 70
     0
 39
0.003
 10
1.979929
 20
1.763543
 40
0.003
 41
0.003
 10
1.98028
 20
1.746709
 40
0.003
 41
0.003
  0
LWPOLYLINE
  5
39C
100
AcDbEntity
  8
0
 62
   254
100
AcDbPolyline
 90
        2
 70
     0
 39
0.003
 10
1.979929
 20
1.763543
 40
0.003
 41
0.003
 10
2.624992
 20
2.132937
 40
0.003
 41
0.003
  0
LWPOLYLINE
  5
39D
100
AcDbEntity
  8
0
 62
   254
100
AcDbPolyline
 90
        2
 70
     0
 39
0.003
 10
2.624992
 20
2.132937
 40
0.003
 41
0.003
 10
2.623969
 20
2.149606
 40
0.003
 41
0.003
  0
LWPOLYLINE
  5
39E
100
AcDbEntity
  8
0
 62
   254
100
AcDbPolyline
 90
        2
 70
     0
 39
0.003
 10
2.623969
 20
2.149606
 40
0.003
 41
0.003
 10
1.978906
 20
1.780213
 40
0.003
 41
0.003
  0
LWPOLYLINE
  5
39F
100
AcDbEntity
  8
0
 62
   254
100
AcDbPolyline
 90
        2
 70
     0
 39
0.003
 10
1.978906
 20
1.780213
 40
0.003
 41
0.003
 10
1.979929
 20
1.763543
 40
0.003
 41
0.003
  0
LWPOLYLINE
  5
3A0
100
AcDbEntity
  8
0
 62
   254
100
AcDbPolyline
 90
        2
 70
     0
 39
0.003
 10
1.978906
 20
1.780213
 40
0.003
 41
0.003
 10
2.623969
 20
2.149606
 40
0.003
 41
0.003
  0
LWPOLYLINE
  5
3A1
100
AcDbEntity
  8
0
 62
   254
100
AcDbPolyline
 90
        2
 70
     0
 39
0.003
 10
2.623969
 20
2.149606
 40
0.003
 41
0.003
 10
2.622272
 20
2.166091
 40
0.003
 41
0.003
  0
LWPOLYLINE
  5
3A2
100
AcDbEntity
  8
0
 62
   254
100
AcDbPolyline
 90
        2
 70
     0
 39
0.003
 10
2.622272
 20
2.166091
 40
0.003
 41
0.003
 10
1.977209
 20
1.796697
 40
0.003
 41
0.003
  0
LWPOLYLINE
  5
3A3
100
AcDbEntity
  8
0
 62
   254
100
AcDbPolyline
 90
        2
 70
     0
 39
0.003
 10
1.977209
 20
1.796697
 40
0.003
 41
0.003
 10
1.978906
 20
1.780213
 40
0.003
 41
0.003
  0
LWPOLYLINE
  5
3A4
100
AcDbEntity
  8
0
 62
   254
100
AcDbPolyline
 90
        2
 70
     0
 39
0.003
 10
1.977209
 20
1.796697
 40
0.003
 41
0.003
 10
2.622272
 20
2.166091
 40
0.003
 41
0.003
  0
LWPOLYLINE
  5
3A5
100
AcDbEntity
  8
0
 62
   254
100
AcDbPolyline
 90
        2
 70
     0
 39
0.003
 10
2.622272
 20
2.166091
 40
0.003
 41
0.003
 10
2.619925
 20
2.182382
 40
0.003
 41
0.003
  0
LWPOLYLINE
  5
3A6
100
AcDbEntity
  8
0
 62
   254
100
AcDbPolyline
 90
        2
 70
     0
 39
0.003
 10
2.619925
 20
2.182382
 40
0.003
 41
0.003
 10
1.974862
 20
1.812988
 40
0.003
 41
0.003
  0
LWPOLYLINE
  5
3A7
100
AcDbEntity
  8
0
 62
   254
100
AcDbPolyline
 90
        2
 70
     0
 39
0.003
 10
1.974862
 20
1.812988
 40
0.003
 41
0.003
 10
1.977209
 20
1.796697
 40
0.003
 41
0.003
  0
LWPOLYLINE
  5
3A8
100
AcDbEntity
  8
0
 62
   254
100
AcDbPolyline
 90
        2
 70
     0
 39
0.003
 10
1.974862
 20
1.812988
 40
0.003
 41
0.003
 10
2.619925
 20
2.182382
 40
0.003
 41
0.003
  0
LWPOLYLINE
  5
3A9
100
AcDbEntity
  8
0
 62
   254
100
AcDbPolyline
 90
        2
 70
     0
 39
0.003
 10
2.619925
 20
2.182382
 40
0.003
 41
0.003
 10
2.616929
 20
2.198457
 40
0.003
 41
0.003
  0
LWPOLYLINE
  5
3AA
100
AcDbEntity
  8
0
 62
   254
100
AcDbPolyline
 90
        2
 70
     0
 39
0.003
 10
2.616929
 20
2.198457
 40
0.003
 41
0.003
 10
1.971866
 20
1.829063
 40
0.003
 41
0.003
  0
LWPOLYLINE
  5
3AB
100
AcDbEntity
  8
0
 62
   254
100
AcDbPolyline
 90
        2
 70
     0
 39
0.003
 10
1.971866
 20
1.829063
 40
0.003
 41
0.003
 10
1.974862
 20
1.812988
 40
0.003
 41
0.003
  0
LWPOLYLINE
  5
3AC
100
AcDbEntity
  8
0
 62
   254
100
AcDbPolyline
 90
        2
 70
     0
 39
0.003
 10
1.971866
 20
1.829063
 40
0.003
 41
0.003
 10
2.616929
 20
2.198457
 40
0.003
 41
0.003
  0
LWPOLYLINE
  5
3AD
100
AcDbEntity
  8
0
 62
   254
100
AcDbPolyline
 90
        2
 70
     0
 39
0.003
 10
2.616929
 20
2.198457
 40
0.003
 41
0.003
 10
2.613315
 20
2.214311
 40
0.003
 41
0.003
  0
LWPOLYLINE
  5
3AE
100
AcDbEntity
  8
0
 62
   254
100
AcDbPolyline
 90
        2
 70
     0
 39
0.003
 10
2.613315
 20
2.214311
 40
0.003
 41
0.003
 10
1.968252
 20
1.844917
 40
0.003
 41
0.003
  0
LWPOLYLINE
  5
3AF
100
AcDbEntity
  8
0
 62
   254
100
AcDbPolyline
 90
        2
 70
     0
 39
0.003
 10
1.968252
 20
1.844917
 40
0.003
 41
0.003
 10
1.971866
 20
1.829063
 40
0.003
 41
0.003
  0
LWPOLYLINE
  5
3B0
100
AcDbEntity
  8
0
 62
   254
100
AcDbPolyline
 90
        2
 70
     0
 39
0.003
 10
1.968252
 20
1.844917
 40
0.003
 41
0.003
 10
2.613315
 20
2.214311
 40
0.003
 41
0.003
  0
LWPOLYLINE
  5
3B1
100
AcDbEntity
  8
0
 62
   254
100
AcDbPolyline
 90
        2
 70
     0
 39
0.003
 10
2.613315
 20
2.214311
 40
0.003
 41
0.003
 10
2.609087
 20
2.229925
 40
0.003
 41
0.003
  0
LWPOLYLINE
  5
3B2
100
AcDbEntity
  8
0
 62
   254
100
AcDbPolyline
 90
        2
 70
     0
 39
0.003
 10
2.609087
 20
2.229925
 40
0.003
 41
0.003
 10
1.964024
 20
1.860531
 40
0.003
 41
0.003
  0
LWPOLYLINE
  5
3B3
100
AcDbEntity
  8
0
 62
   254
100
AcDbPolyline
 90
        2
 70
     0
 39
0.003
 10
1.964024
 20
1.860531
 40
0.003
 41
0.003
 10
1.968252
 20
1.844917
 40
0.003
 41
0.003
  0
LWPOLYLINE
  5
3B4
100
AcDbEntity
  8
0
 62
   254
100
AcDbPolyline
 90
        2
 70
     0
 39
0.003
 10
1.964024
 20
1.860531
 40
0.003
 41
0.003
 10
2.609087
 20
2.229925
 40
0.003
 41
0.003
  0
LWPOLYLINE
  5
3B5
100
AcDbEntity
  8
0
 62
   254
100
AcDbPolyline
 90
        2
 70
     0
 39
0.003
 10
2.609087
 20
2.229925
 40
0.003
 41
0.003
 10
2.604264
 20
2.245291
 40
0.003
 41
0.003
  0
LWPOLYLINE
  5
3B6
100
AcDbEntity
  8
0
 62
   254
100
AcDbPolyline
 90
        2
 70
     0
 39
0.003
 10
2.604264
 20
2.245291
 40
0.003
 41
0.003
 10
1.959201
 20
1.875898
 40
0.003
 41
0.003
  0
LWPOLYLINE
  5
3B7
100
AcDbEntity
  8
0
 62
   254
100
AcDbPolyline
 90
        2
 70
     0
 39
0.003
 10
1.959201
 20
1.875898
 40
0.003
 41
0.003
 10
1.964024
 20
1.860531
 40
0.003
 41
0.003
  0
LWPOLYLINE
  5
3B8
100
AcDbEntity
  8
0
 62
   254
100
AcDbPolyline
 90
        2
 70
     0
 39
0.003
 10
1.959201
 20
1.875898
 40
0.003
 41
0.003
 10
2.604264
 20
2.245291
 40
0.003
 41
0.003
  0
LWPOLYLINE
  5
3B9
100
AcDbEntity
  8
0
 62
   254
100
AcDbPolyline
 90
        2
 70
     0
 39
0.003
 10
2.604264
 20
2.245291
 40
0.003
 41
0.003
 10
2.598843
 20
2.260382
 40
0.003
 41
0.003
  0
LWPOLYLINE
  5
3BA
100
AcDbEntity
  8
0
 62
   254
100
AcDbPolyline
 90
        2
 70
     0
 39
0.003
 10
2.598843
 20
2.260382
 40
0.003
 41
0.003
 10
1.95378
 20
1.890988
 40
0.003
 41
0.003
  0
LWPOLYLINE
  5
3BB
100
AcDbEntity
  8
0
 62
   254
100
AcDbPolyline
 90
        2
 70
     0
 39
0.003
 10
1.95378
 20
1.890988
 40
0.003
 41
0.003
 10
1.959201
 20
1.875898
 40
0.003
 41
0.003
  0
LWPOLYLINE
  5
3BC
100
AcDbEntity
  8
0
 62
   254
100
AcDbPolyline
 90
        2
 70
     0
 39
0.003
 10
1.95378
 20
1.890988
 40
0.003
 41
0.003
 10
2.598843
 20
2.260382
 40
0.003
 41
0.003
  0
LWPOLYLINE
  5
3BD
100
AcDbEntity
  8
0
 62
   254
100
AcDbPolyline
 90
        2
 70
     0
 39
0.003
 10
2.598843
 20
2.260382
 40
0.003
 41
0.003
 10
2.592854
 20
2.275201
 40
0.003
 41
0.003
  0
LWPOLYLINE
  5
3BE
100
AcDbEntity
  8
0
 62
   254
100
AcDbPolyline
 90
        2
 70
     0
 39
0.003
 10
2.592854
 20
2.275201
 40
0.003
 41
0.003
 10
1.947791
 20
1.905807
 40
0.003
 41
0.003
  0
LWPOLYLINE
  5
3BF
100
AcDbEntity
  8
0
 62
   254
100
AcDbPolyline
 90
        2
 70
     0
 39
0.003
 10
1.947791
 20
1.905807
 40
0.003
 41
0.003
 10
1.95378
 20
1.890988
 40
0.003
 41
0.003
  0
LWPOLYLINE
  5
3C0
100
AcDbEntity
  8
0
 62
   254
100
AcDbPolyline
 90
        2
 70
     0
 39
0.003
 10
1.947791
 20
1.905807
 40
0.003
 41
0.003
 10
2.592854
 20
2.275201
 40
0.003
 41
0.003
  0
LWPOLYLINE
  5
3C1
100
AcDbEntity
  8
0
 62
   254
100
AcDbPolyline
 90
        2
 70
     0
 39
0.003
 10
2.592854
 20
2.275201
 40
0.003
 41
0.003
 10
2.586303
 20
2.289724
 40
0.003
 41
0.003
  0
LWPOLYLINE
  5
3C2
100
AcDbEntity
  8
0
 62
   254
100
AcDbPolyline
 90
        2
 70
     0
 39
0.003
 10
2.586303
 20
2.289724
 40
0.003
 41
0.003
 10
1.94124
 20
1.920331
 40
0.003
 41
0.003
  0
LWPOLYLINE
  5
3C3
100
AcDbEntity
  8
0
 62
   254
100
AcDbPolyline
 90
        2
 70
     0
 39
0.003
 10
1.94124
 20
1.920331
 40
0.003
 41
0.003
 10
1.947791
 20
1.905807
 40
0.003
 41
0.003
  0
LWPOLYLINE
  5
3C4
100
AcDbEntity
  8
0
 62
   254
100
AcDbPolyline
 90
        2
 70
     0
 39
0.003
 10
1.94124
 20
1.920331
 40
0.003
 41
0.003
 10
2.586303
 20
2.289724
 40
0.003
 41
0.003
  0
LWPOLYLINE
  5
3C5
100
AcDbEntity
  8
0
 62
   254
100
AcDbPolyline
 90
        2
 70
     0
 39
0.003
 10
2.586303
 20
2.289724
 40
0.003
 41
0.003
 10
2.579217
 20
2.303949
 40
0.003
 41
0.003
  0
LWPOLYLINE
  5
3C6
100
AcDbEntity
  8
0
 62
   254
100
AcDbPolyline
 90
        2
 70
     0
 39
0.003
 10
2.579217
 20
2.303949
 40
0.003
 41
0.003
 10
1.934154
 20
1.934555
 40
0.003
 41
0.003
  0
LWPOLYLINE
  5
3C7
100
AcDbEntity
  8
0
 62
   254
100
AcDbPolyline
 90
        2
 70
     0
 39
0.003
 10
1.934154
 20
1.934555
 40
0.003
 41
0.003
 10
1.94124
 20
1.920331
 40
0.003
 41
0.003
  0
LWPOLYLINE
  5
3C8
100
AcDbEntity
  8
0
 62
     9
100
AcDbPolyline
 90
        2
 70
     0
 39
0.003
 10
1.934154
 20
1.934555
 40
0.003
 41
0.003
 10
2.579217
 20
2.303949
 40
0.003
 41
0.003
  0
LWPOLYLINE
  5
3C9
100
AcDbEntity
  8
0
 62
     9
100
AcDbPolyline
 90
        2
 70
     0
 39
0.003
 10
2.579217
 20
2.303949
 40
0.003
 41
0.003
 10
2.571587
 20
2.317846
 40
0.003
 41
0.003
  0
LWPOLYLINE
  5
3CA
100
AcDbEntity
  8
0
 62
     9
100
AcDbPolyline
 90
        2
 70
     0
 39
0.003
 10
2.571587
 20
2.317846
 40
0.003
 41
0.003
 10
1.926524
 20
1.948453
 40
0.003
 41
0.003
  0
LWPOLYLINE
  5
3CB
100
AcDbEntity
  8
0
 62
     9
100
AcDbPolyline
 90
        2
 70
     0
 39
0.003
 10
1.926524
 20
1.948453
 40
0.003
 41
0.003
 10
1.934154
 20
1.934555
 40
0.003
 41
0.003
  0
LWPOLYLINE
  5
3CC
100
AcDbEntity
  8
0
 62
     9
100
AcDbPolyline
 90
        2
 70
     0
 39
0.003
 10
1.926524
 20
1.948453
 40
0.003
 41
0.003
 10
2.571587
 20
2.317846
 40
0.003
 41
0.003
  0
LWPOLYLINE
  5
3CD
100
AcDbEntity
  8
0
 62
     9
100
AcDbPolyline
 90
        2
 70
     0
 39
0.003
 10
2.571587
 20
2.317846
 40
0.003
 41
0.003
 10
2.563445
 20
2.331413
 40
0.003
 41
0.003
  0
LWPOLYLINE
  5
3CE
100
AcDbEntity
  8
0
 62
     9
100
AcDbPolyline
 90
        2
 70
     0
 39
0.003
 10
2.563445
 20
2.331413
 40
0.003
 41
0.003
 10
1.918382
 20
1.96202
 40
0.003
 41
0.003
  0
LWPOLYLINE
  5
3CF
100
AcDbEntity
  8
0
 62
     9
100
AcDbPolyline
 90
        2
 70
     0
 39
0.003
 10
1.918382
 20
1.96202
 40
0.003
 41
0.003
 10
1.926524
 20
1.948453
 40
0.003
 41
0.003
  0
LWPOLYLINE
  5
3D0
100
AcDbEntity
  8
0
 62
     9
100
AcDbPolyline
 90
        2
 70
     0
 39
0.003
 10
1.918382
 20
1.96202
 40
0.003
 41
0.003
 10
2.563445
 20
2.331413
 40
0.003
 41
0.003
  0
LWPOLYLINE
  5
3D1
100
AcDbEntity
  8
0
 62
     9
100
AcDbPolyline
 90
        2
 70
     0
 39
0.003
 10
2.563445
 20
2.331413
 40
0.003
 41
0.003
 10
2.554791
 20
2.344634
 40
0.003
 41
0.003
  0
LWPOLYLINE
  5
3D2
100
AcDbEntity
  8
0
 62
     9
100
AcDbPolyline
 90
        2
 70
     0
 39
0.003
 10
2.554791
 20
2.344634
 40
0.003
 41
0.003
 10
1.909728
 20
1.97524
 40
0.003
 41
0.003
  0
LWPOLYLINE
  5
3D3
100
AcDbEntity
  8
0
 62
     9
100
AcDbPolyline
 90
        2
 70
     0
 39
0.003
 10
1.909728
 20
1.97524
 40
0.003
 41
0.003
 10
1.918382
 20
1.96202
 40
0.003
 41
0.003
  0
LWPOLYLINE
  5
3D4
100
AcDbEntity
  8
0
 62
     9
100
AcDbPolyline
 90
        2
 70
     0
 39
0.003
 10
1.909728
 20
1.97524
 40
0.003
 41
0.003
 10
2.554791
 20
2.344634
 40
0.003
 41
0.003
  0
LWPOLYLINE
  5
3D5
100
AcDbEntity
  8
0
 62
     9
100
AcDbPolyline
 90
        2
 70
     0
 39
0.003
 10
2.554791
 20
2.344634
 40
0.003
 41
0.003
 10
2.545654
 20
2.3575
 40
0.003
 41
0.003
  0
LWPOLYLINE
  5
3D6
100
AcDbEntity
  8
0
 62
     9
100
AcDbPolyline
 90
        2
 70
     0
 39
0.003
 10
2.545654
 20
2.3575
 40
0.003
 41
0.003
 10
1.900591
 20
1.988106
 40
0.003
 41
0.003
  0
LWPOLYLINE
  5
3D7
100
AcDbEntity
  8
0
 62
     9
100
AcDbPolyline
 90
        2
 70
     0
 39
0.003
 10
1.900591
 20
1.988106
 40
0.003
 41
0.003
 10
1.909728
 20
1.97524
 40
0.003
 41
0.003
  0
LWPOLYLINE
  5
3D8
100
AcDbEntity
  8
0
 62
     9
100
AcDbPolyline
 90
        2
 70
     0
 39
0.003
 10
1.900591
 20
1.988106
 40
0.003
 41
0.003
 10
2.545654
 20
2.3575
 40
0.003
 41
0.003
  0
LWPOLYLINE
  5
3D9
100
AcDbEntity
  8
0
 62
     9
100
AcDbPolyline
 90
        2
 70
     0
 39
0.003
 10
2.545654
 20
2.3575
 40
0.003
 41
0.003
 10
2.536028
 20
2.36998
 40
0.003
 41
0.003
  0
LWPOLYLINE
  5
3DA
100
AcDbEntity
  8
0
 62
     9
100
AcDbPolyline
 90
        2
 70
     0
 39
0.003
 10
2.536028
 20
2.36998
 40
0.003
 41
0.003
 10
1.890965
 20
2.000587
 40
0.003
 41
0.003
  0
LWPOLYLINE
  5
3DB
100
AcDbEntity
  8
0
 62
     9
100
AcDbPolyline
 90
        2
 70
     0
 39
0.003
 10
1.890965
 20
2.000587
 40
0.003
 41
0.003
 10
1.900591
 20
1.988106
 40
0.003
 41
0.003
  0
LWPOLYLINE
  5
3DC
100
AcDbEntity
  8
0
 62
     9
100
AcDbPolyline
 90
        2
 70
     0
 39
0.003
 10
1.890965
 20
2.000587
 40
0.003
 41
0.003
 10
2.536028
 20
2.36998
 40
0.003
 41
0.003
  0
LWPOLYLINE
  5
3DD
100
AcDbEntity
  8
0
 62
     9
100
AcDbPolyline
 90
        2
 70
     0
 39
0.003
 10
2.536028
 20
2.36998
 40
0.003
 41
0.003
 10
2.525945
 20
2.382079
 40
0.003
 41
0.003
  0
LWPOLYLINE
  5
3DE
100
AcDbEntity
  8
0
 62
     9
100
AcDbPolyline
 90
        2
 70
     0
 39
0.003
 10
2.525945
 20
2.382079
 40
0.003
 41
0.003
 10
1.880882
 20
2.012685
 40
0.003
 41
0.003
  0
LWPOLYLINE
  5
3DF
100
AcDbEntity
  8
0
 62
     9
100
AcDbPolyline
 90
        2
 70
     0
 39
0.003
 10
1.880882
 20
2.012685
 40
0.003
 41
0.003
 10
1.890965
 20
2.000587
 40
0.003
 41
0.003
  0
LWPOLYLINE
  5
3E0
100
AcDbEntity
  8
0
 62
     9
100
AcDbPolyline
 90
        2
 70
     0
 39
0.003
 10
1.880882
 20
2.012685
 40
0.003
 41
0.003
 10
2.525945
 20
2.382079
 40
0.003
 41
0.003
  0
LWPOLYLINE
  5
3E1
100
AcDbEntity
  8
0
 62
     9
100
AcDbPolyline
 90
        2
 70
     0
 39
0.003
 10
2.525945
 20
2.382079
 40
0.003
 41
0.003
 10
2.515406
 20
2.393776
 40
0.003
 41
0.003
  0
LWPOLYLINE
  5
3E2
100
AcDbEntity
  8
0
 62
     9
100
AcDbPolyline
 90
        2
 70
     0
 39
0.003
 10
2.515406
 20
2.393776
 40
0.003
 41
0.003
 10
1.870343
 20
2.024382
 40
0.003
 41
0.003
  0
LWPOLYLINE
  5
3E3
100
AcDbEntity
  8
0
 62
     9
100
AcDbPolyline
 90
        2
 70
     0
 39
0.003
 10
1.870343
 20
2.024382
 40
0.003
 41
0.003
 10
1.880882
 20
2.012685
 40
0.003
 41
0.003
  0
LWPOLYLINE
  5
3E4
100
AcDbEntity
  8
0
 62
     9
100
AcDbPolyline
 90
        2
 70
     0
 39
0.003
 10
1.870343
 20
2.024382
 40
0.003
 41
0.003
 10
2.515406
 20
2.393776
 40
0.003
 41
0.003
  0
LWPOLYLINE
  5
3E5
100
AcDbEntity
  8
0
 62
     9
100
AcDbPolyline
 90
        2
 70
     0
 39
0.003
 10
2.515406
 20
2.393776
 40
0.003
 41
0.003
 10
2.504437
 20
2.405063
 40
0.003
 41
0.003
  0
LWPOLYLINE
  5
3E6
100
AcDbEntity
  8
0
 62
     9
100
AcDbPolyline
 90
        2
 70
     0
 39
0.003
 10
2.504437
 20
2.405063
 40
0.003
 41
0.003
 10
1.859374
 20
2.035669
 40
0.003
 41
0.003
  0
LWPOLYLINE
  5
3E7
100
AcDbEntity
  8
0
 62
     9
100
AcDbPolyline
 90
        2
 70
     0
 39
0.003
 10
1.859374
 20
2.035669
 40
0.003
 41
0.003
 10
1.870343
 20
2.024382
 40
0.003
 41
0.003
  0
LWPOLYLINE
  5
3E8
100
AcDbEntity
  8
0
 62
     9
100
AcDbPolyline
 90
        2
 70
     0
 39
0.003
 10
1.859374
 20
2.035669
 40
0.003
 41
0.003
 10
2.504437
 20
2.405063
 40
0.003
 41
0.003
  0
LWPOLYLINE
  5
3E9
100
AcDbEntity
  8
0
 62
     9
100
AcDbPolyline
 90
        2
 70
     0
 39
0.003
 10
2.504437
 20
2.405063
 40
0.003
 41
0.003
 10
2.493035
 20
2.415913
 40
0.003
 41
0.003
  0
LWPOLYLINE
  5
3EA
100
AcDbEntity
  8
0
 62
     9
100
AcDbPolyline
 90
        2
 70
     0
 39
0.003
 10
2.493035
 20
2.415913
 40
0.003
 41
0.003
 10
1.847972
 20
2.04652
 40
0.003
 41
0.003
  0
LWPOLYLINE
  5
3EB
100
AcDbEntity
  8
0
 62
     9
100
AcDbPolyline
 90
        2
 70
     0
 39
0.003
 10
1.847972
 20
2.04652
 40
0.003
 41
0.003
 10
1.859374
 20
2.035669
 40
0.003
 41
0.003
  0
LWPOLYLINE
  5
3EC
100
AcDbEntity
  8
0
 62
     9
100
AcDbPolyline
 90
        2
 70
     0
 39
0.003
 10
1.847972
 20
2.04652
 40
0.003
 41
0.003
 10
2.493035
 20
2.415913
 40
0.003
 41
0.003
  0
LWPOLYLINE
  5
3ED
100
AcDbEntity
  8
0
 62
     9
100
AcDbPolyline
 90
        2
 70
     0
 39
0.003
 10
2.493035
 20
2.415913
 40
0.003
 41
0.003
 10
2.481228
 20
2.426331
 40
0.003
 41
0.003
  0
LWPOLYLINE
  5
3EE
100
AcDbEntity
  8
0
 62
     9
100
AcDbPolyline
 90
        2
 70
     0
 39
0.003
 10
2.481228
 20
2.426331
 40
0.003
 41
0.003
 10
1.836165
 20
2.056937
 40
0.003
 41
0.003
  0
LWPOLYLINE
  5
3EF
100
AcDbEntity
  8
0
 62
     9
100
AcDbPolyline
 90
        2
 70
     0
 39
0.003
 10
1.836165
 20
2.056937
 40
0.003
 41
0.003
 10
1.847972
 20
2.04652
 40
0.003
 41
0.003
  0
LWPOLYLINE
  5
3F0
100
AcDbEntity
  8
0
 62
     9
100
AcDbPolyline
 90
        2
 70
     0
 39
0.003
 10
1.836165
 20
2.056937
 40
0.003
 41
0.003
 10
2.481228
 20
2.426331
 40
0.003
 41
0.003
  0
LWPOLYLINE
  5
3F1
100
AcDbEntity
  8
0
 62
     9
100
AcDbPolyline
 90
        2
 70
     0
 39
0.003
 10
2.481228
 20
2.426331
 40
0.003
 41
0.003
 10
2.46902
 20
2.436291
 40
0.003
 41
0.003
  0
LWPOLYLINE
  5
3F2
100
AcDbEntity
  8
0
 62
     9
100
AcDbPolyline
 90
        2
 70
     0
 39
0.003
 10
2.46902
 20
2.436291
 40
0.003
 41
0.003
 10
1.823957
 20
2.066898
 40
0.003
 41
0.003
  0
LWPOLYLINE
  5
3F3
100
AcDbEntity
  8
0
 62
     9
100
AcDbPolyline
 90
        2
 70
     0
 39
0.003
 10
1.823957
 20
2.066898
 40
0.003
 41
0.003
 10
1.836165
 20
2.056937
 40
0.003
 41
0.003
  0
LWPOLYLINE
  5
3F4
100
AcDbEntity
  8
0
 62
     9
100
AcDbPolyline
 90
        2
 70
     0
 39
0.003
 10
1.823957
 20
2.066898
 40
0.003
 41
0.003
 10
2.46902
 20
2.436291
 40
0.003
 41
0.003
  0
LWPOLYLINE
  5
3F5
100
AcDbEntity
  8
0
 62
     9
100
AcDbPolyline
 90
        2
 70
     0
 39
0.003
 10
2.46902
 20
2.436291
 40
0.003
 41
0.003
 10
2.456437
 20
2.445787
 40
0.003
 41
0.003
  0
LWPOLYLINE
  5
3F6
100
AcDbEntity
  8
0
 62
     9
100
AcDbPolyline
 90
        2
 70
     0
 39
0.003
 10
2.456437
 20
2.445787
 40
0.003
 41
0.003
 10
1.811374
 20
2.076394
 40
0.003
 41
0.003
  0
LWPOLYLINE
  5
3F7
100
AcDbEntity
  8
0
 62
     9
100
AcDbPolyline
 90
        2
 70
     0
 39
0.003
 10
1.811374
 20
2.076394
 40
0.003
 41
0.003
 10
1.823957
 20
2.066898
 40
0.003
 41
0.003
  0
LWPOLYLINE
  5
3F8
100
AcDbEntity
  8
0
 62
     9
100
AcDbPolyline
 90
        2
 70
     0
 39
0.003
 10
1.811374
 20
2.076394
 40
0.003
 41
0.003
 10
2.456437
 20
2.445787
 40
0.003
 41
0.003
  0
LWPOLYLINE
  5
3F9
100
AcDbEntity
  8
0
 62
     9
100
AcDbPolyline
 90
        2
 70
     0
 39
0.003
 10
2.456437
 20
2.445787
 40
0.003
 41
0.003
 10
2.443472
 20
2.454795
 40
0.003
 41
0.003
  0
LWPOLYLINE
  5
3FA
100
AcDbEntity
  8
0
 62
     9
100
AcDbPolyline
 90
        2
 70
     0
 39
0.003
 10
2.443472
 20
2.454795
 40
0.003
 41
0.003
 10
1.798409
 20
2.085402
 40
0.003
 41
0.003
  0
LWPOLYLINE
  5
3FB
100
AcDbEntity
  8
0
 62
     9
100
AcDbPolyline
 90
        2
 70
     0
 39
0.003
 10
1.798409
 20
2.085402
 40
0.003
 41
0.003
 10
1.811374
 20
2.076394
 40
0.003
 41
0.003
  0
LWPOLYLINE
  5
3FC
100
AcDbEntity
  8
0
 62
     9
100
AcDbPolyline
 90
        2
 70
     0
 39
0.003
 10
1.798409
 20
2.085402
 40
0.003
 41
0.003
 10
2.443472
 20
2.454795
 40
0.003
 41
0.003
  0
LWPOLYLINE
  5
3FD
100
AcDbEntity
  8
0
 62
     9
100
AcDbPolyline
 90
        2
 70
     0
 39
0.003
 10
2.443472
 20
2.454795
 40
0.003
 41
0.003
 10
2.430161
 20
2.463311
 40
0.003
 41
0.003
  0
LWPOLYLINE
  5
3FE
100
AcDbEntity
  8
0
 62
     9
100
AcDbPolyline
 90
        2
 70
     0
 39
0.003
 10
2.430161
 20
2.463311
 40
0.003
 41
0.003
 10
1.785098
 20
2.093917
 40
0.003
 41
0.003
  0
LWPOLYLINE
  5
3FF
100
AcDbEntity
  8
0
 62
     9
100
AcDbPolyline
 90
        2
 70
     0
 39
0.003
 10
1.785098
 20
2.093917
 40
0.003
 41
0.003
 10
1.798409
 20
2.085402
 40
0.003
 41
0.003
  0
LWPOLYLINE
  5
400
100
AcDbEntity
  8
0
 62
     9
100
AcDbPolyline
 90
        2
 70
     0
 39
0.003
 10
1.785098
 20
2.093917
 40
0.003
 41
0.003
 10
2.430161
 20
2.463311
 40
0.003
 41
0.003
  0
LWPOLYLINE
  5
401
100
AcDbEntity
  8
0
 62
     9
100
AcDbPolyline
 90
        2
 70
     0
 39
0.003
 10
2.430161
 20
2.463311
 40
0.003
 41
0.003
 10
2.4165
 20
2.471315
 40
0.003
 41
0.003
  0
LWPOLYLINE
  5
402
100
AcDbEntity
  8
0
 62
     9
100
AcDbPolyline
 90
        2
 70
     0
 39
0.003
 10
2.4165
 20
2.471315
 40
0.003
 41
0.003
 10
1.771437
 20
2.101921
 40
0.003
 41
0.003
  0
LWPOLYLINE
  5
403
100
AcDbEntity
  8
0
 62
     9
100
AcDbPolyline
 90
        2
 70
     0
 39
0.003
 10
1.771437
 20
2.101921
 40
0.003
 41
0.003
 10
1.785098
 20
2.093917
 40
0.003
 41
0.003
  0
LWPOLYLINE
  5
404
100
AcDbEntity
  8
0
 62
     9
100
AcDbPolyline
 90
        2
 70
     0
 39
0.003
 10
1.771437
 20
2.101921
 40
0.003
 41
0.003
 10
2.4165
 20
2.471315
 40
0.003
 41
0.003
  0
LWPOLYLINE
  5
405
100
AcDbEntity
  8
0
 62
     9
100
AcDbPolyline
 90
        2
 70
     0
 39
0.003
 10
2.4165
 20
2.471315
 40
0.003
 41
0.003
 10
2.40252
 20
2.478799
 40
0.003
 41
0.003
  0
LWPOLYLINE
  5
406
100
AcDbEntity
  8
0
 62
     9
100
AcDbPolyline
 90
        2
 70
     0
 39
0.003
 10
2.40252
 20
2.478799
 40
0.003
 41
0.003
 10
1.757457
 20
2.109406
 40
0.003
 41
0.003
  0
LWPOLYLINE
  5
407
100
AcDbEntity
  8
0
 62
     9
100
AcDbPolyline
 90
        2
 70
     0
 39
0.003
 10
1.757457
 20
2.109406
 40
0.003
 41
0.003
 10
1.771437
 20
2.101921
 40
0.003
 41
0.003
  0
LWPOLYLINE
  5
408
100
AcDbEntity
  8
0
 62
     9
100
AcDbPolyline
 90
        2
 70
     0
 39
0.003
 10
1.757457
 20
2.109406
 40
0.003
 41
0.003
 10
2.40252
 20
2.478799
 40
0.003
 41
0.003
  0
LWPOLYLINE
  5
409
100
AcDbEntity
  8
0
 62
     9
100
AcDbPolyline
 90
        2
 70
     0
 39
0.003
 10
2.40252
 20
2.478799
 40
0.003
 41
0.003
 10
2.388213
 20
2.485744
 40
0.003
 41
0.003
  0
LWPOLYLINE
  5
40A
100
AcDbEntity
  8
0
 62
     9
100
AcDbPolyline
 90
        2
 70
     0
 39
0.003
 10
2.388213
 20
2.485744
 40
0.003
 41
0.003
 10
1.74315
 20
2.11635
 40
0.003
 41
0.003
  0
LWPOLYLINE
  5
40B
100
AcDbEntity
  8
0
 62
     9
100
AcDbPolyline
 90
        2
 70
     0
 39
0.003
 10
1.74315
 20
2.11635
 40
0.003
 41
0.003
 10
1.757457
 20
2.109406
 40
0.003
 41
0.003
  0
LWPOLYLINE
  5
40C
100
AcDbEntity
  8
0
 62
     9
100
AcDbPolyline
 90
        2
 70
     0
 39
0.003
 10
1.74315
 20
2.11635
 40
0.003
 41
0.003
 10
2.388213
 20
2.485744
 40
0.003
 41
0.003
  0
LWPOLYLINE
  5
40D
100
AcDbEntity
  8
0
 62
     9
100
AcDbPolyline
 90
        2
 70
     0
 39
0.003
 10
2.388213
 20
2.485744
 40
0.003
 41
0.003
 10
2.37361
 20
2.492142
 40
0.003
 41
0.003
  0
LWPOLYLINE
  5
40E
100
AcDbEntity
  8
0
 62
     9
100
AcDbPolyline
 90
        2
 70
     0
 39
0.003
 10
2.37361
 20
2.492142
 40
0.003
 41
0.003
 10
1.728547
 20
2.122748
 40
0.003
 41
0.003
  0
LWPOLYLINE
  5
40F
100
AcDbEntity
  8
0
 62
     9
100
AcDbPolyline
 90
        2
 70
     0
 39
0.003
 10
1.728547
 20
2.122748
 40
0.003
 41
0.003
 10
1.74315
 20
2.11635
 40
0.003
 41
0.003
  0
LWPOLYLINE
  5
410
100
AcDbEntity
  8
0
 62
     9
100
AcDbPolyline
 90
        2
 70
     0
 39
0.003
 10
1.728547
 20
2.122748
 40
0.003
 41
0.003
 10
2.37361
 20
2.492142
 40
0.003
 41
0.003
  0
LWPOLYLINE
  5
411
100
AcDbEntity
  8
0
 62
     9
100
AcDbPolyline
 90
        2
 70
     0
 39
0.003
 10
2.37361
 20
2.492142
 40
0.003
 41
0.003
 10
2.358717
 20
2.497972
 40
0.003
 41
0.003
  0
LWPOLYLINE
  5
412
100
AcDbEntity
  8
0
 62
     9
100
AcDbPolyline
 90
        2
 70
     0
 39
0.003
 10
2.358717
 20
2.497972
 40
0.003
 41
0.003
 10
1.713654
 20
2.128579
 40
0.003
 41
0.003
  0
LWPOLYLINE
  5
413
100
AcDbEntity
  8
0
 62
     9
100
AcDbPolyline
 90
        2
 70
     0
 39
0.003
 10
1.713654
 20
2.128579
 40
0.003
 41
0.003
 10
1.728547
 20
2.122748
 40
0.003
 41
0.003
  0
LWPOLYLINE
  5
414
100
AcDbEntity
  8
0
 62
     9
100
AcDbPolyline
 90
        2
 70
     0
 39
0.003
 10
1.713654
 20
2.128579
 40
0.003
 41
0.003
 10
2.358717
 20
2.497972
 40
0.003
 41
0.003
  0
LWPOLYLINE
  5
415
100
AcDbEntity
  8
0
 62
     9
100
AcDbPolyline
 90
        2
 70
     0
 39
0.003
 10
2.358717
 20
2.497972
 40
0.003
 41
0.003
 10
2.343551
 20
2.503236
 40
0.003
 41
0.003
  0
LWPOLYLINE
  5
416
100
AcDbEntity
  8
0
 62
     9
100
AcDbPolyline
 90
        2
 70
     0
 39
0.003
 10
2.343551
 20
2.503236
 40
0.003
 41
0.003
 10
1.698488
 20
2.133843
 40
0.003
 41
0.003
  0
LWPOLYLINE
  5
417
100
AcDbEntity
  8
0
 62
     9
100
AcDbPolyline
 90
        2
 70
     0
 39
0.003
 10
1.698488
 20
2.133843
 40
0.003
 41
0.003
 10
1.713654
 20
2.128579
 40
0.003
 41
0.003
  0
LWPOLYLINE
  5
418
100
AcDbEntity
  8
0
 62
     0
100
AcDbPolyline
 90
        2
 70
     0
 39
0.003
 10
1.808823
 20
1.415185
 40
0.003
 41
0.003
 10
2.453886
 20
1.784579
 40
0.003
 41
0.003
  0
LWPOLYLINE
  5
419
100
AcDbEntity
  8
0
 62
     0
100
AcDbPolyline
 90
        2
 70
     0
 39
0.003
 10
2.453886
 20
1.784579
 40
0.003
 41
0.003
 10
2.467201
 20
1.794476
 40
0.003
 41
0.003
  0
LWPOLYLINE
  5
41A
100
AcDbEntity
  8
0
 62
     0
100
AcDbPolyline
 90
        2
 70
     0
 39
0.003
 10
2.467201
 20
1.794476
 40
0.003
 41
0.003
 10
2.480087
 20
1.804894
 40
0.003
 41
0.003
  0
LWPOLYLINE
  5
41B
100
AcDbEntity
  8
0
 62
     0
100
AcDbPolyline
 90
        2
 70
     0
 39
0.003
 10
2.480087
 20
1.804894
 40
0.003
 41
0.003
 10
2.492543
 20
1.815823
 40
0.003
 41
0.003
  0
LWPOLYLINE
  5
41C
100
AcDbEntity
  8
0
 62
     0
100
AcDbPolyline
 90
        2
 70
     0
 39
0.003
 10
2.492543
 20
1.815823
 40
0.003
 41
0.003
 10
2.504539
 20
1.827236
 40
0.003
 41
0.003
  0
LWPOLYLINE
  5
41D
100
AcDbEntity
  8
0
 62
     0
100
AcDbPolyline
 90
        2
 70
     0
 39
0.003
 10
2.504539
 20
1.827236
 40
0.003
 41
0.003
 10
2.516071
 20
1.839126
 40
0.003
 41
0.003
  0
LWPOLYLINE
  5
41E
100
AcDbEntity
  8
0
 62
     0
100
AcDbPolyline
 90
        2
 70
     0
 39
0.003
 10
2.516071
 20
1.839126
 40
0.003
 41
0.003
 10
2.527114
 20
1.851472
 40
0.003
 41
0.003
  0
LWPOLYLINE
  5
41F
100
AcDbEntity
  8
0
 62
     0
100
AcDbPolyline
 90
        2
 70
     0
 39
0.003
 10
2.527114
 20
1.851472
 40
0.003
 41
0.003
 10
2.537661
 20
1.864264
 40
0.003
 41
0.003
  0
LWPOLYLINE
  5
420
100
AcDbEntity
  8
0
 62
     0
100
AcDbPolyline
 90
        2
 70
     0
 39
0.003
 10
2.537661
 20
1.864264
 40
0.003
 41
0.003
 10
2.547685
 20
1.877472
 40
0.003
 41
0.003
  0
LWPOLYLINE
  5
421
100
AcDbEntity
  8
0
 62
     0
100
AcDbPolyline
 90
        2
 70
     0
 39
0.003
 10
2.547685
 20
1.877472
 40
0.003
 41
0.003
 10
2.557177
 20
1.891094
 40
0.003
 41
0.003
  0
LWPOLYLINE
  5
422
100
AcDbEntity
  8
0
 62
     0
100
AcDbPolyline
 90
        2
 70
     0
 39
0.003
 10
2.557177
 20
1.891094
 40
0.003
 41
0.003
 10
2.566118
 20
1.90511
 40
0.003
 41
0.003
  0
LWPOLYLINE
  5
423
100
AcDbEntity
  8
0
 62
     0
100
AcDbPolyline
 90
        2
 70
     0
 39
0.003
 10
2.566118
 20
1.90511
 40
0.003
 41
0.003
 10
2.574504
 20
1.919512
 40
0.003
 41
0.003
  0
LWPOLYLINE
  5
424
100
AcDbEntity
  8
0
 62
     0
100
AcDbPolyline
 90
        2
 70
     0
 39
0.003
 10
2.574504
 20
1.919512
 40
0.003
 41
0.003
 10
2.582299
 20
1.934268
 40
0.003
 41
0.003
  0
LWPOLYLINE
  5
425
100
AcDbEntity
  8
0
 62
     0
100
AcDbPolyline
 90
        2
 70
     0
 39
0.003
 10
2.582299
 20
1.934268
 40
0.003
 41
0.003
 10
2.589508
 20
1.949382
 40
0.003
 41
0.003
  0
LWPOLYLINE
  5
426
100
AcDbEntity
  8
0
 62
     0
100
AcDbPolyline
 90
        2
 70
     0
 39
0.003
 10
2.589508
 20
1.949382
 40
0.003
 41
0.003
 10
2.596102
 20
1.964819
 40
0.003
 41
0.003
  0
LWPOLYLINE
  5
427
100
AcDbEntity
  8
0
 62
     0
100
AcDbPolyline
 90
        2
 70
     0
 39
0.003
 10
2.596102
 20
1.964819
 40
0.003
 41
0.003
 10
2.602075
 20
1.980579
 40
0.003
 41
0.003
  0
LWPOLYLINE
  5
428
100
AcDbEntity
  8
0
 62
     0
100
AcDbPolyline
 90
        2
 70
     0
 39
0.003
 10
2.602075
 20
1.980579
 40
0.003
 41
0.003
 10
2.607394
 20
1.99663
 40
0.003
 41
0.003
  0
LWPOLYLINE
  5
429
100
AcDbEntity
  8
0
 62
     0
100
AcDbPolyline
 90
        2
 70
     0
 39
0.003
 10
2.607394
 20
1.99663
 40
0.003
 41
0.003
 10
2.612059
 20
2.012972
 40
0.003
 41
0.003
  0
LWPOLYLINE
  5
42A
100
AcDbEntity
  8
0
 62
     0
100
AcDbPolyline
 90
        2
 70
     0
 39
0.003
 10
2.612059
 20
2.012972
 40
0.003
 41
0.003
 10
2.616051
 20
2.029579
 40
0.003
 41
0.003
  0
LWPOLYLINE
  5
42B
100
AcDbEntity
  8
0
 62
     0
100
AcDbPolyline
 90
        2
 70
     0
 39
0.003
 10
2.616051
 20
2.029579
 40
0.003
 41
0.003
 10
2.619354
 20
2.046445
 40
0.003
 41
0.003
  0
LWPOLYLINE
  5
42C
100
AcDbEntity
  8
0
 62
     0
100
AcDbPolyline
 90
        2
 70
     0
 39
0.003
 10
2.619354
 20
2.046445
 40
0.003
 41
0.003
 10
2.621949
 20
2.063539
 40
0.003
 41
0.003
  0
LWPOLYLINE
  5
42D
100
AcDbEntity
  8
0
 62
     0
100
AcDbPolyline
 90
        2
 70
     0
 39
0.003
 10
2.621949
 20
2.063539
 40
0.003
 41
0.003
 10
2.623823
 20
2.080858
 40
0.003
 41
0.003
  0
LWPOLYLINE
  5
42E
100
AcDbEntity
  8
0
 62
     0
100
AcDbPolyline
 90
        2
 70
     0
 39
0.003
 10
2.623823
 20
2.080858
 40
0.003
 41
0.003
 10
2.624957
 20
2.098382
 40
0.003
 41
0.003
  0
LWPOLYLINE
  5
42F
100
AcDbEntity
  8
0
 62
     0
100
AcDbPolyline
 90
        2
 70
     0
 39
0.003
 10
2.624957
 20
2.098382
 40
0.003
 41
0.003
 10
2.625343
 20
2.116102
 40
0.003
 41
0.003
  0
LWPOLYLINE
  5
430
100
AcDbEntity
  8
0
 62
     0
100
AcDbPolyline
 90
        2
 70
     0
 39
0.003
 10
2.625343
 20
2.116102
 40
0.003
 41
0.003
 10
2.624992
 20
2.132937
 40
0.003
 41
0.003
  0
LWPOLYLINE
  5
431
100
AcDbEntity
  8
0
 62
     0
100
AcDbPolyline
 90
        2
 70
     0
 39
0.003
 10
2.624992
 20
2.132937
 40
0.003
 41
0.003
 10
2.623969
 20
2.149606
 40
0.003
 41
0.003
  0
LWPOLYLINE
  5
432
100
AcDbEntity
  8
0
 62
     0
100
AcDbPolyline
 90
        2
 70
     0
 39
0.003
 10
2.623969
 20
2.149606
 40
0.003
 41
0.003
 10
2.622272
 20
2.166091
 40
0.003
 41
0.003
  0
LWPOLYLINE
  5
433
100
AcDbEntity
  8
0
 62
     0
100
AcDbPolyline
 90
        2
 70
     0
 39
0.003
 10
2.622272
 20
2.166091
 40
0.003
 41
0.003
 10
2.619925
 20
2.182382
 40
0.003
 41
0.003
  0
LWPOLYLINE
  5
434
100
AcDbEntity
  8
0
 62
     0
100
AcDbPolyline
 90
        2
 70
     0
 39
0.003
 10
2.619925
 20
2.182382
 40
0.003
 41
0.003
 10
2.616929
 20
2.198457
 40
0.003
 41
0.003
  0
LWPOLYLINE
  5
435
100
AcDbEntity
  8
0
 62
     0
100
AcDbPolyline
 90
        2
 70
     0
 39
0.003
 10
2.616929
 20
2.198457
 40
0.003
 41
0.003
 10
2.613315
 20
2.214311
 40
0.003
 41
0.003
  0
LWPOLYLINE
  5
436
100
AcDbEntity
  8
0
 62
     0
100
AcDbPolyline
 90
        2
 70
     0
 39
0.003
 10
2.613315
 20
2.214311
 40
0.003
 41
0.003
 10
2.609087
 20
2.229925
 40
0.003
 41
0.003
  0
LWPOLYLINE
  5
437
100
AcDbEntity
  8
0
 62
     0
100
AcDbPolyline
 90
        2
 70
     0
 39
0.003
 10
2.609087
 20
2.229925
 40
0.003
 41
0.003
 10
2.604264
 20
2.245291
 40
0.003
 41
0.003
  0
LWPOLYLINE
  5
438
100
AcDbEntity
  8
0
 62
     0
100
AcDbPolyline
 90
        2
 70
     0
 39
0.003
 10
2.604264
 20
2.245291
 40
0.003
 41
0.003
 10
2.598843
 20
2.260382
 40
0.003
 41
0.003
  0
LWPOLYLINE
  5
439
100
AcDbEntity
  8
0
 62
     0
100
AcDbPolyline
 90
        2
 70
     0
 39
0.003
 10
2.598843
 20
2.260382
 40
0.003
 41
0.003
 10
2.592854
 20
2.275201
 40
0.003
 41
0.003
  0
LWPOLYLINE
  5
43A
100
AcDbEntity
  8
0
 62
     0
100
AcDbPolyline
 90
        2
 70
     0
 39
0.003
 10
2.592854
 20
2.275201
 40
0.003
 41
0.003
 10
2.586303
 20
2.289724
 40
0.003
 41
0.003
  0
LWPOLYLINE
  5
43B
100
AcDbEntity
  8
0
 62
     0
100
AcDbPolyline
 90
        2
 70
     0
 39
0.003
 10
2.586303
 20
2.289724
 40
0.003
 41
0.003
 10
2.579217
 20
2.303949
 40
0.003
 41
0.003
  0
LWPOLYLINE
  5
43C
100
AcDbEntity
  8
0
 62
     0
100
AcDbPolyline
 90
        2
 70
     0
 39
0.003
 10
2.579217
 20
2.303949
 40
0.003
 41
0.003
 10
2.571587
 20
2.317846
 40
0.003
 41
0.003
  0
LWPOLYLINE
  5
43D
100
AcDbEntity
  8
0
 62
     0
100
AcDbPolyline
 90
        2
 70
     0
 39
0.003
 10
2.571587
 20
2.317846
 40
0.003
 41
0.003
 10
2.563445
 20
2.331413
 40
0.003
 41
0.003
  0
LWPOLYLINE
  5
43E
100
AcDbEntity
  8
0
 62
     0
100
AcDbPolyline
 90
        2
 70
     0
 39
0.003
 10
2.563445
 20
2.331413
 40
0.003
 41
0.003
 10
2.554791
 20
2.344634
 40
0.003
 41
0.003
  0
LWPOLYLINE
  5
43F
100
AcDbEntity
  8
0
 62
     0
100
AcDbPolyline
 90
        2
 70
     0
 39
0.003
 10
2.554791
 20
2.344634
 40
0.003
 41
0.003
 10
2.545654
 20
2.3575
 40
0.003
 41
0.003
  0
LWPOLYLINE
  5
440
100
AcDbEntity
  8
0
 62
     0
100
AcDbPolyline
 90
        2
 70
     0
 39
0.003
 10
2.545654
 20
2.3575
 40
0.003
 41
0.003
 10
2.536028
 20
2.36998
 40
0.003
 41
0.003
  0
LWPOLYLINE
  5
441
100
AcDbEntity
  8
0
 62
     0
100
AcDbPolyline
 90
        2
 70
     0
 39
0.003
 10
2.536028
 20
2.36998
 40
0.003
 41
0.003
 10
2.525945
 20
2.382079
 40
0.003
 41
0.003
  0
LWPOLYLINE
  5
442
100
AcDbEntity
  8
0
 62
     0
100
AcDbPolyline
 90
        2
 70
     0
 39
0.003
 10
2.525945
 20
2.382079
 40
0.003
 41
0.003
 10
2.515406
 20
2.393776
 40
0.003
 41
0.003
  0
LWPOLYLINE
  5
443
100
AcDbEntity
  8
0
 62
     0
100
AcDbPolyline
 90
        2
 70
     0
 39
0.003
 10
2.515406
 20
2.393776
 40
0.003
 41
0.003
 10
2.504437
 20
2.405063
 40
0.003
 41
0.003
  0
LWPOLYLINE
  5
444
100
AcDbEntity
  8
0
 62
     0
100
AcDbPolyline
 90
        2
 70
     0
 39
0.003
 10
2.504437
 20
2.405063
 40
0.003
 41
0.003
 10
2.493035
 20
2.415913
 40
0.003
 41
0.003
  0
LWPOLYLINE
  5
445
100
AcDbEntity
  8
0
 62
     0
100
AcDbPolyline
 90
        2
 70
     0
 39
0.003
 10
2.493035
 20
2.415913
 40
0.003
 41
0.003
 10
2.481228
 20
2.426331
 40
0.003
 41
0.003
  0
LWPOLYLINE
  5
446
100
AcDbEntity
  8
0
 62
     0
100
AcDbPolyline
 90
        2
 70
     0
 39
0.003
 10
2.481228
 20
2.426331
 40
0.003
 41
0.003
 10
2.46902
 20
2.436291
 40
0.003
 41
0.003
  0
LWPOLYLINE
  5
447
100
AcDbEntity
  8
0
 62
     0
100
AcDbPolyline
 90
        2
 70
     0
 39
0.003
 10
2.46902
 20
2.436291
 40
0.003
 41
0.003
 10
2.456437
 20
2.445787
 40
0.003
 41
0.003
  0
LWPOLYLINE
  5
448
100
AcDbEntity
  8
0
 62
     0
100
AcDbPolyline
 90
        2
 70
     0
 39
0.003
 10
2.456437
 20
2.445787
 40
0.003
 41
0.003
 10
2.443472
 20
2.454795
 40
0.003
 41
0.003
  0
LWPOLYLINE
  5
449
100
AcDbEntity
  8
0
 62
     0
100
AcDbPolyline
 90
        2
 70
     0
 39
0.003
 10
2.443472
 20
2.454795
 40
0.003
 41
0.003
 10
2.430161
 20
2.463311
 40
0.003
 41
0.003
  0
LWPOLYLINE
  5
44A
100
AcDbEntity
  8
0
 62
     0
100
AcDbPolyline
 90
        2
 70
     0
 39
0.003
 10
2.430161
 20
2.463311
 40
0.003
 41
0.003
 10
2.4165
 20
2.471315
 40
0.003
 41
0.003
  0
LWPOLYLINE
  5
44B
100
AcDbEntity
  8
0
 62
     0
100
AcDbPolyline
 90
        2
 70
     0
 39
0.003
 10
2.4165
 20
2.471315
 40
0.003
 41
0.003
 10
2.40252
 20
2.478799
 40
0.003
 41
0.003
  0
LWPOLYLINE
  5
44C
100
AcDbEntity
  8
0
 62
     0
100
AcDbPolyline
 90
        2
 70
     0
 39
0.003
 10
2.40252
 20
2.478799
 40
0.003
 41
0.003
 10
2.388213
 20
2.485744
 40
0.003
 41
0.003
  0
LWPOLYLINE
  5
44D
100
AcDbEntity
  8
0
 62
     0
100
AcDbPolyline
 90
        2
 70
     0
 39
0.003
 10
2.388213
 20
2.485744
 40
0.003
 41
0.003
 10
2.37361
 20
2.492142
 40
0.003
 41
0.003
  0
LWPOLYLINE
  5
44E
100
AcDbEntity
  8
0
 62
     0
100
AcDbPolyline
 90
        2
 70
     0
 39
0.003
 10
2.37361
 20
2.492142
 40
0.003
 41
0.003
 10
2.358717
 20
2.497972
 40
0.003
 41
0.003
  0
LWPOLYLINE
  5
44F
100
AcDbEntity
  8
0
 62
     0
100
AcDbPolyline
 90
        2
 70
     0
 39
0.003
 10
2.358717
 20
2.497972
 40
0.003
 41
0.003
 10
2.343551
 20
2.503236
 40
0.003
 41
0.003
  0
LWPOLYLINE
  5
450
100
AcDbEntity
  8
0
 62
     0
100
AcDbPolyline
 90
        2
 70
     0
 39
0.003
 10
2.343551
 20
2.503236
 40
0.003
 41
0.003
 10
1.698488
 20
2.133843
 40
0.003
 41
0.003
  0
LWPOLYLINE
  5
451
100
AcDbEntity
  8
0
 62
     0
100
AcDbPolyline
 90
        2
 70
     0
 39
0.003
 10
1.698488
 20
2.133843
 40
0.003
 41
0.003
 10
1.713654
 20
2.128579
 40
0.003
 41
0.003
  0
LWPOLYLINE
  5
452
100
AcDbEntity
  8
0
 62
     0
100
AcDbPolyline
 90
        2
 70
     0
 39
0.003
 10
1.713654
 20
2.128579
 40
0.003
 41
0.003
 10
1.728547
 20
2.122748
 40
0.003
 41
0.003
  0
LWPOLYLINE
  5
453
100
AcDbEntity
  8
0
 62
     0
100
AcDbPolyline
 90
        2
 70
     0
 39
0.003
 10
1.728547
 20
2.122748
 40
0.003
 41
0.003
 10
1.74315
 20
2.11635
 40
0.003
 41
0.003
  0
LWPOLYLINE
  5
454
100
AcDbEntity
  8
0
 62
     0
100
AcDbPolyline
 90
        2
 70
     0
 39
0.003
 10
1.74315
 20
2.11635
 40
0.003
 41
0.003
 10
1.757457
 20
2.109406
 40
0.003
 41
0.003
  0
LWPOLYLINE
  5
455
100
AcDbEntity
  8
0
 62
     0
100
AcDbPolyline
 90
        2
 70
     0
 39
0.003
 10
1.757457
 20
2.109406
 40
0.003
 41
0.003
 10
1.771437
 20
2.101921
 40
0.003
 41
0.003
  0
LWPOLYLINE
  5
456
100
AcDbEntity
  8
0
 62
     0
100
AcDbPolyline
 90
        2
 70
     0
 39
0.003
 10
1.771437
 20
2.101921
 40
0.003
 41
0.003
 10
1.785098
 20
2.093917
 40
0.003
 41
0.003
  0
LWPOLYLINE
  5
457
100
AcDbEntity
  8
0
 62
     0
100
AcDbPolyline
 90
        2
 70
     0
 39
0.003
 10
1.785098
 20
2.093917
 40
0.003
 41
0.003
 10
1.798409
 20
2.085402
 40
0.003
 41
0.003
  0
LWPOLYLINE
  5
458
100
AcDbEntity
  8
0
 62
     0
100
AcDbPolyline
 90
        2
 70
     0
 39
0.003
 10
1.798409
 20
2.085402
 40
0.003
 41
0.003
 10
1.811374
 20
2.076394
 40
0.003
 41
0.003
  0
LWPOLYLINE
  5
459
100
AcDbEntity
  8
0
 62
     0
100
AcDbPolyline
 90
        2
 70
     0
 39
0.003
 10
1.811374
 20
2.076394
 40
0.003
 41
0.003
 10
1.823957
 20
2.066898
 40
0.003
 41
0.003
  0
LWPOLYLINE
  5
45A
100
AcDbEntity
  8
0
 62
     0
100
AcDbPolyline
 90
        2
 70
     0
 39
0.003
 10
1.823957
 20
2.066898
 40
0.003
 41
0.003
 10
1.836165
 20
2.056937
 40
0.003
 41
0.003
  0
LWPOLYLINE
  5
45B
100
AcDbEntity
  8
0
 62
     0
100
AcDbPolyline
 90
        2
 70
     0
 39
0.003
 10
1.836165
 20
2.056937
 40
0.003
 41
0.003
 10
1.847972
 20
2.04652
 40
0.003
 41
0.003
  0
LWPOLYLINE
  5
45C
100
AcDbEntity
  8
0
 62
     0
100
AcDbPolyline
 90
        2
 70
     0
 39
0.003
 10
1.847972
 20
2.04652
 40
0.003
 41
0.003
 10
1.859374
 20
2.035669
 40
0.003
 41
0.003
  0
LWPOLYLINE
  5
45D
100
AcDbEntity
  8
0
 62
     0
100
AcDbPolyline
 90
        2
 70
     0
 39
0.003
 10
1.859374
 20
2.035669
 40
0.003
 41
0.003
 10
1.870343
 20
2.024382
 40
0.003
 41
0.003
  0
LWPOLYLINE
  5
45E
100
AcDbEntity
  8
0
 62
     0
100
AcDbPolyline
 90
        2
 70
     0
 39
0.003
 10
1.870343
 20
2.024382
 40
0.003
 41
0.003
 10
1.880882
 20
2.012685
 40
0.003
 41
0.003
  0
LWPOLYLINE
  5
45F
100
AcDbEntity
  8
0
 62
     0
100
AcDbPolyline
 90
        2
 70
     0
 39
0.003
 10
1.880882
 20
2.012685
 40
0.003
 41
0.003
 10
1.890965
 20
2.000587
 40
0.003
 41
0.003
  0
LWPOLYLINE
  5
460
100
AcDbEntity
  8
0
 62
     0
100
AcDbPolyline
 90
        2
 70
     0
 39
0.003
 10
1.890965
 20
2.000587
 40
0.003
 41
0.003
 10
1.900591
 20
1.988106
 40
0.003
 41
0.003
  0
LWPOLYLINE
  5
461
100
AcDbEntity
  8
0
 62
     0
100
AcDbPolyline
 90
        2
 70
     0
 39
0.003
 10
1.900591
 20
1.988106
 40
0.003
 41
0.003
 10
1.909728
 20
1.97524
 40
0.003
 41
0.003
  0
LWPOLYLINE
  5
462
100
AcDbEntity
  8
0
 62
     0
100
AcDbPolyline
 90
        2
 70
     0
 39
0.003
 10
1.909728
 20
1.97524
 40
0.003
 41
0.003
 10
1.918382
 20
1.96202
 40
0.003
 41
0.003
  0
LWPOLYLINE
  5
463
100
AcDbEntity
  8
0
 62
     0
100
AcDbPolyline
 90
        2
 70
     0
 39
0.003
 10
1.918382
 20
1.96202
 40
0.003
 41
0.003
 10
1.926524
 20
1.948453
 40
0.003
 41
0.003
  0
LWPOLYLINE
  5
464
100
AcDbEntity
  8
0
 62
     0
100
AcDbPolyline
 90
        2
 70
     0
 39
0.003
 10
1.926524
 20
1.948453
 40
0.003
 41
0.003
 10
1.934154
 20
1.934555
 40
0.003
 41
0.003
  0
LWPOLYLINE
  5
465
100
AcDbEntity
  8
0
 62
     0
100
AcDbPolyline
 90
        2
 70
     0
 39
0.003
 10
1.934154
 20
1.934555
 40
0.003
 41
0.003
 10
1.94124
 20
1.920331
 40
0.003
 41
0.003
  0
LWPOLYLINE
  5
466
100
AcDbEntity
  8
0
 62
     0
100
AcDbPolyline
 90
        2
 70
     0
 39
0.003
 10
1.94124
 20
1.920331
 40
0.003
 41
0.003
 10
1.947791
 20
1.905807
 40
0.003
 41
0.003
  0
LWPOLYLINE
  5
467
100
AcDbEntity
  8
0
 62
     0
100
AcDbPolyline
 90
        2
 70
     0
 39
0.003
 10
1.947791
 20
1.905807
 40
0.003
 41
0.003
 10
1.95378
 20
1.890988
 40
0.003
 41
0.003
  0
LWPOLYLINE
  5
468
100
AcDbEntity
  8
0
 62
     0
100
AcDbPolyline
 90
        2
 70
     0
 39
0.003
 10
1.95378
 20
1.890988
 40
0.003
 41
0.003
 10
1.959201
 20
1.875898
 40
0.003
 41
0.003
  0
LWPOLYLINE
  5
469
100
AcDbEntity
  8
0
 62
     0
100
AcDbPolyline
 90
        2
 70
     0
 39
0.003
 10
1.959201
 20
1.875898
 40
0.003
 41
0.003
 10
1.964024
 20
1.860531
 40
0.003
 41
0.003
  0
LWPOLYLINE
  5
46A
100
AcDbEntity
  8
0
 62
     0
100
AcDbPolyline
 90
        2
 70
     0
 39
0.003
 10
1.964024
 20
1.860531
 40
0.003
 41
0.003
 10
1.968252
 20
1.844917
 40
0.003
 41
0.003
  0
LWPOLYLINE
  5
46B
100
AcDbEntity
  8
0
 62
     0
100
AcDbPolyline
 90
        2
 70
     0
 39
0.003
 10
1.968252
 20
1.844917
 40
0.003
 41
0.003
 10
1.971866
 20
1.829063
 40
0.003
 41
0.003
  0
LWPOLYLINE
  5
46C
100
AcDbEntity
  8
0
 62
     0
100
AcDbPolyline
 90
        2
 70
     0
 39
0.003
 10
1.971866
 20
1.829063
 40
0.003
 41
0.003
 10
1.974862
 20
1.812988
 40
0.003
 41
0.003
  0
LWPOLYLINE
  5
46D
100
AcDbEntity
  8
0
 62
     0
100
AcDbPolyline
 90
        2
 70
     0
 39
0.003
 10
1.974862
 20
1.812988
 40
0.003
 41
0.003
 10
1.977209
 20
1.796697
 40
0.003
 41
0.003
  0
LWPOLYLINE
  5
46E
100
AcDbEntity
  8
0
 62
     0
100
AcDbPolyline
 90
        2
 70
     0
 39
0.003
 10
1.977209
 20
1.796697
 40
0.003
 41
0.003
 10
1.978906
 20
1.780213
 40
0.003
 41
0.003
  0
LWPOLYLINE
  5
46F
100
AcDbEntity
  8
0
 62
     0
100
AcDbPolyline
 90
        2
 70
     0
 39
0.003
 10
1.978906
 20
1.780213
 40
0.003
 41
0.003
 10
1.979929
 20
1.763543
 40
0.003
 41
0.003
  0
LWPOLYLINE
  5
470
100
AcDbEntity
  8
0
 62
     0
100
AcDbPolyline
 90
        2
 70
     0
 39
0.003
 10
1.979929
 20
1.763543
 40
0.003
 41
0.003
 10
1.98028
 20
1.746709
 40
0.003
 41
0.003
  0
LWPOLYLINE
  5
471
100
AcDbEntity
  8
0
 62
     0
100
AcDbPolyline
 90
        2
 70
     0
 39
0.003
 10
1.98028
 20
1.746709
 40
0.003
 41
0.003
 10
1.979894
 20
1.728988
 40
0.003
 41
0.003
  0
LWPOLYLINE
  5
472
100
AcDbEntity
  8
0
 62
     0
100
AcDbPolyline
 90
        2
 70
     0
 39
0.003
 10
1.979894
 20
1.728988
 40
0.003
 41
0.003
 10
1.97876
 20
1.711465
 40
0.003
 41
0.003
  0
LWPOLYLINE
  5
473
100
AcDbEntity
  8
0
 62
     0
100
AcDbPolyline
 90
        2
 70
     0
 39
0.003
 10
1.97876
 20
1.711465
 40
0.003
 41
0.003
 10
1.976886
 20
1.694146
 40
0.003
 41
0.003
  0
LWPOLYLINE
  5
474
100
AcDbEntity
  8
0
 62
     0
100
AcDbPolyline
 90
        2
 70
     0
 39
0.003
 10
1.976886
 20
1.694146
 40
0.003
 41
0.003
 10
1.974291
 20
1.677051
 40
0.003
 41
0.003
  0
LWPOLYLINE
  5
475
100
AcDbEntity
  8
0
 62
     0
100
AcDbPolyline
 90
        2
 70
     0
 39
0.003
 10
1.974291
 20
1.677051
 40
0.003
 41
0.003
 10
1.970988
 20
1.660185
 40
0.003
 41
0.003
  0
LWPOLYLINE
  5
476
100
AcDbEntity
  8
0
 62
     0
100
AcDbPolyline
 90
        2
 70
     0
 39
0.003
 10
1.970988
 20
1.660185
 40
0.003
 41
0.003
 10
1.966996
 20
1.643579
 40
0.003
 41
0.003
  0
LWPOLYLINE
  5
477
100
AcDbEntity
  8
0
 62
     0
100
AcDbPolyline
 90
        2
 70
     0
 39
0.003
 10
1.966996
 20
1.643579
 40
0.003
 41
0.003
 10
1.962331
 20
1.627236
 40
0.003
 41
0.003
  0
LWPOLYLINE
  5
478
100
AcDbEntity
  8
0
 62
     0
100
AcDbPolyline
 90
        2
 70
     0
 39
0.003
 10
1.962331
 20
1.627236
 40
0.003
 41
0.003
 10
1.957012
 20
1.611185
 40
0.003
 41
0.003
  0
LWPOLYLINE
  5
479
100
AcDbEntity
  8
0
 62
     0
100
AcDbPolyline
 90
        2
 70
     0
 39
0.003
 10
1.957012
 20
1.611185
 40
0.003
 41
0.003
 10
1.951039
 20
1.595425
 40
0.003
 41
0.003
  0
LWPOLYLINE
  5
47A
100
AcDbEntity
  8
0
 62
     0
100
AcDbPolyline
 90
        2
 70
     0
 39
0.003
 10
1.951039
 20
1.595425
 40
0.003
 41
0.003
 10
1.944445
 20
1.579988
 40
0.003
 41
0.003
  0
LWPOLYLINE
  5
47B
100
AcDbEntity
  8
0
 62
     0
100
AcDbPolyline
 90
        2
 70
     0
 39
0.003
 10
1.944445
 20
1.579988
 40
0.003
 41
0.003
 10
1.937236
 20
1.564874
 40
0.003
 41
0.003
  0
LWPOLYLINE
  5
47C
100
AcDbEntity
  8
0
 62
     0
100
AcDbPolyline
 90
        2
 70
     0
 39
0.003
 10
1.937236
 20
1.564874
 40
0.003
 41
0.003
 10
1.929441
 20
1.550118
 40
0.003
 41
0.003
  0
LWPOLYLINE
  5
47D
100
AcDbEntity
  8
0
 62
     0
100
AcDbPolyline
 90
        2
 70
     0
 39
0.003
 10
1.929441
 20
1.550118
 40
0.003
 41
0.003
 10
1.921055
 20
1.535717
 40
0.003
 41
0.003
  0
LWPOLYLINE
  5
47E
100
AcDbEntity
  8
0
 62
     0
100
AcDbPolyline
 90
        2
 70
     0
 39
0.003
 10
1.921055
 20
1.535717
 40
0.003
 41
0.003
 10
1.912114
 20
1.521701
 40
0.003
 41
0.003
  0
LWPOLYLINE
  5
47F
100
AcDbEntity
  8
0
 62
     0
100
AcDbPolyline
 90
        2
 70
     0
 39
0.003
 10
1.912114
 20
1.521701
 40
0.003
 41
0.003
 10
1.902622
 20
1.508079
 40
0.003
 41
0.003
  0
LWPOLYLINE
  5
480
100
AcDbEntity
  8
0
 62
     0
100
AcDbPolyline
 90
        2
 70
     0
 39
0.003
 10
1.902622
 20
1.508079
 40
0.003
 41
0.003
 10
1.892598
 20
1.49487
 40
0.003
 41
0.003
  0
LWPOLYLINE
  5
481
100
AcDbEntity
  8
0
 62
     0
100
AcDbPolyline
 90
        2
 70
     0
 39
0.003
 10
1.892598
 20
1.49487
 40
0.003
 41
0.003
 10
1.882051
 20
1.482079
 40
0.003
 41
0.003
  0
LWPOLYLINE
  5
482
100
AcDbEntity
  8
0
 62
     0
100
AcDbPolyline
 90
        2
 70
     0
 39
0.003
 10
1.882051
 20
1.482079
 40
0.003
 41
0.003
 10
1.871008
 20
1.469732
 40
0.003
 41
0.003
  0
LWPOLYLINE
  5
483
100
AcDbEntity
  8
0
 62
     0
100
AcDbPolyline
 90
        2
 70
     0
 39
0.003
 10
1.871008
 20
1.469732
 40
0.003
 41
0.003
 10
1.859476
 20
1.457843
 40
0.003
 41
0.003
  0
LWPOLYLINE
  5
484
100
AcDbEntity
  8
0
 62
     0
100
AcDbPolyline
 90
        2
 70
     0
 39
0.003
 10
1.859476
 20
1.457843
 40
0.003
 41
0.003
 10
1.84748
 20
1.446429
 40
0.003
 41
0.003
  0
LWPOLYLINE
  5
485
100
AcDbEntity
  8
0
 62
     0
100
AcDbPolyline
 90
        2
 70
     0
 39
0.003
 10
1.84748
 20
1.446429
 40
0.003
 41
0.003
 10
1.835024
 20
1.4355
 40
0.003
 41
0.003
  0
LWPOLYLINE
  5
486
100
AcDbEntity
  8
0
 62
     0
100
AcDbPolyline
 90
        2
 70
     0
 39
0.003
 10
1.835024
 20
1.4355
 40
0.003
 41
0.003
 10
1.822138
 20
1.425083
 40
0.003
 41
0.003
  0
LWPOLYLINE
  5
487
100
AcDbEntity
  8
0
 62
     0
100
AcDbPolyline
 90
        2
 70
     0
 39
0.003
 10
1.822138
 20
1.425083
 40
0.003
 41
0.003
 10
1.808823
 20
1.415185
 40
0.003
 41
0.003
  0
LWPOLYLINE
  5
488
100
AcDbEntity
  8
0
 62
   254
100
AcDbPolyline
 90
        2
 70
     0
 39
0.003
 10
1.698488
 20
2.133843
 40
0.003
 41
0.003
 10
2.343551
 20
2.503236
 40
0.003
 41
0.003
  0
LWPOLYLINE
  5
489
100
AcDbEntity
  8
0
 62
   254
100
AcDbPolyline
 90
        2
 70
     0
 39
0.003
 10
2.343551
 20
2.503236
 40
0.003
 41
0.003
 10
2.343846
 20
2.613772
 40
0.003
 41
0.003
  0
LWPOLYLINE
  5
48A
100
AcDbEntity
  8
0
 62
   254
100
AcDbPolyline
 90
        2
 70
     0
 39
0.003
 10
2.343846
 20
2.613772
 40
0.003
 41
0.003
 10
1.698783
 20
2.244378
 40
0.003
 41
0.003
  0
LWPOLYLINE
  5
48B
100
AcDbEntity
  8
0
 62
   254
100
AcDbPolyline
 90
        2
 70
     0
 39
0.003
 10
1.698783
 20
2.244378
 40
0.003
 41
0.003
 10
1.698488
 20
2.133843
 40
0.003
 41
0.003
  0
LWPOLYLINE
  5
48C
100
AcDbEntity
  8
0
 62
     0
100
AcDbPolyline
 90
        2
 70
     0
 39
0.003
 10
1.698488
 20
2.133843
 40
0.003
 41
0.003
 10
2.343551
 20
2.503236
 40
0.003
 41
0.003
  0
LWPOLYLINE
  5
48D
100
AcDbEntity
  8
0
 62
     0
100
AcDbPolyline
 90
        2
 70
     0
 39
0.003
 10
2.343551
 20
2.503236
 40
0.003
 41
0.003
 10
2.343846
 20
2.613772
 40
0.003
 41
0.003
  0
LWPOLYLINE
  5
48E
100
AcDbEntity
  8
0
 62
     0
100
AcDbPolyline
 90
        2
 70
     0
 39
0.003
 10
2.343846
 20
2.613772
 40
0.003
 41
0.003
 10
1.698783
 20
2.244378
 40
0.003
 41
0.003
  0
LWPOLYLINE
  5
48F
100
AcDbEntity
  8
0
 62
     0
100
AcDbPolyline
 90
        2
 70
     0
 39
0.003
 10
1.698783
 20
2.244378
 40
0.003
 41
0.003
 10
1.698488
 20
2.133843
 40
0.003
 41
0.003
  0
LWPOLYLINE
  5
490
100
AcDbEntity
  8
0
 62
     9
100
AcDbPolyline
 90
        2
 70
     0
 39
0.003
 10
1.698783
 20
2.244378
 40
0.003
 41
0.003
 10
2.343846
 20
2.613772
 40
0.003
 41
0.003
  0
LWPOLYLINE
  5
491
100
AcDbEntity
  8
0
 62
     9
100
AcDbPolyline
 90
        2
 70
     0
 39
0.003
 10
2.343846
 20
2.613772
 40
0.003
 41
0.003
 10
0.406701
 20
3.137587
 40
0.003
 41
0.003
  0
LWPOLYLINE
  5
492
100
AcDbEntity
  8
0
 62
     9
100
AcDbPolyline
 90
        2
 70
     0
 39
0.003
 10
0.406701
 20
3.137587
 40
0.003
 41
0.003
 10
-0.238362
 20
2.768193
 40
0.003
 41
0.003
  0
LWPOLYLINE
  5
493
100
AcDbEntity
  8
0
 62
     9
100
AcDbPolyline
 90
        2
 70
     0
 39
0.003
 10
-0.238362
 20
2.768193
 40
0.003
 41
0.003
 10
1.698783
 20
2.244378
 40
0.003
 41
0.003
  0
LWPOLYLINE
  5
494
100
AcDbEntity
  8
0
 62
     0
100
AcDbPolyline
 90
        2
 70
     0
 39
0.003
 10
1.698783
 20
2.244378
 40
0.003
 41
0.003
 10
2.343846
 20
2.613772
 40
0.003
 41
0.003
  0
LWPOLYLINE
  5
495
100
AcDbEntity
  8
0
 62
     0
100
AcDbPolyline
 90
        2
 70
     0
 39
0.003
 10
2.343846
 20
2.613772
 40
0.003
 41
0.003
 10
0.406701
 20
3.137587
 40
0.003
 41
0.003
  0
LWPOLYLINE
  5
496
100
AcDbEntity
  8
0
 62
     0
100
AcDbPolyline
 90
        2
 70
     0
 39
0.003
 10
0.406701
 20
3.137587
 40
0.003
 41
0.003
 10
-0.238362
 20
2.768193
 40
0.003
 41
0.003
  0
LWPOLYLINE
  5
497
100
AcDbEntity
  8
0
 62
     0
100
AcDbPolyline
 90
        2
 70
     0
 39
0.003
 10
-0.238362
 20
2.768193
 40
0.003
 41
0.003
 10
1.698783
 20
2.244378
 40
0.003
 41
0.003
  0
LWPOLYLINE
  5
498
100
AcDbEntity
  8
0
 62
     9
100
AcDbPolyline
 90
        2
 70
     0
 39
0.003
 10
-0.238362
 20
2.768193
 40
0.003
 41
0.003
 10
0.406701
 20
3.137587
 40
0.003
 41
0.003
  0
LWPOLYLINE
  5
499
100
AcDbEntity
  8
0
 62
     9
100
AcDbPolyline
 90
        2
 70
     0
 39
0.003
 10
0.406701
 20
3.137587
 40
0.003
 41
0.003
 10
0.403654
 20
3.138319
 40
0.003
 41
0.003
  0
LWPOLYLINE
  5
49A
100
AcDbEntity
  8
0
 62
     9
100
AcDbPolyline
 90
        2
 70
     0
 39
0.003
 10
0.403654
 20
3.138319
 40
0.003
 41
0.003
 10
-0.241409
 20
2.768925
 40
0.003
 41
0.003
  0
LWPOLYLINE
  5
49B
100
AcDbEntity
  8
0
 62
     9
100
AcDbPolyline
 90
        2
 70
     0
 39
0.003
 10
-0.241409
 20
2.768925
 40
0.003
 41
0.003
 10
-0.238362
 20
2.768193
 40
0.003
 41
0.003
  0
LWPOLYLINE
  5
49C
100
AcDbEntity
  8
0
 62
     9
100
AcDbPolyline
 90
        2
 70
     0
 39
0.003
 10
-0.241409
 20
2.768925
 40
0.003
 41
0.003
 10
0.403654
 20
3.138319
 40
0.003
 41
0.003
  0
LWPOLYLINE
  5
49D
100
AcDbEntity
  8
0
 62
     9
100
AcDbPolyline
 90
        2
 70
     0
 39
0.003
 10
0.403654
 20
3.138319
 40
0.003
 41
0.003
 10
0.400504
 20
3.139102
 40
0.003
 41
0.003
  0
LWPOLYLINE
  5
49E
100
AcDbEntity
  8
0
 62
     9
100
AcDbPolyline
 90
        2
 70
     0
 39
0.003
 10
0.400504
 20
3.139102
 40
0.003
 41
0.003
 10
-0.244559
 20
2.769709
 40
0.003
 41
0.003
  0
LWPOLYLINE
  5
49F
100
AcDbEntity
  8
0
 62
     9
100
AcDbPolyline
 90
        2
 70
     0
 39
0.003
 10
-0.244559
 20
2.769709
 40
0.003
 41
0.003
 10
-0.241409
 20
2.768925
 40
0.003
 41
0.003
  0
LWPOLYLINE
  5
4A0
100
AcDbEntity
  8
0
 62
     9
100
AcDbPolyline
 90
        2
 70
     0
 39
0.003
 10
-0.244559
 20
2.769709
 40
0.003
 41
0.003
 10
0.400504
 20
3.139102
 40
0.003
 41
0.003
  0
LWPOLYLINE
  5
4A1
100
AcDbEntity
  8
0
 62
     9
100
AcDbPolyline
 90
        2
 70
     0
 39
0.003
 10
0.400504
 20
3.139102
 40
0.003
 41
0.003
 10
0.397256
 20
3.139913
 40
0.003
 41
0.003
  0
LWPOLYLINE
  5
4A2
100
AcDbEntity
  8
0
 62
     9
100
AcDbPolyline
 90
        2
 70
     0
 39
0.003
 10
0.397256
 20
3.139913
 40
0.003
 41
0.003
 10
-0.247807
 20
2.77052
 40
0.003
 41
0.003
  0
LWPOLYLINE
  5
4A3
100
AcDbEntity
  8
0
 62
     9
100
AcDbPolyline
 90
        2
 70
     0
 39
0.003
 10
-0.247807
 20
2.77052
 40
0.003
 41
0.003
 10
-0.244559
 20
2.769709
 40
0.003
 41
0.003
  0
LWPOLYLINE
  5
4A4
100
AcDbEntity
  8
0
 62
     9
100
AcDbPolyline
 90
        2
 70
     0
 39
0.003
 10
-0.247807
 20
2.77052
 40
0.003
 41
0.003
 10
0.397256
 20
3.139913
 40
0.003
 41
0.003
  0
LWPOLYLINE
  5
4A5
100
AcDbEntity
  8
0
 62
     9
100
AcDbPolyline
 90
        2
 70
     0
 39
0.003
 10
0.397256
 20
3.139913
 40
0.003
 41
0.003
 10
0.393906
 20
3.140764
 40
0.003
 41
0.003
  0
LWPOLYLINE
  5
4A6
100
AcDbEntity
  8
0
 62
     9
100
AcDbPolyline
 90
        2
 70
     0
 39
0.003
 10
0.393906
 20
3.140764
 40
0.003
 41
0.003
 10
-0.251157
 20
2.77137
 40
0.003
 41
0.003
  0
LWPOLYLINE
  5
4A7
100
AcDbEntity
  8
0
 62
     9
100
AcDbPolyline
 90
        2
 70
     0
 39
0.003
 10
-0.251157
 20
2.77137
 40
0.003
 41
0.003
 10
-0.247807
 20
2.77052
 40
0.003
 41
0.003
  0
LWPOLYLINE
  5
4A8
100
AcDbEntity
  8
0
 62
     9
100
AcDbPolyline
 90
        2
 70
     0
 39
0.003
 10
-0.251157
 20
2.77137
 40
0.003
 41
0.003
 10
0.393906
 20
3.140764
 40
0.003
 41
0.003
  0
LWPOLYLINE
  5
4A9
100
AcDbEntity
  8
0
 62
     9
100
AcDbPolyline
 90
        2
 70
     0
 39
0.003
 10
0.393906
 20
3.140764
 40
0.003
 41
0.003
 10
0.390461
 20
3.14163
 40
0.003
 41
0.003
  0
LWPOLYLINE
  5
4AA
100
AcDbEntity
  8
0
 62
     9
100
AcDbPolyline
 90
        2
 70
     0
 39
0.003
 10
0.390461
 20
3.14163
 40
0.003
 41
0.003
 10
-0.254602
 20
2.772236
 40
0.003
 41
0.003
  0
LWPOLYLINE
  5
4AB
100
AcDbEntity
  8
0
 62
     9
100
AcDbPolyline
 90
        2
 70
     0
 39
0.003
 10
-0.254602
 20
2.772236
 40
0.003
 41
0.003
 10
-0.251157
 20
2.77137
 40
0.003
 41
0.003
  0
LWPOLYLINE
  5
4AC
100
AcDbEntity
  8
0
 62
     9
100
AcDbPolyline
 90
        2
 70
     0
 39
0.003
 10
-0.254602
 20
2.772236
 40
0.003
 41
0.003
 10
0.390461
 20
3.14163
 40
0.003
 41
0.003
  0
LWPOLYLINE
  5
4AD
100
AcDbEntity
  8
0
 62
     9
100
AcDbPolyline
 90
        2
 70
     0
 39
0.003
 10
0.390461
 20
3.14163
 40
0.003
 41
0.003
 10
0.386902
 20
3.142528
 40
0.003
 41
0.003
  0
LWPOLYLINE
  5
4AE
100
AcDbEntity
  8
0
 62
     9
100
AcDbPolyline
 90
        2
 70
     0
 39
0.003
 10
0.386902
 20
3.142528
 40
0.003
 41
0.003
 10
-0.258161
 20
2.773134
 40
0.003
 41
0.003
  0
LWPOLYLINE
  5
4AF
100
AcDbEntity
  8
0
 62
     9
100
AcDbPolyline
 90
        2
 70
     0
 39
0.003
 10
-0.258161
 20
2.773134
 40
0.003
 41
0.003
 10
-0.254602
 20
2.772236
 40
0.003
 41
0.003
  0
LWPOLYLINE
  5
4B0
100
AcDbEntity
  8
0
 62
     9
100
AcDbPolyline
 90
        2
 70
     0
 39
0.003
 10
-0.258161
 20
2.773134
 40
0.003
 41
0.003
 10
0.386902
 20
3.142528
 40
0.003
 41
0.003
  0
LWPOLYLINE
  5
4B1
100
AcDbEntity
  8
0
 62
     9
100
AcDbPolyline
 90
        2
 70
     0
 39
0.003
 10
0.386902
 20
3.142528
 40
0.003
 41
0.003
 10
0.383244
 20
3.143437
 40
0.003
 41
0.003
  0
LWPOLYLINE
  5
4B2
100
AcDbEntity
  8
0
 62
     9
100
AcDbPolyline
 90
        2
 70
     0
 39
0.003
 10
0.383244
 20
3.143437
 40
0.003
 41
0.003
 10
-0.261819
 20
2.774043
 40
0.003
 41
0.003
  0
LWPOLYLINE
  5
4B3
100
AcDbEntity
  8
0
 62
     9
100
AcDbPolyline
 90
        2
 70
     0
 39
0.003
 10
-0.261819
 20
2.774043
 40
0.003
 41
0.003
 10
-0.258161
 20
2.773134
 40
0.003
 41
0.003
  0
LWPOLYLINE
  5
4B4
100
AcDbEntity
  8
0
 62
     9
100
AcDbPolyline
 90
        2
 70
     0
 39
0.003
 10
-0.261819
 20
2.774043
 40
0.003
 41
0.003
 10
0.383244
 20
3.143437
 40
0.003
 41
0.003
  0
LWPOLYLINE
  5
4B5
100
AcDbEntity
  8
0
 62
     9
100
AcDbPolyline
 90
        2
 70
     0
 39
0.003
 10
0.383244
 20
3.143437
 40
0.003
 41
0.003
 10
0.379469
 20
3.14437
 40
0.003
 41
0.003
  0
LWPOLYLINE
  5
4B6
100
AcDbEntity
  8
0
 62
     9
100
AcDbPolyline
 90
        2
 70
     0
 39
0.003
 10
0.379469
 20
3.14437
 40
0.003
 41
0.003
 10
-0.265594
 20
2.774976
 40
0.003
 41
0.003
  0
LWPOLYLINE
  5
4B7
100
AcDbEntity
  8
0
 62
     9
100
AcDbPolyline
 90
        2
 70
     0
 39
0.003
 10
-0.265594
 20
2.774976
 40
0.003
 41
0.003
 10
-0.261819
 20
2.774043
 40
0.003
 41
0.003
  0
LWPOLYLINE
  5
4B8
100
AcDbEntity
  8
0
 62
     9
100
AcDbPolyline
 90
        2
 70
     0
 39
0.003
 10
-0.265594
 20
2.774976
 40
0.003
 41
0.003
 10
0.379469
 20
3.14437
 40
0.003
 41
0.003
  0
LWPOLYLINE
  5
4B9
100
AcDbEntity
  8
0
 62
     9
100
AcDbPolyline
 90
        2
 70
     0
 39
0.003
 10
0.379469
 20
3.14437
 40
0.003
 41
0.003
 10
0.375594
 20
3.145303
 40
0.003
 41
0.003
  0
LWPOLYLINE
  5
4BA
100
AcDbEntity
  8
0
 62
     9
100
AcDbPolyline
 90
        2
 70
     0
 39
0.003
 10
0.375594
 20
3.145303
 40
0.003
 41
0.003
 10
-0.269469
 20
2.775909
 40
0.003
 41
0.003
  0
LWPOLYLINE
  5
4BB
100
AcDbEntity
  8
0
 62
     9
100
AcDbPolyline
 90
        2
 70
     0
 39
0.003
 10
-0.269469
 20
2.775909
 40
0.003
 41
0.003
 10
-0.265594
 20
2.774976
 40
0.003
 41
0.003
  0
LWPOLYLINE
  5
4BC
100
AcDbEntity
  8
0
 62
     9
100
AcDbPolyline
 90
        2
 70
     0
 39
0.003
 10
-0.269469
 20
2.775909
 40
0.003
 41
0.003
 10
0.375594
 20
3.145303
 40
0.003
 41
0.003
  0
LWPOLYLINE
  5
4BD
100
AcDbEntity
  8
0
 62
     9
100
AcDbPolyline
 90
        2
 70
     0
 39
0.003
 10
0.375594
 20
3.145303
 40
0.003
 41
0.003
 10
0.371598
 20
3.146248
 40
0.003
 41
0.003
  0
LWPOLYLINE
  5
4BE
100
AcDbEntity
  8
0
 62
     9
100
AcDbPolyline
 90
        2
 70
     0
 39
0.003
 10
0.371598
 20
3.146248
 40
0.003
 41
0.003
 10
-0.273465
 20
2.776854
 40
0.003
 41
0.003
  0
LWPOLYLINE
  5
4BF
100
AcDbEntity
  8
0
 62
     9
100
AcDbPolyline
 90
        2
 70
     0
 39
0.003
 10
-0.273465
 20
2.776854
 40
0.003
 41
0.003
 10
-0.269469
 20
2.775909
 40
0.003
 41
0.003
  0
LWPOLYLINE
  5
4C0
100
AcDbEntity
  8
0
 62
     9
100
AcDbPolyline
 90
        2
 70
     0
 39
0.003
 10
-0.273465
 20
2.776854
 40
0.003
 41
0.003
 10
0.371598
 20
3.146248
 40
0.003
 41
0.003
  0
LWPOLYLINE
  5
4C1
100
AcDbEntity
  8
0
 62
     9
100
AcDbPolyline
 90
        2
 70
     0
 39
0.003
 10
0.371598
 20
3.146248
 40
0.003
 41
0.003
 10
0.367488
 20
3.147193
 40
0.003
 41
0.003
  0
LWPOLYLINE
  5
4C2
100
AcDbEntity
  8
0
 62
     9
100
AcDbPolyline
 90
        2
 70
     0
 39
0.003
 10
0.367488
 20
3.147193
 40
0.003
 41
0.003
 10
-0.277575
 20
2.777799
 40
0.003
 41
0.003
  0
LWPOLYLINE
  5
4C3
100
AcDbEntity
  8
0
 62
     9
100
AcDbPolyline
 90
        2
 70
     0
 39
0.003
 10
-0.277575
 20
2.777799
 40
0.003
 41
0.003
 10
-0.273465
 20
2.776854
 40
0.003
 41
0.003
  0
LWPOLYLINE
  5
4C4
100
AcDbEntity
  8
0
 62
     9
100
AcDbPolyline
 90
        2
 70
     0
 39
0.003
 10
-0.277575
 20
2.777799
 40
0.003
 41
0.003
 10
0.367488
 20
3.147193
 40
0.003
 41
0.003
  0
LWPOLYLINE
  5
4C5
100
AcDbEntity
  8
0
 62
     9
100
AcDbPolyline
 90
        2
 70
     0
 39
0.003
 10
0.367488
 20
3.147193
 40
0.003
 41
0.003
 10
0.363256
 20
3.148138
 40
0.003
 41
0.003
  0
LWPOLYLINE
  5
4C6
100
AcDbEntity
  8
0
 62
     9
100
AcDbPolyline
 90
        2
 70
     0
 39
0.003
 10
0.363256
 20
3.148138
 40
0.003
 41
0.003
 10
-0.281807
 20
2.778744
 40
0.003
 41
0.003
  0
LWPOLYLINE
  5
4C7
100
AcDbEntity
  8
0
 62
     9
100
AcDbPolyline
 90
        2
 70
     0
 39
0.003
 10
-0.281807
 20
2.778744
 40
0.003
 41
0.003
 10
-0.277575
 20
2.777799
 40
0.003
 41
0.003
  0
LWPOLYLINE
  5
4C8
100
AcDbEntity
  8
0
 62
     9
100
AcDbPolyline
 90
        2
 70
     0
 39
0.003
 10
-0.281807
 20
2.778744
 40
0.003
 41
0.003
 10
0.363256
 20
3.148138
 40
0.003
 41
0.003
  0
LWPOLYLINE
  5
4C9
100
AcDbEntity
  8
0
 62
     9
100
AcDbPolyline
 90
        2
 70
     0
 39
0.003
 10
0.363256
 20
3.148138
 40
0.003
 41
0.003
 10
0.358909
 20
3.149071
 40
0.003
 41
0.003
  0
LWPOLYLINE
  5
4CA
100
AcDbEntity
  8
0
 62
     9
100
AcDbPolyline
 90
        2
 70
     0
 39
0.003
 10
0.358909
 20
3.149071
 40
0.003
 41
0.003
 10
-0.286154
 20
2.779677
 40
0.003
 41
0.003
  0
LWPOLYLINE
  5
4CB
100
AcDbEntity
  8
0
 62
     9
100
AcDbPolyline
 90
        2
 70
     0
 39
0.003
 10
-0.286154
 20
2.779677
 40
0.003
 41
0.003
 10
-0.281807
 20
2.778744
 40
0.003
 41
0.003
  0
LWPOLYLINE
  5
4CC
100
AcDbEntity
  8
0
 62
     9
100
AcDbPolyline
 90
        2
 70
     0
 39
0.003
 10
-0.286154
 20
2.779677
 40
0.003
 41
0.003
 10
0.358909
 20
3.149071
 40
0.003
 41
0.003
  0
LWPOLYLINE
  5
4CD
100
AcDbEntity
  8
0
 62
     9
100
AcDbPolyline
 90
        2
 70
     0
 39
0.003
 10
0.358909
 20
3.149071
 40
0.003
 41
0.003
 10
0.354433
 20
3.15
 40
0.003
 41
0.003
  0
LWPOLYLINE
  5
4CE
100
AcDbEntity
  8
0
 62
     9
100
AcDbPolyline
 90
        2
 70
     0
 39
0.003
 10
0.354433
 20
3.15
 40
0.003
 41
0.003
 10
-0.29063
 20
2.780606
 40
0.003
 41
0.003
  0
LWPOLYLINE
  5
4CF
100
AcDbEntity
  8
0
 62
     9
100
AcDbPolyline
 90
        2
 70
     0
 39
0.003
 10
-0.29063
 20
2.780606
 40
0.003
 41
0.003
 10
-0.286154
 20
2.779677
 40
0.003
 41
0.003
  0
LWPOLYLINE
  5
4D0
100
AcDbEntity
  8
0
 62
     9
100
AcDbPolyline
 90
        2
 70
     0
 39
0.003
 10
-0.29063
 20
2.780606
 40
0.003
 41
0.003
 10
0.354433
 20
3.15
 40
0.003
 41
0.003
  0
LWPOLYLINE
  5
4D1
100
AcDbEntity
  8
0
 62
     9
100
AcDbPolyline
 90
        2
 70
     0
 39
0.003
 10
0.354433
 20
3.15
 40
0.003
 41
0.003
 10
0.349839
 20
3.150913
 40
0.003
 41
0.003
  0
LWPOLYLINE
  5
4D2
100
AcDbEntity
  8
0
 62
     9
100
AcDbPolyline
 90
        2
 70
     0
 39
0.003
 10
0.349839
 20
3.150913
 40
0.003
 41
0.003
 10
-0.295224
 20
2.78152
 40
0.003
 41
0.003
  0
LWPOLYLINE
  5
4D3
100
AcDbEntity
  8
0
 62
     9
100
AcDbPolyline
 90
        2
 70
     0
 39
0.003
 10
-0.295224
 20
2.78152
 40
0.003
 41
0.003
 10
-0.29063
 20
2.780606
 40
0.003
 41
0.003
  0
LWPOLYLINE
  5
4D4
100
AcDbEntity
  8
0
 62
     9
100
AcDbPolyline
 90
        2
 70
     0
 39
0.003
 10
-0.295224
 20
2.78152
 40
0.003
 41
0.003
 10
0.349839
 20
3.150913
 40
0.003
 41
0.003
  0
LWPOLYLINE
  5
4D5
100
AcDbEntity
  8
0
 62
     9
100
AcDbPolyline
 90
        2
 70
     0
 39
0.003
 10
0.349839
 20
3.150913
 40
0.003
 41
0.003
 10
0.34511
 20
3.151811
 40
0.003
 41
0.003
  0
LWPOLYLINE
  5
4D6
100
AcDbEntity
  8
0
 62
     9
100
AcDbPolyline
 90
        2
 70
     0
 39
0.003
 10
0.34511
 20
3.151811
 40
0.003
 41
0.003
 10
-0.299953
 20
2.782417
 40
0.003
 41
0.003
  0
LWPOLYLINE
  5
4D7
100
AcDbEntity
  8
0
 62
     9
100
AcDbPolyline
 90
        2
 70
     0
 39
0.003
 10
-0.299953
 20
2.782417
 40
0.003
 41
0.003
 10
-0.295224
 20
2.78152
 40
0.003
 41
0.003
  0
LWPOLYLINE
  5
4D8
100
AcDbEntity
  8
0
 62
     9
100
AcDbPolyline
 90
        2
 70
     0
 39
0.003
 10
-0.299953
 20
2.782417
 40
0.003
 41
0.003
 10
0.34511
 20
3.151811
 40
0.003
 41
0.003
  0
LWPOLYLINE
  5
4D9
100
AcDbEntity
  8
0
 62
     9
100
AcDbPolyline
 90
        2
 70
     0
 39
0.003
 10
0.34511
 20
3.151811
 40
0.003
 41
0.003
 10
0.340264
 20
3.152673
 40
0.003
 41
0.003
  0
LWPOLYLINE
  5
4DA
100
AcDbEntity
  8
0
 62
     9
100
AcDbPolyline
 90
        2
 70
     0
 39
0.003
 10
0.340264
 20
3.152673
 40
0.003
 41
0.003
 10
-0.304799
 20
2.78328
 40
0.003
 41
0.003
  0
LWPOLYLINE
  5
4DB
100
AcDbEntity
  8
0
 62
     9
100
AcDbPolyline
 90
        2
 70
     0
 39
0.003
 10
-0.304799
 20
2.78328
 40
0.003
 41
0.003
 10
-0.299953
 20
2.782417
 40
0.003
 41
0.003
  0
LWPOLYLINE
  5
4DC
100
AcDbEntity
  8
0
 62
     9
100
AcDbPolyline
 90
        2
 70
     0
 39
0.003
 10
-0.304799
 20
2.78328
 40
0.003
 41
0.003
 10
0.340264
 20
3.152673
 40
0.003
 41
0.003
  0
LWPOLYLINE
  5
4DD
100
AcDbEntity
  8
0
 62
     9
100
AcDbPolyline
 90
        2
 70
     0
 39
0.003
 10
0.340264
 20
3.152673
 40
0.003
 41
0.003
 10
0.33528
 20
3.15352
 40
0.003
 41
0.003
  0
LWPOLYLINE
  5
4DE
100
AcDbEntity
  8
0
 62
     9
100
AcDbPolyline
 90
        2
 70
     0
 39
0.003
 10
0.33528
 20
3.15352
 40
0.003
 41
0.003
 10
-0.309783
 20
2.784126
 40
0.003
 41
0.003
  0
LWPOLYLINE
  5
4DF
100
AcDbEntity
  8
0
 62
     9
100
AcDbPolyline
 90
        2
 70
     0
 39
0.003
 10
-0.309783
 20
2.784126
 40
0.003
 41
0.003
 10
-0.304799
 20
2.78328
 40
0.003
 41
0.003
  0
LWPOLYLINE
  5
4E0
100
AcDbEntity
  8
0
 62
     9
100
AcDbPolyline
 90
        2
 70
     0
 39
0.003
 10
-0.309783
 20
2.784126
 40
0.003
 41
0.003
 10
0.33528
 20
3.15352
 40
0.003
 41
0.003
  0
LWPOLYLINE
  5
4E1
100
AcDbEntity
  8
0
 62
     9
100
AcDbPolyline
 90
        2
 70
     0
 39
0.003
 10
0.33528
 20
3.15352
 40
0.003
 41
0.003
 10
0.330161
 20
3.154331
 40
0.003
 41
0.003
  0
LWPOLYLINE
  5
4E2
100
AcDbEntity
  8
0
 62
     9
100
AcDbPolyline
 90
        2
 70
     0
 39
0.003
 10
0.330161
 20
3.154331
 40
0.003
 41
0.003
 10
-0.314902
 20
2.784937
 40
0.003
 41
0.003
  0
LWPOLYLINE
  5
4E3
100
AcDbEntity
  8
0
 62
     9
100
AcDbPolyline
 90
        2
 70
     0
 39
0.003
 10
-0.314902
 20
2.784937
 40
0.003
 41
0.003
 10
-0.309783
 20
2.784126
 40
0.003
 41
0.003
  0
LWPOLYLINE
  5
4E4
100
AcDbEntity
  8
0
 62
     9
100
AcDbPolyline
 90
        2
 70
     0
 39
0.003
 10
-0.314902
 20
2.784937
 40
0.003
 41
0.003
 10
0.330161
 20
3.154331
 40
0.003
 41
0.003
  0
LWPOLYLINE
  5
4E5
100
AcDbEntity
  8
0
 62
     9
100
AcDbPolyline
 90
        2
 70
     0
 39
0.003
 10
0.330161
 20
3.154331
 40
0.003
 41
0.003
 10
0.324902
 20
3.155114
 40
0.003
 41
0.003
  0
LWPOLYLINE
  5
4E6
100
AcDbEntity
  8
0
 62
     9
100
AcDbPolyline
 90
        2
 70
     0
 39
0.003
 10
0.324902
 20
3.155114
 40
0.003
 41
0.003
 10
-0.320161
 20
2.78572
 40
0.003
 41
0.003
  0
LWPOLYLINE
  5
4E7
100
AcDbEntity
  8
0
 62
     9
100
AcDbPolyline
 90
        2
 70
     0
 39
0.003
 10
-0.320161
 20
2.78572
 40
0.003
 41
0.003
 10
-0.314902
 20
2.784937
 40
0.003
 41
0.003
  0
LWPOLYLINE
  5
4E8
100
AcDbEntity
  8
0
 62
     9
100
AcDbPolyline
 90
        2
 70
     0
 39
0.003
 10
-0.320161
 20
2.78572
 40
0.003
 41
0.003
 10
0.324902
 20
3.155114
 40
0.003
 41
0.003
  0
LWPOLYLINE
  5
4E9
100
AcDbEntity
  8
0
 62
     9
100
AcDbPolyline
 90
        2
 70
     0
 39
0.003
 10
0.324902
 20
3.155114
 40
0.003
 41
0.003
 10
0.319512
 20
3.15585
 40
0.003
 41
0.003
  0
LWPOLYLINE
  5
4EA
100
AcDbEntity
  8
0
 62
     9
100
AcDbPolyline
 90
        2
 70
     0
 39
0.003
 10
0.319512
 20
3.15585
 40
0.003
 41
0.003
 10
-0.325551
 20
2.786457
 40
0.003
 41
0.003
  0
LWPOLYLINE
  5
4EB
100
AcDbEntity
  8
0
 62
     9
100
AcDbPolyline
 90
        2
 70
     0
 39
0.003
 10
-0.325551
 20
2.786457
 40
0.003
 41
0.003
 10
-0.320161
 20
2.78572
 40
0.003
 41
0.003
  0
LWPOLYLINE
  5
4EC
100
AcDbEntity
  8
0
 62
     9
100
AcDbPolyline
 90
        2
 70
     0
 39
0.003
 10
-0.325551
 20
2.786457
 40
0.003
 41
0.003
 10
0.319512
 20
3.15585
 40
0.003
 41
0.003
  0
LWPOLYLINE
  5
4ED
100
AcDbEntity
  8
0
 62
     9
100
AcDbPolyline
 90
        2
 70
     0
 39
0.003
 10
0.319512
 20
3.15585
 40
0.003
 41
0.003
 10
0.313972
 20
3.156547
 40
0.003
 41
0.003
  0
LWPOLYLINE
  5
4EE
100
AcDbEntity
  8
0
 62
     9
100
AcDbPolyline
 90
        2
 70
     0
 39
0.003
 10
0.313972
 20
3.156547
 40
0.003
 41
0.003
 10
-0.331091
 20
2.787154
 40
0.003
 41
0.003
  0
LWPOLYLINE
  5
4EF
100
AcDbEntity
  8
0
 62
     9
100
AcDbPolyline
 90
        2
 70
     0
 39
0.003
 10
-0.331091
 20
2.787154
 40
0.003
 41
0.003
 10
-0.325551
 20
2.786457
 40
0.003
 41
0.003
  0
LWPOLYLINE
  5
4F0
100
AcDbEntity
  8
0
 62
     9
100
AcDbPolyline
 90
        2
 70
     0
 39
0.003
 10
-0.331091
 20
2.787154
 40
0.003
 41
0.003
 10
0.313972
 20
3.156547
 40
0.003
 41
0.003
  0
LWPOLYLINE
  5
4F1
100
AcDbEntity
  8
0
 62
     9
100
AcDbPolyline
 90
        2
 70
     0
 39
0.003
 10
0.313972
 20
3.156547
 40
0.003
 41
0.003
 10
0.308291
 20
3.157193
 40
0.003
 41
0.003
  0
LWPOLYLINE
  5
4F2
100
AcDbEntity
  8
0
 62
     9
100
AcDbPolyline
 90
        2
 70
     0
 39
0.003
 10
0.308291
 20
3.157193
 40
0.003
 41
0.003
 10
-0.336772
 20
2.787799
 40
0.003
 41
0.003
  0
LWPOLYLINE
  5
4F3
100
AcDbEntity
  8
0
 62
     9
100
AcDbPolyline
 90
        2
 70
     0
 39
0.003
 10
-0.336772
 20
2.787799
 40
0.003
 41
0.003
 10
-0.331091
 20
2.787154
 40
0.003
 41
0.003
  0
LWPOLYLINE
  5
4F4
100
AcDbEntity
  8
0
 62
     9
100
AcDbPolyline
 90
        2
 70
     0
 39
0.003
 10
-0.336772
 20
2.787799
 40
0.003
 41
0.003
 10
0.308291
 20
3.157193
 40
0.003
 41
0.003
  0
LWPOLYLINE
  5
4F5
100
AcDbEntity
  8
0
 62
     9
100
AcDbPolyline
 90
        2
 70
     0
 39
0.003
 10
0.308291
 20
3.157193
 40
0.003
 41
0.003
 10
0.302465
 20
3.157795
 40
0.003
 41
0.003
  0
LWPOLYLINE
  5
4F6
100
AcDbEntity
  8
0
 62
     9
100
AcDbPolyline
 90
        2
 70
     0
 39
0.003
 10
0.302465
 20
3.157795
 40
0.003
 41
0.003
 10
-0.342598
 20
2.788402
 40
0.003
 41
0.003
  0
LWPOLYLINE
  5
4F7
100
AcDbEntity
  8
0
 62
     9
100
AcDbPolyline
 90
        2
 70
     0
 39
0.003
 10
-0.342598
 20
2.788402
 40
0.003
 41
0.003
 10
-0.336772
 20
2.787799
 40
0.003
 41
0.003
  0
LWPOLYLINE
  5
4F8
100
AcDbEntity
  8
0
 62
   253
100
AcDbPolyline
 90
        2
 70
     0
 39
0.003
 10
-0.342598
 20
2.788402
 40
0.003
 41
0.003
 10
0.302465
 20
3.157795
 40
0.003
 41
0.003
  0
LWPOLYLINE
  5
4F9
100
AcDbEntity
  8
0
 62
   253
100
AcDbPolyline
 90
        2
 70
     0
 39
0.003
 10
0.302465
 20
3.157795
 40
0.003
 41
0.003
 10
0.296492
 20
3.158331
 40
0.003
 41
0.003
  0
LWPOLYLINE
  5
4FA
100
AcDbEntity
  8
0
 62
   253
100
AcDbPolyline
 90
        2
 70
     0
 39
0.003
 10
0.296492
 20
3.158331
 40
0.003
 41
0.003
 10
-0.348571
 20
2.788937
 40
0.003
 41
0.003
  0
LWPOLYLINE
  5
4FB
100
AcDbEntity
  8
0
 62
   253
100
AcDbPolyline
 90
        2
 70
     0
 39
0.003
 10
-0.348571
 20
2.788937
 40
0.003
 41
0.003
 10
-0.342598
 20
2.788402
 40
0.003
 41
0.003
  0
LWPOLYLINE
  5
4FC
100
AcDbEntity
  8
0
 62
   253
100
AcDbPolyline
 90
        2
 70
     0
 39
0.003
 10
-0.348571
 20
2.788937
 40
0.003
 41
0.003
 10
0.296492
 20
3.158331
 40
0.003
 41
0.003
  0
LWPOLYLINE
  5
4FD
100
AcDbEntity
  8
0
 62
   253
100
AcDbPolyline
 90
        2
 70
     0
 39
0.003
 10
0.296492
 20
3.158331
 40
0.003
 41
0.003
 10
0.29037
 20
3.158815
 40
0.003
 41
0.003
  0
LWPOLYLINE
  5
4FE
100
AcDbEntity
  8
0
 62
   253
100
AcDbPolyline
 90
        2
 70
     0
 39
0.003
 10
0.29037
 20
3.158815
 40
0.003
 41
0.003
 10
-0.354693
 20
2.789421
 40
0.003
 41
0.003
  0
LWPOLYLINE
  5
4FF
100
AcDbEntity
  8
0
 62
   253
100
AcDbPolyline
 90
        2
 70
     0
 39
0.003
 10
-0.354693
 20
2.789421
 40
0.003
 41
0.003
 10
-0.348571
 20
2.788937
 40
0.003
 41
0.003
  0
LWPOLYLINE
  5
500
100
AcDbEntity
  8
0
 62
   253
100
AcDbPolyline
 90
        2
 70
     0
 39
0.003
 10
-0.354693
 20
2.789421
 40
0.003
 41
0.003
 10
0.29037
 20
3.158815
 40
0.003
 41
0.003
  0
LWPOLYLINE
  5
501
100
AcDbEntity
  8
0
 62
   253
100
AcDbPolyline
 90
        2
 70
     0
 39
0.003
 10
0.29037
 20
3.158815
 40
0.003
 41
0.003
 10
0.284094
 20
3.159232
 40
0.003
 41
0.003
  0
LWPOLYLINE
  5
502
100
AcDbEntity
  8
0
 62
   253
100
AcDbPolyline
 90
        2
 70
     0
 39
0.003
 10
0.284094
 20
3.159232
 40
0.003
 41
0.003
 10
-0.360969
 20
2.789839
 40
0.003
 41
0.003
  0
LWPOLYLINE
  5
503
100
AcDbEntity
  8
0
 62
   253
100
AcDbPolyline
 90
        2
 70
     0
 39
0.003
 10
-0.360969
 20
2.789839
 40
0.003
 41
0.003
 10
-0.354693
 20
2.789421
 40
0.003
 41
0.003
  0
LWPOLYLINE
  5
504
100
AcDbEntity
  8
0
 62
   253
100
AcDbPolyline
 90
        2
 70
     0
 39
0.003
 10
-0.360969
 20
2.789839
 40
0.003
 41
0.003
 10
0.284094
 20
3.159232
 40
0.003
 41
0.003
  0
LWPOLYLINE
  5
505
100
AcDbEntity
  8
0
 62
   253
100
AcDbPolyline
 90
        2
 70
     0
 39
0.003
 10
0.284094
 20
3.159232
 40
0.003
 41
0.003
 10
0.277661
 20
3.159587
 40
0.003
 41
0.003
  0
LWPOLYLINE
  5
506
100
AcDbEntity
  8
0
 62
   253
100
AcDbPolyline
 90
        2
 70
     0
 39
0.003
 10
0.277661
 20
3.159587
 40
0.003
 41
0.003
 10
-0.367402
 20
2.790193
 40
0.003
 41
0.003
  0
LWPOLYLINE
  5
507
100
AcDbEntity
  8
0
 62
   253
100
AcDbPolyline
 90
        2
 70
     0
 39
0.003
 10
-0.367402
 20
2.790193
 40
0.003
 41
0.003
 10
-0.360969
 20
2.789839
 40
0.003
 41
0.003
  0
LWPOLYLINE
  5
508
100
AcDbEntity
  8
0
 62
   253
100
AcDbPolyline
 90
        2
 70
     0
 39
0.003
 10
-0.367402
 20
2.790193
 40
0.003
 41
0.003
 10
0.277661
 20
3.159587
 40
0.003
 41
0.003
  0
LWPOLYLINE
  5
509
100
AcDbEntity
  8
0
 62
   253
100
AcDbPolyline
 90
        2
 70
     0
 39
0.003
 10
0.277661
 20
3.159587
 40
0.003
 41
0.003
 10
0.271079
 20
3.159858
 40
0.003
 41
0.003
  0
LWPOLYLINE
  5
50A
100
AcDbEntity
  8
0
 62
   253
100
AcDbPolyline
 90
        2
 70
     0
 39
0.003
 10
0.271079
 20
3.159858
 40
0.003
 41
0.003
 10
-0.373984
 20
2.790465
 40
0.003
 41
0.003
  0
LWPOLYLINE
  5
50B
100
AcDbEntity
  8
0
 62
   253
100
AcDbPolyline
 90
        2
 70
     0
 39
0.003
 10
-0.373984
 20
2.790465
 40
0.003
 41
0.003
 10
-0.367402
 20
2.790193
 40
0.003
 41
0.003
  0
LWPOLYLINE
  5
50C
100
AcDbEntity
  8
0
 62
   253
100
AcDbPolyline
 90
        2
 70
     0
 39
0.003
 10
-0.373984
 20
2.790465
 40
0.003
 41
0.003
 10
0.271079
 20
3.159858
 40
0.003
 41
0.003
  0
LWPOLYLINE
  5
50D
100
AcDbEntity
  8
0
 62
   253
100
AcDbPolyline
 90
        2
 70
     0
 39
0.003
 10
0.271079
 20
3.159858
 40
0.003
 41
0.003
 10
0.264331
 20
3.160067
 40
0.003
 41
0.003
  0
LWPOLYLINE
  5
50E
100
AcDbEntity
  8
0
 62
   253
100
AcDbPolyline
 90
        2
 70
     0
 39
0.003
 10
0.264331
 20
3.160067
 40
0.003
 41
0.003
 10
-0.380732
 20
2.790673
 40
0.003
 41
0.003
  0
LWPOLYLINE
  5
50F
100
AcDbEntity
  8
0
 62
   253
100
AcDbPolyline
 90
        2
 70
     0
 39
0.003
 10
-0.380732
 20
2.790673
 40
0.003
 41
0.003
 10
-0.373984
 20
2.790465
 40
0.003
 41
0.003
  0
LWPOLYLINE
  5
510
100
AcDbEntity
  8
0
 62
   253
100
AcDbPolyline
 90
        2
 70
     0
 39
0.003
 10
-0.380732
 20
2.790673
 40
0.003
 41
0.003
 10
0.264331
 20
3.160067
 40
0.003
 41
0.003
  0
LWPOLYLINE
  5
511
100
AcDbEntity
  8
0
 62
   253
100
AcDbPolyline
 90
        2
 70
     0
 39
0.003
 10
0.264331
 20
3.160067
 40
0.003
 41
0.003
 10
0.257421
 20
3.160189
 40
0.003
 41
0.003
  0
LWPOLYLINE
  5
512
100
AcDbEntity
  8
0
 62
   253
100
AcDbPolyline
 90
        2
 70
     0
 39
0.003
 10
0.257421
 20
3.160189
 40
0.003
 41
0.003
 10
-0.387642
 20
2.790795
 40
0.003
 41
0.003
  0
LWPOLYLINE
  5
513
100
AcDbEntity
  8
0
 62
   253
100
AcDbPolyline
 90
        2
 70
     0
 39
0.003
 10
-0.387642
 20
2.790795
 40
0.003
 41
0.003
 10
-0.380732
 20
2.790673
 40
0.003
 41
0.003
  0
LWPOLYLINE
  5
514
100
AcDbEntity
  8
0
 62
   253
100
AcDbPolyline
 90
        2
 70
     0
 39
0.003
 10
-0.387642
 20
2.790795
 40
0.003
 41
0.003
 10
0.257421
 20
3.160189
 40
0.003
 41
0.003
  0
LWPOLYLINE
  5
515
100
AcDbEntity
  8
0
 62
   253
100
AcDbPolyline
 90
        2
 70
     0
 39
0.003
 10
0.257421
 20
3.160189
 40
0.003
 41
0.003
 10
0.250346
 20
3.160228
 40
0.003
 41
0.003
  0
LWPOLYLINE
  5
516
100
AcDbEntity
  8
0
 62
   253
100
AcDbPolyline
 90
        2
 70
     0
 39
0.003
 10
0.250346
 20
3.160228
 40
0.003
 41
0.003
 10
-0.394717
 20
2.790835
 40
0.003
 41
0.003
  0
LWPOLYLINE
  5
517
100
AcDbEntity
  8
0
 62
   253
100
AcDbPolyline
 90
        2
 70
     0
 39
0.003
 10
-0.394717
 20
2.790835
 40
0.003
 41
0.003
 10
-0.387642
 20
2.790795
 40
0.003
 41
0.003
  0
LWPOLYLINE
  5
518
100
AcDbEntity
  8
0
 62
     0
100
AcDbPolyline
 90
        2
 70
     0
 39
0.003
 10
-0.238362
 20
2.768193
 40
0.003
 41
0.003
 10
0.406701
 20
3.137587
 40
0.003
 41
0.003
  0
LWPOLYLINE
  5
519
100
AcDbEntity
  8
0
 62
     0
100
AcDbPolyline
 90
        2
 70
     0
 39
0.003
 10
0.406701
 20
3.137587
 40
0.003
 41
0.003
 10
0.403654
 20
3.138319
 40
0.003
 41
0.003
  0
LWPOLYLINE
  5
51A
100
AcDbEntity
  8
0
 62
     0
100
AcDbPolyline
 90
        2
 70
     0
 39
0.003
 10
0.403654
 20
3.138319
 40
0.003
 41
0.003
 10
0.400504
 20
3.139102
 40
0.003
 41
0.003
  0
LWPOLYLINE
  5
51B
100
AcDbEntity
  8
0
 62
     0
100
AcDbPolyline
 90
        2
 70
     0
 39
0.003
 10
0.400504
 20
3.139102
 40
0.003
 41
0.003
 10
0.397256
 20
3.139913
 40
0.003
 41
0.003
  0
LWPOLYLINE
  5
51C
100
AcDbEntity
  8
0
 62
     0
100
AcDbPolyline
 90
        2
 70
     0
 39
0.003
 10
0.397256
 20
3.139913
 40
0.003
 41
0.003
 10
0.393906
 20
3.140764
 40
0.003
 41
0.003
  0
LWPOLYLINE
  5
51D
100
AcDbEntity
  8
0
 62
     0
100
AcDbPolyline
 90
        2
 70
     0
 39
0.003
 10
0.393906
 20
3.140764
 40
0.003
 41
0.003
 10
0.390461
 20
3.14163
 40
0.003
 41
0.003
  0
LWPOLYLINE
  5
51E
100
AcDbEntity
  8
0
 62
     0
100
AcDbPolyline
 90
        2
 70
     0
 39
0.003
 10
0.390461
 20
3.14163
 40
0.003
 41
0.003
 10
0.386902
 20
3.142528
 40
0.003
 41
0.003
  0
LWPOLYLINE
  5
51F
100
AcDbEntity
  8
0
 62
     0
100
AcDbPolyline
 90
        2
 70
     0
 39
0.003
 10
0.386902
 20
3.142528
 40
0.003
 41
0.003
 10
0.383244
 20
3.143437
 40
0.003
 41
0.003
  0
LWPOLYLINE
  5
520
100
AcDbEntity
  8
0
 62
     0
100
AcDbPolyline
 90
        2
 70
     0
 39
0.003
 10
0.383244
 20
3.143437
 40
0.003
 41
0.003
 10
0.379469
 20
3.14437
 40
0.003
 41
0.003
  0
LWPOLYLINE
  5
521
100
AcDbEntity
  8
0
 62
     0
100
AcDbPolyline
 90
        2
 70
     0
 39
0.003
 10
0.379469
 20
3.14437
 40
0.003
 41
0.003
 10
0.375594
 20
3.145303
 40
0.003
 41
0.003
  0
LWPOLYLINE
  5
522
100
AcDbEntity
  8
0
 62
     0
100
AcDbPolyline
 90
        2
 70
     0
 39
0.003
 10
0.375594
 20
3.145303
 40
0.003
 41
0.003
 10
0.371598
 20
3.146248
 40
0.003
 41
0.003
  0
LWPOLYLINE
  5
523
100
AcDbEntity
  8
0
 62
     0
100
AcDbPolyline
 90
        2
 70
     0
 39
0.003
 10
0.371598
 20
3.146248
 40
0.003
 41
0.003
 10
0.367488
 20
3.147193
 40
0.003
 41
0.003
  0
LWPOLYLINE
  5
524
100
AcDbEntity
  8
0
 62
     0
100
AcDbPolyline
 90
        2
 70
     0
 39
0.003
 10
0.367488
 20
3.147193
 40
0.003
 41
0.003
 10
0.363256
 20
3.148138
 40
0.003
 41
0.003
  0
LWPOLYLINE
  5
525
100
AcDbEntity
  8
0
 62
     0
100
AcDbPolyline
 90
        2
 70
     0
 39
0.003
 10
0.363256
 20
3.148138
 40
0.003
 41
0.003
 10
0.358909
 20
3.149071
 40
0.003
 41
0.003
  0
LWPOLYLINE
  5
526
100
AcDbEntity
  8
0
 62
     0
100
AcDbPolyline
 90
        2
 70
     0
 39
0.003
 10
0.358909
 20
3.149071
 40
0.003
 41
0.003
 10
0.354433
 20
3.15
 40
0.003
 41
0.003
  0
LWPOLYLINE
  5
527
100
AcDbEntity
  8
0
 62
     0
100
AcDbPolyline
 90
        2
 70
     0
 39
0.003
 10
0.354433
 20
3.15
 40
0.003
 41
0.003
 10
0.349839
 20
3.150913
 40
0.003
 41
0.003
  0
LWPOLYLINE
  5
528
100
AcDbEntity
  8
0
 62
     0
100
AcDbPolyline
 90
        2
 70
     0
 39
0.003
 10
0.349839
 20
3.150913
 40
0.003
 41
0.003
 10
0.34511
 20
3.151811
 40
0.003
 41
0.003
  0
LWPOLYLINE
  5
529
100
AcDbEntity
  8
0
 62
     0
100
AcDbPolyline
 90
        2
 70
     0
 39
0.003
 10
0.34511
 20
3.151811
 40
0.003
 41
0.003
 10
0.340264
 20
3.152673
 40
0.003
 41
0.003
  0
LWPOLYLINE
  5
52A
100
AcDbEntity
  8
0
 62
     0
100
AcDbPolyline
 90
        2
 70
     0
 39
0.003
 10
0.340264
 20
3.152673
 40
0.003
 41
0.003
 10
0.33528
 20
3.15352
 40
0.003
 41
0.003
  0
LWPOLYLINE
  5
52B
100
AcDbEntity
  8
0
 62
     0
100
AcDbPolyline
 90
        2
 70
     0
 39
0.003
 10
0.33528
 20
3.15352
 40
0.003
 41
0.003
 10
0.330161
 20
3.154331
 40
0.003
 41
0.003
  0
LWPOLYLINE
  5
52C
100
AcDbEntity
  8
0
 62
     0
100
AcDbPolyline
 90
        2
 70
     0
 39
0.003
 10
0.330161
 20
3.154331
 40
0.003
 41
0.003
 10
0.324902
 20
3.155114
 40
0.003
 41
0.003
  0
LWPOLYLINE
  5
52D
100
AcDbEntity
  8
0
 62
     0
100
AcDbPolyline
 90
        2
 70
     0
 39
0.003
 10
0.324902
 20
3.155114
 40
0.003
 41
0.003
 10
0.319512
 20
3.15585
 40
0.003
 41
0.003
  0
LWPOLYLINE
  5
52E
100
AcDbEntity
  8
0
 62
     0
100
AcDbPolyline
 90
        2
 70
     0
 39
0.003
 10
0.319512
 20
3.15585
 40
0.003
 41
0.003
 10
0.313972
 20
3.156547
 40
0.003
 41
0.003
  0
LWPOLYLINE
  5
52F
100
AcDbEntity
  8
0
 62
     0
100
AcDbPolyline
 90
        2
 70
     0
 39
0.003
 10
0.313972
 20
3.156547
 40
0.003
 41
0.003
 10
0.308291
 20
3.157193
 40
0.003
 41
0.003
  0
LWPOLYLINE
  5
530
100
AcDbEntity
  8
0
 62
     0
100
AcDbPolyline
 90
        2
 70
     0
 39
0.003
 10
0.308291
 20
3.157193
 40
0.003
 41
0.003
 10
0.302465
 20
3.157795
 40
0.003
 41
0.003
  0
LWPOLYLINE
  5
531
100
AcDbEntity
  8
0
 62
     0
100
AcDbPolyline
 90
        2
 70
     0
 39
0.003
 10
0.302465
 20
3.157795
 40
0.003
 41
0.003
 10
0.296492
 20
3.158331
 40
0.003
 41
0.003
  0
LWPOLYLINE
  5
532
100
AcDbEntity
  8
0
 62
     0
100
AcDbPolyline
 90
        2
 70
     0
 39
0.003
 10
0.296492
 20
3.158331
 40
0.003
 41
0.003
 10
0.29037
 20
3.158815
 40
0.003
 41
0.003
  0
LWPOLYLINE
  5
533
100
AcDbEntity
  8
0
 62
     0
100
AcDbPolyline
 90
        2
 70
     0
 39
0.003
 10
0.29037
 20
3.158815
 40
0.003
 41
0.003
 10
0.284094
 20
3.159232
 40
0.003
 41
0.003
  0
LWPOLYLINE
  5
534
100
AcDbEntity
  8
0
 62
     0
100
AcDbPolyline
 90
        2
 70
     0
 39
0.003
 10
0.284094
 20
3.159232
 40
0.003
 41
0.003
 10
0.277661
 20
3.159587
 40
0.003
 41
0.003
  0
LWPOLYLINE
  5
535
100
AcDbEntity
  8
0
 62
     0
100
AcDbPolyline
 90
        2
 70
     0
 39
0.003
 10
0.277661
 20
3.159587
 40
0.003
 41
0.003
 10
0.271079
 20
3.159858
 40
0.003
 41
0.003
  0
LWPOLYLINE
  5
536
100
AcDbEntity
  8
0
 62
     0
100
AcDbPolyline
 90
        2
 70
     0
 39
0.003
 10
0.271079
 20
3.159858
 40
0.003
 41
0.003
 10
0.264331
 20
3.160067
 40
0.003
 41
0.003
  0
LWPOLYLINE
  5
537
100
AcDbEntity
  8
0
 62
     0
100
AcDbPolyline
 90
        2
 70
     0
 39
0.003
 10
0.264331
 20
3.160067
 40
0.003
 41
0.003
 10
0.257421
 20
3.160189
 40
0.003
 41
0.003
  0
LWPOLYLINE
  5
538
100
AcDbEntity
  8
0
 62
     0
100
AcDbPolyline
 90
        2
 70
     0
 39
0.003
 10
0.257421
 20
3.160189
 40
0.003
 41
0.003
 10
0.250346
 20
3.160228
 40
0.003
 41
0.003
  0
LWPOLYLINE
  5
539
100
AcDbEntity
  8
0
 62
     0
100
AcDbPolyline
 90
        2
 70
     0
 39
0.003
 10
0.250346
 20
3.160228
 40
0.003
 41
0.003
 10
-0.394717
 20
2.790835
 40
0.003
 41
0.003
  0
LWPOLYLINE
  5
53A
100
AcDbEntity
  8
0
 62
     0
100
AcDbPolyline
 90
        2
 70
     0
 39
0.003
 10
-0.394717
 20
2.790835
 40
0.003
 41
0.003
 10
-0.387642
 20
2.790795
 40
0.003
 41
0.003
  0
LWPOLYLINE
  5
53B
100
AcDbEntity
  8
0
 62
     0
100
AcDbPolyline
 90
        2
 70
     0
 39
0.003
 10
-0.387642
 20
2.790795
 40
0.003
 41
0.003
 10
-0.380732
 20
2.790673
 40
0.003
 41
0.003
  0
LWPOLYLINE
  5
53C
100
AcDbEntity
  8
0
 62
     0
100
AcDbPolyline
 90
        2
 70
     0
 39
0.003
 10
-0.380732
 20
2.790673
 40
0.003
 41
0.003
 10
-0.373984
 20
2.790465
 40
0.003
 41
0.003
  0
LWPOLYLINE
  5
53D
100
AcDbEntity
  8
0
 62
     0
100
AcDbPolyline
 90
        2
 70
     0
 39
0.003
 10
-0.373984
 20
2.790465
 40
0.003
 41
0.003
 10
-0.367402
 20
2.790193
 40
0.003
 41
0.003
  0
LWPOLYLINE
  5
53E
100
AcDbEntity
  8
0
 62
     0
100
AcDbPolyline
 90
        2
 70
     0
 39
0.003
 10
-0.367402
 20
2.790193
 40
0.003
 41
0.003
 10
-0.360969
 20
2.789839
 40
0.003
 41
0.003
  0
LWPOLYLINE
  5
53F
100
AcDbEntity
  8
0
 62
     0
100
AcDbPolyline
 90
        2
 70
     0
 39
0.003
 10
-0.360969
 20
2.789839
 40
0.003
 41
0.003
 10
-0.354693
 20
2.789421
 40
0.003
 41
0.003
  0
LWPOLYLINE
  5
540
100
AcDbEntity
  8
0
 62
     0
100
AcDbPolyline
 90
        2
 70
     0
 39
0.003
 10
-0.354693
 20
2.789421
 40
0.003
 41
0.003
 10
-0.348571
 20
2.788937
 40
0.003
 41
0.003
  0
LWPOLYLINE
  5
541
100
AcDbEntity
  8
0
 62
     0
100
AcDbPolyline
 90
        2
 70
     0
 39
0.003
 10
-0.348571
 20
2.788937
 40
0.003
 41
0.003
 10
-0.342598
 20
2.788402
 40
0.003
 41
0.003
  0
LWPOLYLINE
  5
542
100
AcDbEntity
  8
0
 62
     0
100
AcDbPolyline
 90
        2
 70
     0
 39
0.003
 10
-0.342598
 20
2.788402
 40
0.003
 41
0.003
 10
-0.336772
 20
2.787799
 40
0.003
 41
0.003
  0
LWPOLYLINE
  5
543
100
AcDbEntity
  8
0
 62
     0
100
AcDbPolyline
 90
        2
 70
     0
 39
0.003
 10
-0.336772
 20
2.787799
 40
0.003
 41
0.003
 10
-0.331091
 20
2.787154
 40
0.003
 41
0.003
  0
LWPOLYLINE
  5
544
100
AcDbEntity
  8
0
 62
     0
100
AcDbPolyline
 90
        2
 70
     0
 39
0.003
 10
-0.331091
 20
2.787154
 40
0.003
 41
0.003
 10
-0.325551
 20
2.786457
 40
0.003
 41
0.003
  0
LWPOLYLINE
  5
545
100
AcDbEntity
  8
0
 62
     0
100
AcDbPolyline
 90
        2
 70
     0
 39
0.003
 10
-0.325551
 20
2.786457
 40
0.003
 41
0.003
 10
-0.320161
 20
2.78572
 40
0.003
 41
0.003
  0
LWPOLYLINE
  5
546
100
AcDbEntity
  8
0
 62
     0
100
AcDbPolyline
 90
        2
 70
     0
 39
0.003
 10
-0.320161
 20
2.78572
 40
0.003
 41
0.003
 10
-0.314902
 20
2.784937
 40
0.003
 41
0.003
  0
LWPOLYLINE
  5
547
100
AcDbEntity
  8
0
 62
     0
100
AcDbPolyline
 90
        2
 70
     0
 39
0.003
 10
-0.314902
 20
2.784937
 40
0.003
 41
0.003
 10
-0.309783
 20
2.784126
 40
0.003
 41
0.003
  0
LWPOLYLINE
  5
548
100
AcDbEntity
  8
0
 62
     0
100
AcDbPolyline
 90
        2
 70
     0
 39
0.003
 10
-0.309783
 20
2.784126
 40
0.003
 41
0.003
 10
-0.304799
 20
2.78328
 40
0.003
 41
0.003
  0
LWPOLYLINE
  5
549
100
AcDbEntity
  8
0
 62
     0
100
AcDbPolyline
 90
        2
 70
     0
 39
0.003
 10
-0.304799
 20
2.78328
 40
0.003
 41
0.003
 10
-0.299953
 20
2.782417
 40
0.003
 41
0.003
  0
LWPOLYLINE
  5
54A
100
AcDbEntity
  8
0
 62
     0
100
AcDbPolyline
 90
        2
 70
     0
 39
0.003
 10
-0.299953
 20
2.782417
 40
0.003
 41
0.003
 10
-0.295224
 20
2.78152
 40
0.003
 41
0.003
  0
LWPOLYLINE
  5
54B
100
AcDbEntity
  8
0
 62
     0
100
AcDbPolyline
 90
        2
 70
     0
 39
0.003
 10
-0.295224
 20
2.78152
 40
0.003
 41
0.003
 10
-0.29063
 20
2.780606
 40
0.003
 41
0.003
  0
LWPOLYLINE
  5
54C
100
AcDbEntity
  8
0
 62
     0
100
AcDbPolyline
 90
        2
 70
     0
 39
0.003
 10
-0.29063
 20
2.780606
 40
0.003
 41
0.003
 10
-0.286154
 20
2.779677
 40
0.003
 41
0.003
  0
LWPOLYLINE
  5
54D
100
AcDbEntity
  8
0
 62
     0
100
AcDbPolyline
 90
        2
 70
     0
 39
0.003
 10
-0.286154
 20
2.779677
 40
0.003
 41
0.003
 10
-0.281807
 20
2.778744
 40
0.003
 41
0.003
  0
LWPOLYLINE
  5
54E
100
AcDbEntity
  8
0
 62
     0
100
AcDbPolyline
 90
        2
 70
     0
 39
0.003
 10
-0.281807
 20
2.778744
 40
0.003
 41
0.003
 10
-0.277575
 20
2.777799
 40
0.003
 41
0.003
  0
LWPOLYLINE
  5
54F
100
AcDbEntity
  8
0
 62
     0
100
AcDbPolyline
 90
        2
 70
     0
 39
0.003
 10
-0.277575
 20
2.777799
 40
0.003
 41
0.003
 10
-0.273465
 20
2.776854
 40
0.003
 41
0.003
  0
LWPOLYLINE
  5
550
100
AcDbEntity
  8
0
 62
     0
100
AcDbPolyline
 90
        2
 70
     0
 39
0.003
 10
-0.273465
 20
2.776854
 40
0.003
 41
0.003
 10
-0.269469
 20
2.775909
 40
0.003
 41
0.003
  0
LWPOLYLINE
  5
551
100
AcDbEntity
  8
0
 62
     0
100
AcDbPolyline
 90
        2
 70
     0
 39
0.003
 10
-0.269469
 20
2.775909
 40
0.003
 41
0.003
 10
-0.265594
 20
2.774976
 40
0.003
 41
0.003
  0
LWPOLYLINE
  5
552
100
AcDbEntity
  8
0
 62
     0
100
AcDbPolyline
 90
        2
 70
     0
 39
0.003
 10
-0.265594
 20
2.774976
 40
0.003
 41
0.003
 10
-0.261819
 20
2.774043
 40
0.003
 41
0.003
  0
LWPOLYLINE
  5
553
100
AcDbEntity
  8
0
 62
     0
100
AcDbPolyline
 90
        2
 70
     0
 39
0.003
 10
-0.261819
 20
2.774043
 40
0.003
 41
0.003
 10
-0.258161
 20
2.773134
 40
0.003
 41
0.003
  0
LWPOLYLINE
  5
554
100
AcDbEntity
  8
0
 62
     0
100
AcDbPolyline
 90
        2
 70
     0
 39
0.003
 10
-0.258161
 20
2.773134
 40
0.003
 41
0.003
 10
-0.254602
 20
2.772236
 40
0.003
 41
0.003
  0
LWPOLYLINE
  5
555
100
AcDbEntity
  8
0
 62
     0
100
AcDbPolyline
 90
        2
 70
     0
 39
0.003
 10
-0.254602
 20
2.772236
 40
0.003
 41
0.003
 10
-0.251157
 20
2.77137
 40
0.003
 41
0.003
  0
LWPOLYLINE
  5
556
100
AcDbEntity
  8
0
 62
     0
100
AcDbPolyline
 90
        2
 70
     0
 39
0.003
 10
-0.251157
 20
2.77137
 40
0.003
 41
0.003
 10
-0.247807
 20
2.77052
 40
0.003
 41
0.003
  0
LWPOLYLINE
  5
557
100
AcDbEntity
  8
0
 62
     0
100
AcDbPolyline
 90
        2
 70
     0
 39
0.003
 10
-0.247807
 20
2.77052
 40
0.003
 41
0.003
 10
-0.244559
 20
2.769709
 40
0.003
 41
0.003
  0
LWPOLYLINE
  5
558
100
AcDbEntity
  8
0
 62
     0
100
AcDbPolyline
 90
        2
 70
     0
 39
0.003
 10
-0.244559
 20
2.769709
 40
0.003
 41
0.003
 10
-0.241409
 20
2.768925
 40
0.003
 41
0.003
  0
LWPOLYLINE
  5
559
100
AcDbEntity
  8
0
 62
     0
100
AcDbPolyline
 90
        2
 70
     0
 39
0.003
 10
-0.241409
 20
2.768925
 40
0.003
 41
0.003
 10
-0.238362
 20
2.768193
 40
0.003
 41
0.003
  0
LWPOLYLINE
  5
55A
100
AcDbEntity
  8
0
 62
     0
100
AcDbPolyline
 90
        2
 70
     0
 39
0.003
 10
-0.394717
 20
2.790835
 40
0.003
 41
0.003
 10
0.250346
 20
3.160228
 40
0.003
 41
0.003
  0
LWPOLYLINE
  5
55B
100
AcDbEntity
  8
0
 62
     0
100
AcDbPolyline
 90
        2
 70
     0
 39
0.003
 10
0.250346
 20
3.160228
 40
0.003
 41
0.003
 10
0.250346
 20
3.160228
 40
0.003
 41
0.003
  0
LWPOLYLINE
  5
55C
100
AcDbEntity
  8
0
 62
     0
100
AcDbPolyline
 90
        2
 70
     0
 39
0.003
 10
0.250346
 20
3.160228
 40
0.003
 41
0.003
 10
-0.394717
 20
2.790835
 40
0.003
 41
0.003
  0
LWPOLYLINE
  5
55D
100
AcDbEntity
  8
0
 62
     0
100
AcDbPolyline
 90
        2
 70
     0
 39
0.003
 10
-0.394717
 20
2.790835
 40
0.003
 41
0.003
 10
-0.394717
 20
2.790835
 40
0.003
 41
0.003
  0
LWPOLYLINE
  5
55E
100
AcDbEntity
  8
0
 62
     0
100
AcDbPolyline
 90
        2
 70
     0
 39
0.003
 10
0.250346
 20
3.160228
 40
0.003
 41
0.003
 10
0.250346
 20
3.160228
 40
0.003
 41
0.003
  0
LWPOLYLINE
  5
55F
100
AcDbEntity
  8
0
 62
     0
100
AcDbPolyline
 90
        2
 70
     0
 39
0.003
 10
-0.394717
 20
2.790835
 40
0.003
 41
0.003
 10
-0.394717
 20
2.790835
 40
0.003
 41
0.003
  0
LWPOLYLINE
  5
560
100
AcDbEntity
  8
0
 62
   253
100
AcDbPolyline
 90
        2
 70
     0
 39
0.003
 10
-0.394717
 20
2.790835
 40
0.003
 41
0.003
 10
0.250346
 20
3.160228
 40
0.003
 41
0.003
  0
LWPOLYLINE
  5
561
100
AcDbEntity
  8
0
 62
   253
100
AcDbPolyline
 90
        2
 70
     0
 39
0.003
 10
0.250346
 20
3.160228
 40
0.003
 41
0.003
 10
0.243283
 20
3.160189
 40
0.003
 41
0.003
  0
LWPOLYLINE
  5
562
100
AcDbEntity
  8
0
 62
   253
100
AcDbPolyline
 90
        2
 70
     0
 39
0.003
 10
0.243283
 20
3.160189
 40
0.003
 41
0.003
 10
-0.40178
 20
2.790795
 40
0.003
 41
0.003
  0
LWPOLYLINE
  5
563
100
AcDbEntity
  8
0
 62
   253
100
AcDbPolyline
 90
        2
 70
     0
 39
0.003
 10
-0.40178
 20
2.790795
 40
0.003
 41
0.003
 10
-0.394717
 20
2.790835
 40
0.003
 41
0.003
  0
LWPOLYLINE
  5
564
100
AcDbEntity
  8
0
 62
   253
100
AcDbPolyline
 90
        2
 70
     0
 39
0.003
 10
-0.40178
 20
2.790795
 40
0.003
 41
0.003
 10
0.243283
 20
3.160189
 40
0.003
 41
0.003
  0
LWPOLYLINE
  5
565
100
AcDbEntity
  8
0
 62
   253
100
AcDbPolyline
 90
        2
 70
     0
 39
0.003
 10
0.243283
 20
3.160189
 40
0.003
 41
0.003
 10
0.236374
 20
3.160067
 40
0.003
 41
0.003
  0
LWPOLYLINE
  5
566
100
AcDbEntity
  8
0
 62
   253
100
AcDbPolyline
 90
        2
 70
     0
 39
0.003
 10
0.236374
 20
3.160067
 40
0.003
 41
0.003
 10
-0.408689
 20
2.790673
 40
0.003
 41
0.003
  0
LWPOLYLINE
  5
567
100
AcDbEntity
  8
0
 62
   253
100
AcDbPolyline
 90
        2
 70
     0
 39
0.003
 10
-0.408689
 20
2.790673
 40
0.003
 41
0.003
 10
-0.40178
 20
2.790795
 40
0.003
 41
0.003
  0
LWPOLYLINE
  5
568
100
AcDbEntity
  8
0
 62
   253
100
AcDbPolyline
 90
        2
 70
     0
 39
0.003
 10
-0.408689
 20
2.790673
 40
0.003
 41
0.003
 10
0.236374
 20
3.160067
 40
0.003
 41
0.003
  0
LWPOLYLINE
  5
569
100
AcDbEntity
  8
0
 62
   253
100
AcDbPolyline
 90
        2
 70
     0
 39
0.003
 10
0.236374
 20
3.160067
 40
0.003
 41
0.003
 10
0.22963
 20
3.159858
 40
0.003
 41
0.003
  0
LWPOLYLINE
  5
56A
100
AcDbEntity
  8
0
 62
   253
100
AcDbPolyline
 90
        2
 70
     0
 39
0.003
 10
0.22963
 20
3.159858
 40
0.003
 41
0.003
 10
-0.415433
 20
2.790465
 40
0.003
 41
0.003
  0
LWPOLYLINE
  5
56B
100
AcDbEntity
  8
0
 62
   253
100
AcDbPolyline
 90
        2
 70
     0
 39
0.003
 10
-0.415433
 20
2.790465
 40
0.003
 41
0.003
 10
-0.408689
 20
2.790673
 40
0.003
 41
0.003
  0
LWPOLYLINE
  5
56C
100
AcDbEntity
  8
0
 62
   253
100
AcDbPolyline
 90
        2
 70
     0
 39
0.003
 10
-0.415433
 20
2.790465
 40
0.003
 41
0.003
 10
0.22963
 20
3.159858
 40
0.003
 41
0.003
  0
LWPOLYLINE
  5
56D
100
AcDbEntity
  8
0
 62
   253
100
AcDbPolyline
 90
        2
 70
     0
 39
0.003
 10
0.22963
 20
3.159858
 40
0.003
 41
0.003
 10
0.223043
 20
3.159587
 40
0.003
 41
0.003
  0
LWPOLYLINE
  5
56E
100
AcDbEntity
  8
0
 62
   253
100
AcDbPolyline
 90
        2
 70
     0
 39
0.003
 10
0.223043
 20
3.159587
 40
0.003
 41
0.003
 10
-0.42202
 20
2.790193
 40
0.003
 41
0.003
  0
LWPOLYLINE
  5
56F
100
AcDbEntity
  8
0
 62
   253
100
AcDbPolyline
 90
        2
 70
     0
 39
0.003
 10
-0.42202
 20
2.790193
 40
0.003
 41
0.003
 10
-0.415433
 20
2.790465
 40
0.003
 41
0.003
  0
LWPOLYLINE
  5
570
100
AcDbEntity
  8
0
 62
   253
100
AcDbPolyline
 90
        2
 70
     0
 39
0.003
 10
-0.42202
 20
2.790193
 40
0.003
 41
0.003
 10
0.223043
 20
3.159587
 40
0.003
 41
0.003
  0
LWPOLYLINE
  5
571
100
AcDbEntity
  8
0
 62
   253
100
AcDbPolyline
 90
        2
 70
     0
 39
0.003
 10
0.223043
 20
3.159587
 40
0.003
 41
0.003
 10
0.216618
 20
3.159232
 40
0.003
 41
0.003
  0
LWPOLYLINE
  5
572
100
AcDbEntity
  8
0
 62
   253
100
AcDbPolyline
 90
        2
 70
     0
 39
0.003
 10
0.216618
 20
3.159232
 40
0.003
 41
0.003
 10
-0.428445
 20
2.789839
 40
0.003
 41
0.003
  0
LWPOLYLINE
  5
573
100
AcDbEntity
  8
0
 62
   253
100
AcDbPolyline
 90
        2
 70
     0
 39
0.003
 10
-0.428445
 20
2.789839
 40
0.003
 41
0.003
 10
-0.42202
 20
2.790193
 40
0.003
 41
0.003
  0
LWPOLYLINE
  5
574
100
AcDbEntity
  8
0
 62
   253
100
AcDbPolyline
 90
        2
 70
     0
 39
0.003
 10
-0.428445
 20
2.789839
 40
0.003
 41
0.003
 10
0.216618
 20
3.159232
 40
0.003
 41
0.003
  0
LWPOLYLINE
  5
575
100
AcDbEntity
  8
0
 62
   253
100
AcDbPolyline
 90
        2
 70
     0
 39
0.003
 10
0.216618
 20
3.159232
 40
0.003
 41
0.003
 10
0.210339
 20
3.158815
 40
0.003
 41
0.003
  0
LWPOLYLINE
  5
576
100
AcDbEntity
  8
0
 62
   253
100
AcDbPolyline
 90
        2
 70
     0
 39
0.003
 10
0.210339
 20
3.158815
 40
0.003
 41
0.003
 10
-0.434724
 20
2.789421
 40
0.003
 41
0.003
  0
LWPOLYLINE
  5
577
100
AcDbEntity
  8
0
 62
   253
100
AcDbPolyline
 90
        2
 70
     0
 39
0.003
 10
-0.434724
 20
2.789421
 40
0.003
 41
0.003
 10
-0.428445
 20
2.789839
 40
0.003
 41
0.003
  0
LWPOLYLINE
  5
578
100
AcDbEntity
  8
0
 62
   253
100
AcDbPolyline
 90
        2
 70
     0
 39
0.003
 10
-0.434724
 20
2.789421
 40
0.003
 41
0.003
 10
0.210339
 20
3.158815
 40
0.003
 41
0.003
  0
LWPOLYLINE
  5
579
100
AcDbEntity
  8
0
 62
   253
100
AcDbPolyline
 90
        2
 70
     0
 39
0.003
 10
0.210339
 20
3.158815
 40
0.003
 41
0.003
 10
0.204217
 20
3.158331
 40
0.003
 41
0.003
  0
LWPOLYLINE
  5
57A
100
AcDbEntity
  8
0
 62
   253
100
AcDbPolyline
 90
        2
 70
     0
 39
0.003
 10
0.204217
 20
3.158331
 40
0.003
 41
0.003
 10
-0.440846
 20
2.788937
 40
0.003
 41
0.003
  0
LWPOLYLINE
  5
57B
100
AcDbEntity
  8
0
 62
   253
100
AcDbPolyline
 90
        2
 70
     0
 39
0.003
 10
-0.440846
 20
2.788937
 40
0.003
 41
0.003
 10
-0.434724
 20
2.789421
 40
0.003
 41
0.003
  0
LWPOLYLINE
  5
57C
100
AcDbEntity
  8
0
 62
   253
100
AcDbPolyline
 90
        2
 70
     0
 39
0.003
 10
-0.440846
 20
2.788937
 40
0.003
 41
0.003
 10
0.204217
 20
3.158331
 40
0.003
 41
0.003
  0
LWPOLYLINE
  5
57D
100
AcDbEntity
  8
0
 62
   253
100
AcDbPolyline
 90
        2
 70
     0
 39
0.003
 10
0.204217
 20
3.158331
 40
0.003
 41
0.003
 10
0.19824
 20
3.157795
 40
0.003
 41
0.003
  0
LWPOLYLINE
  5
57E
100
AcDbEntity
  8
0
 62
   253
100
AcDbPolyline
 90
        2
 70
     0
 39
0.003
 10
0.19824
 20
3.157795
 40
0.003
 41
0.003
 10
-0.446823
 20
2.788402
 40
0.003
 41
0.003
  0
LWPOLYLINE
  5
57F
100
AcDbEntity
  8
0
 62
   253
100
AcDbPolyline
 90
        2
 70
     0
 39
0.003
 10
-0.446823
 20
2.788402
 40
0.003
 41
0.003
 10
-0.440846
 20
2.788937
 40
0.003
 41
0.003
  0
LWPOLYLINE
  5
580
100
AcDbEntity
  8
0
 62
   253
100
AcDbPolyline
 90
        2
 70
     0
 39
0.003
 10
-0.446823
 20
2.788402
 40
0.003
 41
0.003
 10
0.19824
 20
3.157795
 40
0.003
 41
0.003
  0
LWPOLYLINE
  5
581
100
AcDbEntity
  8
0
 62
   253
100
AcDbPolyline
 90
        2
 70
     0
 39
0.003
 10
0.19824
 20
3.157795
 40
0.003
 41
0.003
 10
0.192425
 20
3.157193
 40
0.003
 41
0.003
  0
LWPOLYLINE
  5
582
100
AcDbEntity
  8
0
 62
   253
100
AcDbPolyline
 90
        2
 70
     0
 39
0.003
 10
0.192425
 20
3.157193
 40
0.003
 41
0.003
 10
-0.452638
 20
2.787799
 40
0.003
 41
0.003
  0
LWPOLYLINE
  5
583
100
AcDbEntity
  8
0
 62
   253
100
AcDbPolyline
 90
        2
 70
     0
 39
0.003
 10
-0.452638
 20
2.787799
 40
0.003
 41
0.003
 10
-0.446823
 20
2.788402
 40
0.003
 41
0.003
  0
LWPOLYLINE
  5
584
100
AcDbEntity
  8
0
 62
   253
100
AcDbPolyline
 90
        2
 70
     0
 39
0.003
 10
-0.452638
 20
2.787799
 40
0.003
 41
0.003
 10
0.192425
 20
3.157193
 40
0.003
 41
0.003
  0
LWPOLYLINE
  5
585
100
AcDbEntity
  8
0
 62
   253
100
AcDbPolyline
 90
        2
 70
     0
 39
0.003
 10
0.192425
 20
3.157193
 40
0.003
 41
0.003
 10
0.186744
 20
3.156547
 40
0.003
 41
0.003
  0
LWPOLYLINE
  5
586
100
AcDbEntity
  8
0
 62
   253
100
AcDbPolyline
 90
        2
 70
     0
 39
0.003
 10
0.186744
 20
3.156547
 40
0.003
 41
0.003
 10
-0.458319
 20
2.787154
 40
0.003
 41
0.003
  0
LWPOLYLINE
  5
587
100
AcDbEntity
  8
0
 62
   253
100
AcDbPolyline
 90
        2
 70
     0
 39
0.003
 10
-0.458319
 20
2.787154
 40
0.003
 41
0.003
 10
-0.452638
 20
2.787799
 40
0.003
 41
0.003
  0
LWPOLYLINE
  5
588
100
AcDbEntity
  8
0
 62
   253
100
AcDbPolyline
 90
        2
 70
     0
 39
0.003
 10
-0.458319
 20
2.787154
 40
0.003
 41
0.003
 10
0.186744
 20
3.156547
 40
0.003
 41
0.003
  0
LWPOLYLINE
  5
589
100
AcDbEntity
  8
0
 62
   253
100
AcDbPolyline
 90
        2
 70
     0
 39
0.003
 10
0.186744
 20
3.156547
 40
0.003
 41
0.003
 10
0.181209
 20
3.15585
 40
0.003
 41
0.003
  0
LWPOLYLINE
  5
58A
100
AcDbEntity
  8
0
 62
   253
100
AcDbPolyline
 90
        2
 70
     0
 39
0.003
 10
0.181209
 20
3.15585
 40
0.003
 41
0.003
 10
-0.463854
 20
2.786457
 40
0.003
 41
0.003
  0
LWPOLYLINE
  5
58B
100
AcDbEntity
  8
0
 62
   253
100
AcDbPolyline
 90
        2
 70
     0
 39
0.003
 10
-0.463854
 20
2.786457
 40
0.003
 41
0.003
 10
-0.458319
 20
2.787154
 40
0.003
 41
0.003
  0
LWPOLYLINE
  5
58C
100
AcDbEntity
  8
0
 62
   253
100
AcDbPolyline
 90
        2
 70
     0
 39
0.003
 10
-0.463854
 20
2.786457
 40
0.003
 41
0.003
 10
0.181209
 20
3.15585
 40
0.003
 41
0.003
  0
LWPOLYLINE
  5
58D
100
AcDbEntity
  8
0
 62
   253
100
AcDbPolyline
 90
        2
 70
     0
 39
0.003
 10
0.181209
 20
3.15585
 40
0.003
 41
0.003
 10
0.175811
 20
3.155114
 40
0.003
 41
0.003
  0
LWPOLYLINE
  5
58E
100
AcDbEntity
  8
0
 62
   253
100
AcDbPolyline
 90
        2
 70
     0
 39
0.003
 10
0.175811
 20
3.155114
 40
0.003
 41
0.003
 10
-0.469252
 20
2.78572
 40
0.003
 41
0.003
  0
LWPOLYLINE
  5
58F
100
AcDbEntity
  8
0
 62
   253
100
AcDbPolyline
 90
        2
 70
     0
 39
0.003
 10
-0.469252
 20
2.78572
 40
0.003
 41
0.003
 10
-0.463854
 20
2.786457
 40
0.003
 41
0.003
  0
LWPOLYLINE
  5
590
100
AcDbEntity
  8
0
 62
   253
100
AcDbPolyline
 90
        2
 70
     0
 39
0.003
 10
-0.469252
 20
2.78572
 40
0.003
 41
0.003
 10
0.175811
 20
3.155114
 40
0.003
 41
0.003
  0
LWPOLYLINE
  5
591
100
AcDbEntity
  8
0
 62
   253
100
AcDbPolyline
 90
        2
 70
     0
 39
0.003
 10
0.175811
 20
3.155114
 40
0.003
 41
0.003
 10
0.170555
 20
3.154331
 40
0.003
 41
0.003
  0
LWPOLYLINE
  5
592
100
AcDbEntity
  8
0
 62
   253
100
AcDbPolyline
 90
        2
 70
     0
 39
0.003
 10
0.170555
 20
3.154331
 40
0.003
 41
0.003
 10
-0.474508
 20
2.784937
 40
0.003
 41
0.003
  0
LWPOLYLINE
  5
593
100
AcDbEntity
  8
0
 62
   253
100
AcDbPolyline
 90
        2
 70
     0
 39
0.003
 10
-0.474508
 20
2.784937
 40
0.003
 41
0.003
 10
-0.469252
 20
2.78572
 40
0.003
 41
0.003
  0
LWPOLYLINE
  5
594
100
AcDbEntity
  8
0
 62
   252
100
AcDbPolyline
 90
        2
 70
     0
 39
0.003
 10
-0.474508
 20
2.784937
 40
0.003
 41
0.003
 10
0.170555
 20
3.154331
 40
0.003
 41
0.003
  0
LWPOLYLINE
  5
595
100
AcDbEntity
  8
0
 62
   252
100
AcDbPolyline
 90
        2
 70
     0
 39
0.003
 10
0.170555
 20
3.154331
 40
0.003
 41
0.003
 10
0.165433
 20
3.15352
 40
0.003
 41
0.003
  0
LWPOLYLINE
  5
596
100
AcDbEntity
  8
0
 62
   252
100
AcDbPolyline
 90
        2
 70
     0
 39
0.003
 10
0.165433
 20
3.15352
 40
0.003
 41
0.003
 10
-0.47963
 20
2.784126
 40
0.003
 41
0.003
  0
LWPOLYLINE
  5
597
100
AcDbEntity
  8
0
 62
   252
100
AcDbPolyline
 90
        2
 70
     0
 39
0.003
 10
-0.47963
 20
2.784126
 40
0.003
 41
0.003
 10
-0.474508
 20
2.784937
 40
0.003
 41
0.003
  0
LWPOLYLINE
  5
598
100
AcDbEntity
  8
0
 62
   252
100
AcDbPolyline
 90
        2
 70
     0
 39
0.003
 10
-0.47963
 20
2.784126
 40
0.003
 41
0.003
 10
0.165433
 20
3.15352
 40
0.003
 41
0.003
  0
LWPOLYLINE
  5
599
100
AcDbEntity
  8
0
 62
   252
100
AcDbPolyline
 90
        2
 70
     0
 39
0.003
 10
0.165433
 20
3.15352
 40
0.003
 41
0.003
 10
0.160449
 20
3.152673
 40
0.003
 41
0.003
  0
LWPOLYLINE
  5
59A
100
AcDbEntity
  8
0
 62
   252
100
AcDbPolyline
 90
        2
 70
     0
 39
0.003
 10
0.160449
 20
3.152673
 40
0.003
 41
0.003
 10
-0.484614
 20
2.78328
 40
0.003
 41
0.003
  0
LWPOLYLINE
  5
59B
100
AcDbEntity
  8
0
 62
   252
100
AcDbPolyline
 90
        2
 70
     0
 39
0.003
 10
-0.484614
 20
2.78328
 40
0.003
 41
0.003
 10
-0.47963
 20
2.784126
 40
0.003
 41
0.003
  0
LWPOLYLINE
  5
59C
100
AcDbEntity
  8
0
 62
   252
100
AcDbPolyline
 90
        2
 70
     0
 39
0.003
 10
-0.484614
 20
2.78328
 40
0.003
 41
0.003
 10
0.160449
 20
3.152673
 40
0.003
 41
0.003
  0
LWPOLYLINE
  5
59D
100
AcDbEntity
  8
0
 62
   252
100
AcDbPolyline
 90
        2
 70
     0
 39
0.003
 10
0.160449
 20
3.152673
 40
0.003
 41
0.003
 10
0.155591
 20
3.151811
 40
0.003
 41
0.003
  0
LWPOLYLINE
  5
59E
100
AcDbEntity
  8
0
 62
   252
100
AcDbPolyline
 90
        2
 70
     0
 39
0.003
 10
0.155591
 20
3.151811
 40
0.003
 41
0.003
 10
-0.489472
 20
2.782417
 40
0.003
 41
0.003
  0
LWPOLYLINE
  5
59F
100
AcDbEntity
  8
0
 62
   252
100
AcDbPolyline
 90
        2
 70
     0
 39
0.003
 10
-0.489472
 20
2.782417
 40
0.003
 41
0.003
 10
-0.484614
 20
2.78328
 40
0.003
 41
0.003
  0
LWPOLYLINE
  5
5A0
100
AcDbEntity
  8
0
 62
   252
100
AcDbPolyline
 90
        2
 70
     0
 39
0.003
 10
-0.489472
 20
2.782417
 40
0.003
 41
0.003
 10
0.155591
 20
3.151811
 40
0.003
 41
0.003
  0
LWPOLYLINE
  5
5A1
100
AcDbEntity
  8
0
 62
   252
100
AcDbPolyline
 90
        2
 70
     0
 39
0.003
 10
0.155591
 20
3.151811
 40
0.003
 41
0.003
 10
0.150874
 20
3.150913
 40
0.003
 41
0.003
  0
LWPOLYLINE
  5
5A2
100
AcDbEntity
  8
0
 62
   252
100
AcDbPolyline
 90
        2
 70
     0
 39
0.003
 10
0.150874
 20
3.150913
 40
0.003
 41
0.003
 10
-0.494189
 20
2.78152
 40
0.003
 41
0.003
  0
LWPOLYLINE
  5
5A3
100
AcDbEntity
  8
0
 62
   252
100
AcDbPolyline
 90
        2
 70
     0
 39
0.003
 10
-0.494189
 20
2.78152
 40
0.003
 41
0.003
 10
-0.489472
 20
2.782417
 40
0.003
 41
0.003
  0
LWPOLYLINE
  5
5A4
100
AcDbEntity
  8
0
 62
   252
100
AcDbPolyline
 90
        2
 70
     0
 39
0.003
 10
-0.494189
 20
2.78152
 40
0.003
 41
0.003
 10
0.150874
 20
3.150913
 40
0.003
 41
0.003
  0
LWPOLYLINE
  5
5A5
100
AcDbEntity
  8
0
 62
   252
100
AcDbPolyline
 90
        2
 70
     0
 39
0.003
 10
0.150874
 20
3.150913
 40
0.003
 41
0.003
 10
0.146276
 20
3.15
 40
0.003
 41
0.003
  0
LWPOLYLINE
  5
5A6
100
AcDbEntity
  8
0
 62
   252
100
AcDbPolyline
 90
        2
 70
     0
 39
0.003
 10
0.146276
 20
3.15
 40
0.003
 41
0.003
 10
-0.498787
 20
2.780606
 40
0.003
 41
0.003
  0
LWPOLYLINE
  5
5A7
100
AcDbEntity
  8
0
 62
   252
100
AcDbPolyline
 90
        2
 70
     0
 39
0.003
 10
-0.498787
 20
2.780606
 40
0.003
 41
0.003
 10
-0.494189
 20
2.78152
 40
0.003
 41
0.003
  0
LWPOLYLINE
  5
5A8
100
AcDbEntity
  8
0
 62
   252
100
AcDbPolyline
 90
        2
 70
     0
 39
0.003
 10
-0.498787
 20
2.780606
 40
0.003
 41
0.003
 10
0.146276
 20
3.15
 40
0.003
 41
0.003
  0
LWPOLYLINE
  5
5A9
100
AcDbEntity
  8
0
 62
   252
100
AcDbPolyline
 90
        2
 70
     0
 39
0.003
 10
0.146276
 20
3.15
 40
0.003
 41
0.003
 10
0.141807
 20
3.149071
 40
0.003
 41
0.003
  0
LWPOLYLINE
  5
5AA
100
AcDbEntity
  8
0
 62
   252
100
AcDbPolyline
 90
        2
 70
     0
 39
0.003
 10
0.141807
 20
3.149071
 40
0.003
 41
0.003
 10
-0.503256
 20
2.779677
 40
0.003
 41
0.003
  0
LWPOLYLINE
  5
5AB
100
AcDbEntity
  8
0
 62
   252
100
AcDbPolyline
 90
        2
 70
     0
 39
0.003
 10
-0.503256
 20
2.779677
 40
0.003
 41
0.003
 10
-0.498787
 20
2.780606
 40
0.003
 41
0.003
  0
LWPOLYLINE
  5
5AC
100
AcDbEntity
  8
0
 62
   252
100
AcDbPolyline
 90
        2
 70
     0
 39
0.003
 10
-0.503256
 20
2.779677
 40
0.003
 41
0.003
 10
0.141807
 20
3.149071
 40
0.003
 41
0.003
  0
LWPOLYLINE
  5
5AD
100
AcDbEntity
  8
0
 62
   252
100
AcDbPolyline
 90
        2
 70
     0
 39
0.003
 10
0.141807
 20
3.149071
 40
0.003
 41
0.003
 10
0.137453
 20
3.148138
 40
0.003
 41
0.003
  0
LWPOLYLINE
  5
5AE
100
AcDbEntity
  8
0
 62
   252
100
AcDbPolyline
 90
        2
 70
     0
 39
0.003
 10
0.137453
 20
3.148138
 40
0.003
 41
0.003
 10
-0.50761
 20
2.778744
 40
0.003
 41
0.003
  0
LWPOLYLINE
  5
5AF
100
AcDbEntity
  8
0
 62
   252
100
AcDbPolyline
 90
        2
 70
     0
 39
0.003
 10
-0.50761
 20
2.778744
 40
0.003
 41
0.003
 10
-0.503256
 20
2.779677
 40
0.003
 41
0.003
  0
LWPOLYLINE
  5
5B0
100
AcDbEntity
  8
0
 62
     8
100
AcDbPolyline
 90
        2
 70
     0
 39
0.003
 10
-0.50761
 20
2.778744
 40
0.003
 41
0.003
 10
0.137453
 20
3.148138
 40
0.003
 41
0.003
  0
LWPOLYLINE
  5
5B1
100
AcDbEntity
  8
0
 62
     8
100
AcDbPolyline
 90
        2
 70
     0
 39
0.003
 10
0.137453
 20
3.148138
 40
0.003
 41
0.003
 10
0.133228
 20
3.147193
 40
0.003
 41
0.003
  0
LWPOLYLINE
  5
5B2
100
AcDbEntity
  8
0
 62
     8
100
AcDbPolyline
 90
        2
 70
     0
 39
0.003
 10
0.133228
 20
3.147193
 40
0.003
 41
0.003
 10
-0.511835
 20
2.777799
 40
0.003
 41
0.003
  0
LWPOLYLINE
  5
5B3
100
AcDbEntity
  8
0
 62
     8
100
AcDbPolyline
 90
        2
 70
     0
 39
0.003
 10
-0.511835
 20
2.777799
 40
0.003
 41
0.003
 10
-0.50761
 20
2.778744
 40
0.003
 41
0.003
  0
LWPOLYLINE
  5
5B4
100
AcDbEntity
  8
0
 62
     8
100
AcDbPolyline
 90
        2
 70
     0
 39
0.003
 10
-0.511835
 20
2.777799
 40
0.003
 41
0.003
 10
0.133228
 20
3.147193
 40
0.003
 41
0.003
  0
LWPOLYLINE
  5
5B5
100
AcDbEntity
  8
0
 62
     8
100
AcDbPolyline
 90
        2
 70
     0
 39
0.003
 10
0.133228
 20
3.147193
 40
0.003
 41
0.003
 10
0.129118
 20
3.146248
 40
0.003
 41
0.003
  0
LWPOLYLINE
  5
5B6
100
AcDbEntity
  8
0
 62
     8
100
AcDbPolyline
 90
        2
 70
     0
 39
0.003
 10
0.129118
 20
3.146248
 40
0.003
 41
0.003
 10
-0.515945
 20
2.776854
 40
0.003
 41
0.003
  0
LWPOLYLINE
  5
5B7
100
AcDbEntity
  8
0
 62
     8
100
AcDbPolyline
 90
        2
 70
     0
 39
0.003
 10
-0.515945
 20
2.776854
 40
0.003
 41
0.003
 10
-0.511835
 20
2.777799
 40
0.003
 41
0.003
  0
LWPOLYLINE
  5
5B8
100
AcDbEntity
  8
0
 62
     8
100
AcDbPolyline
 90
        2
 70
     0
 39
0.003
 10
-0.515945
 20
2.776854
 40
0.003
 41
0.003
 10
0.129118
 20
3.146248
 40
0.003
 41
0.003
  0
LWPOLYLINE
  5
5B9
100
AcDbEntity
  8
0
 62
     8
100
AcDbPolyline
 90
        2
 70
     0
 39
0.003
 10
0.129118
 20
3.146248
 40
0.003
 41
0.003
 10
0.125122
 20
3.145303
 40
0.003
 41
0.003
  0
LWPOLYLINE
  5
5BA
100
AcDbEntity
  8
0
 62
     8
100
AcDbPolyline
 90
        2
 70
     0
 39
0.003
 10
0.125122
 20
3.145303
 40
0.003
 41
0.003
 10
-0.519941
 20
2.775909
 40
0.003
 41
0.003
  0
LWPOLYLINE
  5
5BB
100
AcDbEntity
  8
0
 62
     8
100
AcDbPolyline
 90
        2
 70
     0
 39
0.003
 10
-0.519941
 20
2.775909
 40
0.003
 41
0.003
 10
-0.515945
 20
2.776854
 40
0.003
 41
0.003
  0
LWPOLYLINE
  5
5BC
100
AcDbEntity
  8
0
 62
     8
100
AcDbPolyline
 90
        2
 70
     0
 39
0.003
 10
-0.519941
 20
2.775909
 40
0.003
 41
0.003
 10
0.125122
 20
3.145303
 40
0.003
 41
0.003
  0
LWPOLYLINE
  5
5BD
100
AcDbEntity
  8
0
 62
     8
100
AcDbPolyline
 90
        2
 70
     0
 39
0.003
 10
0.125122
 20
3.145303
 40
0.003
 41
0.003
 10
0.121236
 20
3.14437
 40
0.003
 41
0.003
  0
LWPOLYLINE
  5
5BE
100
AcDbEntity
  8
0
 62
     8
100
AcDbPolyline
 90
        2
 70
     0
 39
0.003
 10
0.121236
 20
3.14437
 40
0.003
 41
0.003
 10
-0.523827
 20
2.774976
 40
0.003
 41
0.003
  0
LWPOLYLINE
  5
5BF
100
AcDbEntity
  8
0
 62
     8
100
AcDbPolyline
 90
        2
 70
     0
 39
0.003
 10
-0.523827
 20
2.774976
 40
0.003
 41
0.003
 10
-0.519941
 20
2.775909
 40
0.003
 41
0.003
  0
LWPOLYLINE
  5
5C0
100
AcDbEntity
  8
0
 62
     8
100
AcDbPolyline
 90
        2
 70
     0
 39
0.003
 10
-0.523827
 20
2.774976
 40
0.003
 41
0.003
 10
0.121236
 20
3.14437
 40
0.003
 41
0.003
  0
LWPOLYLINE
  5
5C1
100
AcDbEntity
  8
0
 62
     8
100
AcDbPolyline
 90
        2
 70
     0
 39
0.003
 10
0.121236
 20
3.14437
 40
0.003
 41
0.003
 10
0.117469
 20
3.143437
 40
0.003
 41
0.003
  0
LWPOLYLINE
  5
5C2
100
AcDbEntity
  8
0
 62
     8
100
AcDbPolyline
 90
        2
 70
     0
 39
0.003
 10
0.117469
 20
3.143437
 40
0.003
 41
0.003
 10
-0.527594
 20
2.774043
 40
0.003
 41
0.003
  0
LWPOLYLINE
  5
5C3
100
AcDbEntity
  8
0
 62
     8
100
AcDbPolyline
 90
        2
 70
     0
 39
0.003
 10
-0.527594
 20
2.774043
 40
0.003
 41
0.003
 10
-0.523827
 20
2.774976
 40
0.003
 41
0.003
  0
LWPOLYLINE
  5
5C4
100
AcDbEntity
  8
0
 62
     8
100
AcDbPolyline
 90
        2
 70
     0
 39
0.003
 10
-0.527594
 20
2.774043
 40
0.003
 41
0.003
 10
0.117469
 20
3.143437
 40
0.003
 41
0.003
  0
LWPOLYLINE
  5
5C5
100
AcDbEntity
  8
0
 62
     8
100
AcDbPolyline
 90
        2
 70
     0
 39
0.003
 10
0.117469
 20
3.143437
 40
0.003
 41
0.003
 10
0.113807
 20
3.142528
 40
0.003
 41
0.003
  0
LWPOLYLINE
  5
5C6
100
AcDbEntity
  8
0
 62
     8
100
AcDbPolyline
 90
        2
 70
     0
 39
0.003
 10
0.113807
 20
3.142528
 40
0.003
 41
0.003
 10
-0.531256
 20
2.773134
 40
0.003
 41
0.003
  0
LWPOLYLINE
  5
5C7
100
AcDbEntity
  8
0
 62
     8
100
AcDbPolyline
 90
        2
 70
     0
 39
0.003
 10
-0.531256
 20
2.773134
 40
0.003
 41
0.003
 10
-0.527594
 20
2.774043
 40
0.003
 41
0.003
  0
LWPOLYLINE
  5
5C8
100
AcDbEntity
  8
0
 62
     8
100
AcDbPolyline
 90
        2
 70
     0
 39
0.003
 10
-0.531256
 20
2.773134
 40
0.003
 41
0.003
 10
0.113807
 20
3.142528
 40
0.003
 41
0.003
  0
LWPOLYLINE
  5
5C9
100
AcDbEntity
  8
0
 62
     8
100
AcDbPolyline
 90
        2
 70
     0
 39
0.003
 10
0.113807
 20
3.142528
 40
0.003
 41
0.003
 10
0.110256
 20
3.14163
 40
0.003
 41
0.003
  0
LWPOLYLINE
  5
5CA
100
AcDbEntity
  8
0
 62
     8
100
AcDbPolyline
 90
        2
 70
     0
 39
0.003
 10
0.110256
 20
3.14163
 40
0.003
 41
0.003
 10
-0.534807
 20
2.772236
 40
0.003
 41
0.003
  0
LWPOLYLINE
  5
5CB
100
AcDbEntity
  8
0
 62
     8
100
AcDbPolyline
 90
        2
 70
     0
 39
0.003
 10
-0.534807
 20
2.772236
 40
0.003
 41
0.003
 10
-0.531256
 20
2.773134
 40
0.003
 41
0.003
  0
LWPOLYLINE
  5
5CC
100
AcDbEntity
  8
0
 62
     8
100
AcDbPolyline
 90
        2
 70
     0
 39
0.003
 10
-0.534807
 20
2.772236
 40
0.003
 41
0.003
 10
0.110256
 20
3.14163
 40
0.003
 41
0.003
  0
LWPOLYLINE
  5
5CD
100
AcDbEntity
  8
0
 62
     8
100
AcDbPolyline
 90
        2
 70
     0
 39
0.003
 10
0.110256
 20
3.14163
 40
0.003
 41
0.003
 10
0.106799
 20
3.140764
 40
0.003
 41
0.003
  0
LWPOLYLINE
  5
5CE
100
AcDbEntity
  8
0
 62
     8
100
AcDbPolyline
 90
        2
 70
     0
 39
0.003
 10
0.106799
 20
3.140764
 40
0.003
 41
0.003
 10
-0.538264
 20
2.77137
 40
0.003
 41
0.003
  0
LWPOLYLINE
  5
5CF
100
AcDbEntity
  8
0
 62
     8
100
AcDbPolyline
 90
        2
 70
     0
 39
0.003
 10
-0.538264
 20
2.77137
 40
0.003
 41
0.003
 10
-0.534807
 20
2.772236
 40
0.003
 41
0.003
  0
LWPOLYLINE
  5
5D0
100
AcDbEntity
  8
0
 62
     8
100
AcDbPolyline
 90
        2
 70
     0
 39
0.003
 10
-0.538264
 20
2.77137
 40
0.003
 41
0.003
 10
0.106799
 20
3.140764
 40
0.003
 41
0.003
  0
LWPOLYLINE
  5
5D1
100
AcDbEntity
  8
0
 62
     8
100
AcDbPolyline
 90
        2
 70
     0
 39
0.003
 10
0.106799
 20
3.140764
 40
0.003
 41
0.003
 10
0.103453
 20
3.139913
 40
0.003
 41
0.003
  0
LWPOLYLINE
  5
5D2
100
AcDbEntity
  8
0
 62
     8
100
AcDbPolyline
 90
        2
 70
     0
 39
0.003
 10
0.103453
 20
3.139913
 40
0.003
 41
0.003
 10
-0.54161
 20
2.77052
 40
0.003
 41
0.003
  0
LWPOLYLINE
  5
5D3
100
AcDbEntity
  8
0
 62
     8
100
AcDbPolyline
 90
        2
 70
     0
 39
0.003
 10
-0.54161
 20
2.77052
 40
0.003
 41
0.003
 10
-0.538264
 20
2.77137
 40
0.003
 41
0.003
  0
LWPOLYLINE
  5
5D4
100
AcDbEntity
  8
0
 62
     8
100
AcDbPolyline
 90
        2
 70
     0
 39
0.003
 10
-0.54161
 20
2.77052
 40
0.003
 41
0.003
 10
0.103453
 20
3.139913
 40
0.003
 41
0.003
  0
LWPOLYLINE
  5
5D5
100
AcDbEntity
  8
0
 62
     8
100
AcDbPolyline
 90
        2
 70
     0
 39
0.003
 10
0.103453
 20
3.139913
 40
0.003
 41
0.003
 10
0.100201
 20
3.139102
 40
0.003
 41
0.003
  0
LWPOLYLINE
  5
5D6
100
AcDbEntity
  8
0
 62
     8
100
AcDbPolyline
 90
        2
 70
     0
 39
0.003
 10
0.100201
 20
3.139102
 40
0.003
 41
0.003
 10
-0.544862
 20
2.769709
 40
0.003
 41
0.003
  0
LWPOLYLINE
  5
5D7
100
AcDbEntity
  8
0
 62
     8
100
AcDbPolyline
 90
        2
 70
     0
 39
0.003
 10
-0.544862
 20
2.769709
 40
0.003
 41
0.003
 10
-0.54161
 20
2.77052
 40
0.003
 41
0.003
  0
LWPOLYLINE
  5
5D8
100
AcDbEntity
  8
0
 62
     8
100
AcDbPolyline
 90
        2
 70
     0
 39
0.003
 10
-0.544862
 20
2.769709
 40
0.003
 41
0.003
 10
0.100201
 20
3.139102
 40
0.003
 41
0.003
  0
LWPOLYLINE
  5
5D9
100
AcDbEntity
  8
0
 62
     8
100
AcDbPolyline
 90
        2
 70
     0
 39
0.003
 10
0.100201
 20
3.139102
 40
0.003
 41
0.003
 10
0.097051
 20
3.138319
 40
0.003
 41
0.003
  0
LWPOLYLINE
  5
5DA
100
AcDbEntity
  8
0
 62
     8
100
AcDbPolyline
 90
        2
 70
     0
 39
0.003
 10
0.097051
 20
3.138319
 40
0.003
 41
0.003
 10
-0.548012
 20
2.768925
 40
0.003
 41
0.003
  0
LWPOLYLINE
  5
5DB
100
AcDbEntity
  8
0
 62
     8
100
AcDbPolyline
 90
        2
 70
     0
 39
0.003
 10
-0.548012
 20
2.768925
 40
0.003
 41
0.003
 10
-0.544862
 20
2.769709
 40
0.003
 41
0.003
  0
LWPOLYLINE
  5
5DC
100
AcDbEntity
  8
0
 62
     8
100
AcDbPolyline
 90
        2
 70
     0
 39
0.003
 10
-0.548012
 20
2.768925
 40
0.003
 41
0.003
 10
0.097051
 20
3.138319
 40
0.003
 41
0.003
  0
LWPOLYLINE
  5
5DD
100
AcDbEntity
  8
0
 62
     8
100
AcDbPolyline
 90
        2
 70
     0
 39
0.003
 10
0.097051
 20
3.138319
 40
0.003
 41
0.003
 10
0.093992
 20
3.137587
 40
0.003
 41
0.003
  0
LWPOLYLINE
  5
5DE
100
AcDbEntity
  8
0
 62
     8
100
AcDbPolyline
 90
        2
 70
     0
 39
0.003
 10
0.093992
 20
3.137587
 40
0.003
 41
0.003
 10
-0.551071
 20
2.768193
 40
0.003
 41
0.003
  0
LWPOLYLINE
  5
5DF
100
AcDbEntity
  8
0
 62
     8
100
AcDbPolyline
 90
        2
 70
     0
 39
0.003
 10
-0.551071
 20
2.768193
 40
0.003
 41
0.003
 10
-0.548012
 20
2.768925
 40
0.003
 41
0.003
  0
LWPOLYLINE
  5
5E0
100
AcDbEntity
  8
0
 62
     0
100
AcDbPolyline
 90
        2
 70
     0
 39
0.003
 10
-0.394717
 20
2.790835
 40
0.003
 41
0.003
 10
0.250346
 20
3.160228
 40
0.003
 41
0.003
  0
LWPOLYLINE
  5
5E1
100
AcDbEntity
  8
0
 62
     0
100
AcDbPolyline
 90
        2
 70
     0
 39
0.003
 10
0.250346
 20
3.160228
 40
0.003
 41
0.003
 10
0.243283
 20
3.160189
 40
0.003
 41
0.003
  0
LWPOLYLINE
  5
5E2
100
AcDbEntity
  8
0
 62
     0
100
AcDbPolyline
 90
        2
 70
     0
 39
0.003
 10
0.243283
 20
3.160189
 40
0.003
 41
0.003
 10
0.236374
 20
3.160067
 40
0.003
 41
0.003
  0
LWPOLYLINE
  5
5E3
100
AcDbEntity
  8
0
 62
     0
100
AcDbPolyline
 90
        2
 70
     0
 39
0.003
 10
0.236374
 20
3.160067
 40
0.003
 41
0.003
 10
0.22963
 20
3.159858
 40
0.003
 41
0.003
  0
LWPOLYLINE
  5
5E4
100
AcDbEntity
  8
0
 62
     0
100
AcDbPolyline
 90
        2
 70
     0
 39
0.003
 10
0.22963
 20
3.159858
 40
0.003
 41
0.003
 10
0.223043
 20
3.159587
 40
0.003
 41
0.003
  0
LWPOLYLINE
  5
5E5
100
AcDbEntity
  8
0
 62
     0
100
AcDbPolyline
 90
        2
 70
     0
 39
0.003
 10
0.223043
 20
3.159587
 40
0.003
 41
0.003
 10
0.216618
 20
3.159232
 40
0.003
 41
0.003
  0
LWPOLYLINE
  5
5E6
100
AcDbEntity
  8
0
 62
     0
100
AcDbPolyline
 90
        2
 70
     0
 39
0.003
 10
0.216618
 20
3.159232
 40
0.003
 41
0.003
 10
0.210339
 20
3.158815
 40
0.003
 41
0.003
  0
LWPOLYLINE
  5
5E7
100
AcDbEntity
  8
0
 62
     0
100
AcDbPolyline
 90
        2
 70
     0
 39
0.003
 10
0.210339
 20
3.158815
 40
0.003
 41
0.003
 10
0.204217
 20
3.158331
 40
0.003
 41
0.003
  0
LWPOLYLINE
  5
5E8
100
AcDbEntity
  8
0
 62
     0
100
AcDbPolyline
 90
        2
 70
     0
 39
0.003
 10
0.204217
 20
3.158331
 40
0.003
 41
0.003
 10
0.19824
 20
3.157795
 40
0.003
 41
0.003
  0
LWPOLYLINE
  5
5E9
100
AcDbEntity
  8
0
 62
     0
100
AcDbPolyline
 90
        2
 70
     0
 39
0.003
 10
0.19824
 20
3.157795
 40
0.003
 41
0.003
 10
0.192425
 20
3.157193
 40
0.003
 41
0.003
  0
LWPOLYLINE
  5
5EA
100
AcDbEntity
  8
0
 62
     0
100
AcDbPolyline
 90
        2
 70
     0
 39
0.003
 10
0.192425
 20
3.157193
 40
0.003
 41
0.003
 10
0.186744
 20
3.156547
 40
0.003
 41
0.003
  0
LWPOLYLINE
  5
5EB
100
AcDbEntity
  8
0
 62
     0
100
AcDbPolyline
 90
        2
 70
     0
 39
0.003
 10
0.186744
 20
3.156547
 40
0.003
 41
0.003
 10
0.181209
 20
3.15585
 40
0.003
 41
0.003
  0
LWPOLYLINE
  5
5EC
100
AcDbEntity
  8
0
 62
     0
100
AcDbPolyline
 90
        2
 70
     0
 39
0.003
 10
0.181209
 20
3.15585
 40
0.003
 41
0.003
 10
0.175811
 20
3.155114
 40
0.003
 41
0.003
  0
LWPOLYLINE
  5
5ED
100
AcDbEntity
  8
0
 62
     0
100
AcDbPolyline
 90
        2
 70
     0
 39
0.003
 10
0.175811
 20
3.155114
 40
0.003
 41
0.003
 10
0.170555
 20
3.154331
 40
0.003
 41
0.003
  0
LWPOLYLINE
  5
5EE
100
AcDbEntity
  8
0
 62
     0
100
AcDbPolyline
 90
        2
 70
     0
 39
0.003
 10
0.170555
 20
3.154331
 40
0.003
 41
0.003
 10
0.165433
 20
3.15352
 40
0.003
 41
0.003
  0
LWPOLYLINE
  5
5EF
100
AcDbEntity
  8
0
 62
     0
100
AcDbPolyline
 90
        2
 70
     0
 39
0.003
 10
0.165433
 20
3.15352
 40
0.003
 41
0.003
 10
0.160449
 20
3.152673
 40
0.003
 41
0.003
  0
LWPOLYLINE
  5
5F0
100
AcDbEntity
  8
0
 62
     0
100
AcDbPolyline
 90
        2
 70
     0
 39
0.003
 10
0.160449
 20
3.152673
 40
0.003
 41
0.003
 10
0.155591
 20
3.151811
 40
0.003
 41
0.003
  0
LWPOLYLINE
  5
5F1
100
AcDbEntity
  8
0
 62
     0
100
AcDbPolyline
 90
        2
 70
     0
 39
0.003
 10
0.155591
 20
3.151811
 40
0.003
 41
0.003
 10
0.150874
 20
3.150913
 40
0.003
 41
0.003
  0
LWPOLYLINE
  5
5F2
100
AcDbEntity
  8
0
 62
     0
100
AcDbPolyline
 90
        2
 70
     0
 39
0.003
 10
0.150874
 20
3.150913
 40
0.003
 41
0.003
 10
0.146276
 20
3.15
 40
0.003
 41
0.003
  0
LWPOLYLINE
  5
5F3
100
AcDbEntity
  8
0
 62
     0
100
AcDbPolyline
 90
        2
 70
     0
 39
0.003
 10
0.146276
 20
3.15
 40
0.003
 41
0.003
 10
0.141807
 20
3.149071
 40
0.003
 41
0.003
  0
LWPOLYLINE
  5
5F4
100
AcDbEntity
  8
0
 62
     0
100
AcDbPolyline
 90
        2
 70
     0
 39
0.003
 10
0.141807
 20
3.149071
 40
0.003
 41
0.003
 10
0.137453
 20
3.148138
 40
0.003
 41
0.003
  0
LWPOLYLINE
  5
5F5
100
AcDbEntity
  8
0
 62
     0
100
AcDbPolyline
 90
        2
 70
     0
 39
0.003
 10
0.137453
 20
3.148138
 40
0.003
 41
0.003
 10
0.133228
 20
3.147193
 40
0.003
 41
0.003
  0
LWPOLYLINE
  5
5F6
100
AcDbEntity
  8
0
 62
     0
100
AcDbPolyline
 90
        2
 70
     0
 39
0.003
 10
0.133228
 20
3.147193
 40
0.003
 41
0.003
 10
0.129118
 20
3.146248
 40
0.003
 41
0.003
  0
LWPOLYLINE
  5
5F7
100
AcDbEntity
  8
0
 62
     0
100
AcDbPolyline
 90
        2
 70
     0
 39
0.003
 10
0.129118
 20
3.146248
 40
0.003
 41
0.003
 10
0.125122
 20
3.145303
 40
0.003
 41
0.003
  0
LWPOLYLINE
  5
5F8
100
AcDbEntity
  8
0
 62
     0
100
AcDbPolyline
 90
        2
 70
     0
 39
0.003
 10
0.125122
 20
3.145303
 40
0.003
 41
0.003
 10
0.121236
 20
3.14437
 40
0.003
 41
0.003
  0
LWPOLYLINE
  5
5F9
100
AcDbEntity
  8
0
 62
     0
100
AcDbPolyline
 90
        2
 70
     0
 39
0.003
 10
0.121236
 20
3.14437
 40
0.003
 41
0.003
 10
0.117469
 20
3.143437
 40
0.003
 41
0.003
  0
LWPOLYLINE
  5
5FA
100
AcDbEntity
  8
0
 62
     0
100
AcDbPolyline
 90
        2
 70
     0
 39
0.003
 10
0.117469
 20
3.143437
 40
0.003
 41
0.003
 10
0.113807
 20
3.142528
 40
0.003
 41
0.003
  0
LWPOLYLINE
  5
5FB
100
AcDbEntity
  8
0
 62
     0
100
AcDbPolyline
 90
        2
 70
     0
 39
0.003
 10
0.113807
 20
3.142528
 40
0.003
 41
0.003
 10
0.110256
 20
3.14163
 40
0.003
 41
0.003
  0
LWPOLYLINE
  5
5FC
100
AcDbEntity
  8
0
 62
     0
100
AcDbPolyline
 90
        2
 70
     0
 39
0.003
 10
0.110256
 20
3.14163
 40
0.003
 41
0.003
 10
0.106799
 20
3.140764
 40
0.003
 41
0.003
  0
LWPOLYLINE
  5
5FD
100
AcDbEntity
  8
0
 62
     0
100
AcDbPolyline
 90
        2
 70
     0
 39
0.003
 10
0.106799
 20
3.140764
 40
0.003
 41
0.003
 10
0.103453
 20
3.139913
 40
0.003
 41
0.003
  0
LWPOLYLINE
  5
5FE
100
AcDbEntity
  8
0
 62
     0
100
AcDbPolyline
 90
        2
 70
     0
 39
0.003
 10
0.103453
 20
3.139913
 40
0.003
 41
0.003
 10
0.100201
 20
3.139102
 40
0.003
 41
0.003
  0
LWPOLYLINE
  5
5FF
100
AcDbEntity
  8
0
 62
     0
100
AcDbPolyline
 90
        2
 70
     0
 39
0.003
 10
0.100201
 20
3.139102
 40
0.003
 41
0.003
 10
0.097051
 20
3.138319
 40
0.003
 41
0.003
  0
LWPOLYLINE
  5
600
100
AcDbEntity
  8
0
 62
     0
100
AcDbPolyline
 90
        2
 70
     0
 39
0.003
 10
0.097051
 20
3.138319
 40
0.003
 41
0.003
 10
0.093992
 20
3.137587
 40
0.003
 41
0.003
  0
LWPOLYLINE
  5
601
100
AcDbEntity
  8
0
 62
     0
100
AcDbPolyline
 90
        2
 70
     0
 39
0.003
 10
0.093992
 20
3.137587
 40
0.003
 41
0.003
 10
-0.551071
 20
2.768193
 40
0.003
 41
0.003
  0
LWPOLYLINE
  5
602
100
AcDbEntity
  8
0
 62
     0
100
AcDbPolyline
 90
        2
 70
     0
 39
0.003
 10
-0.551071
 20
2.768193
 40
0.003
 41
0.003
 10
-0.548012
 20
2.768925
 40
0.003
 41
0.003
  0
LWPOLYLINE
  5
603
100
AcDbEntity
  8
0
 62
     0
100
AcDbPolyline
 90
        2
 70
     0
 39
0.003
 10
-0.548012
 20
2.768925
 40
0.003
 41
0.003
 10
-0.544862
 20
2.769709
 40
0.003
 41
0.003
  0
LWPOLYLINE
  5
604
100
AcDbEntity
  8
0
 62
     0
100
AcDbPolyline
 90
        2
 70
     0
 39
0.003
 10
-0.544862
 20
2.769709
 40
0.003
 41
0.003
 10
-0.54161
 20
2.77052
 40
0.003
 41
0.003
  0
LWPOLYLINE
  5
605
100
AcDbEntity
  8
0
 62
     0
100
AcDbPolyline
 90
        2
 70
     0
 39
0.003
 10
-0.54161
 20
2.77052
 40
0.003
 41
0.003
 10
-0.538264
 20
2.77137
 40
0.003
 41
0.003
  0
LWPOLYLINE
  5
606
100
AcDbEntity
  8
0
 62
     0
100
AcDbPolyline
 90
        2
 70
     0
 39
0.003
 10
-0.538264
 20
2.77137
 40
0.003
 41
0.003
 10
-0.534807
 20
2.772236
 40
0.003
 41
0.003
  0
LWPOLYLINE
  5
607
100
AcDbEntity
  8
0
 62
     0
100
AcDbPolyline
 90
        2
 70
     0
 39
0.003
 10
-0.534807
 20
2.772236
 40
0.003
 41
0.003
 10
-0.531256
 20
2.773134
 40
0.003
 41
0.003
  0
LWPOLYLINE
  5
608
100
AcDbEntity
  8
0
 62
     0
100
AcDbPolyline
 90
        2
 70
     0
 39
0.003
 10
-0.531256
 20
2.773134
 40
0.003
 41
0.003
 10
-0.527594
 20
2.774043
 40
0.003
 41
0.003
  0
LWPOLYLINE
  5
609
100
AcDbEntity
  8
0
 62
     0
100
AcDbPolyline
 90
        2
 70
     0
 39
0.003
 10
-0.527594
 20
2.774043
 40
0.003
 41
0.003
 10
-0.523827
 20
2.774976
 40
0.003
 41
0.003
  0
LWPOLYLINE
  5
60A
100
AcDbEntity
  8
0
 62
     0
100
AcDbPolyline
 90
        2
 70
     0
 39
0.003
 10
-0.523827
 20
2.774976
 40
0.003
 41
0.003
 10
-0.519941
 20
2.775909
 40
0.003
 41
0.003
  0
LWPOLYLINE
  5
60B
100
AcDbEntity
  8
0
 62
     0
100
AcDbPolyline
 90
        2
 70
     0
 39
0.003
 10
-0.519941
 20
2.775909
 40
0.003
 41
0.003
 10
-0.515945
 20
2.776854
 40
0.003
 41
0.003
  0
LWPOLYLINE
  5
60C
100
AcDbEntity
  8
0
 62
     0
100
AcDbPolyline
 90
        2
 70
     0
 39
0.003
 10
-0.515945
 20
2.776854
 40
0.003
 41
0.003
 10
-0.511835
 20
2.777799
 40
0.003
 41
0.003
  0
LWPOLYLINE
  5
60D
100
AcDbEntity
  8
0
 62
     0
100
AcDbPolyline
 90
        2
 70
     0
 39
0.003
 10
-0.511835
 20
2.777799
 40
0.003
 41
0.003
 10
-0.50761
 20
2.778744
 40
0.003
 41
0.003
  0
LWPOLYLINE
  5
60E
100
AcDbEntity
  8
0
 62
     0
100
AcDbPolyline
 90
        2
 70
     0
 39
0.003
 10
-0.50761
 20
2.778744
 40
0.003
 41
0.003
 10
-0.503256
 20
2.779677
 40
0.003
 41
0.003
  0
LWPOLYLINE
  5
60F
100
AcDbEntity
  8
0
 62
     0
100
AcDbPolyline
 90
        2
 70
     0
 39
0.003
 10
-0.503256
 20
2.779677
 40
0.003
 41
0.003
 10
-0.498787
 20
2.780606
 40
0.003
 41
0.003
  0
LWPOLYLINE
  5
610
100
AcDbEntity
  8
0
 62
     0
100
AcDbPolyline
 90
        2
 70
     0
 39
0.003
 10
-0.498787
 20
2.780606
 40
0.003
 41
0.003
 10
-0.494189
 20
2.78152
 40
0.003
 41
0.003
  0
LWPOLYLINE
  5
611
100
AcDbEntity
  8
0
 62
     0
100
AcDbPolyline
 90
        2
 70
     0
 39
0.003
 10
-0.494189
 20
2.78152
 40
0.003
 41
0.003
 10
-0.489472
 20
2.782417
 40
0.003
 41
0.003
  0
LWPOLYLINE
  5
612
100
AcDbEntity
  8
0
 62
     0
100
AcDbPolyline
 90
        2
 70
     0
 39
0.003
 10
-0.489472
 20
2.782417
 40
0.003
 41
0.003
 10
-0.484614
 20
2.78328
 40
0.003
 41
0.003
  0
LWPOLYLINE
  5
613
100
AcDbEntity
  8
0
 62
     0
100
AcDbPolyline
 90
        2
 70
     0
 39
0.003
 10
-0.484614
 20
2.78328
 40
0.003
 41
0.003
 10
-0.47963
 20
2.784126
 40
0.003
 41
0.003
  0
LWPOLYLINE
  5
614
100
AcDbEntity
  8
0
 62
     0
100
AcDbPolyline
 90
        2
 70
     0
 39
0.003
 10
-0.47963
 20
2.784126
 40
0.003
 41
0.003
 10
-0.474508
 20
2.784937
 40
0.003
 41
0.003
  0
LWPOLYLINE
  5
615
100
AcDbEntity
  8
0
 62
     0
100
AcDbPolyline
 90
        2
 70
     0
 39
0.003
 10
-0.474508
 20
2.784937
 40
0.003
 41
0.003
 10
-0.469252
 20
2.78572
 40
0.003
 41
0.003
  0
LWPOLYLINE
  5
616
100
AcDbEntity
  8
0
 62
     0
100
AcDbPolyline
 90
        2
 70
     0
 39
0.003
 10
-0.469252
 20
2.78572
 40
0.003
 41
0.003
 10
-0.463854
 20
2.786457
 40
0.003
 41
0.003
  0
LWPOLYLINE
  5
617
100
AcDbEntity
  8
0
 62
     0
100
AcDbPolyline
 90
        2
 70
     0
 39
0.003
 10
-0.463854
 20
2.786457
 40
0.003
 41
0.003
 10
-0.458319
 20
2.787154
 40
0.003
 41
0.003
  0
LWPOLYLINE
  5
618
100
AcDbEntity
  8
0
 62
     0
100
AcDbPolyline
 90
        2
 70
     0
 39
0.003
 10
-0.458319
 20
2.787154
 40
0.003
 41
0.003
 10
-0.452638
 20
2.787799
 40
0.003
 41
0.003
  0
LWPOLYLINE
  5
619
100
AcDbEntity
  8
0
 62
     0
100
AcDbPolyline
 90
        2
 70
     0
 39
0.003
 10
-0.452638
 20
2.787799
 40
0.003
 41
0.003
 10
-0.446823
 20
2.788402
 40
0.003
 41
0.003
  0
LWPOLYLINE
  5
61A
100
AcDbEntity
  8
0
 62
     0
100
AcDbPolyline
 90
        2
 70
     0
 39
0.003
 10
-0.446823
 20
2.788402
 40
0.003
 41
0.003
 10
-0.440846
 20
2.788937
 40
0.003
 41
0.003
  0
LWPOLYLINE
  5
61B
100
AcDbEntity
  8
0
 62
     0
100
AcDbPolyline
 90
        2
 70
     0
 39
0.003
 10
-0.440846
 20
2.788937
 40
0.003
 41
0.003
 10
-0.434724
 20
2.789421
 40
0.003
 41
0.003
  0
LWPOLYLINE
  5
61C
100
AcDbEntity
  8
0
 62
     0
100
AcDbPolyline
 90
        2
 70
     0
 39
0.003
 10
-0.434724
 20
2.789421
 40
0.003
 41
0.003
 10
-0.428445
 20
2.789839
 40
0.003
 41
0.003
  0
LWPOLYLINE
  5
61D
100
AcDbEntity
  8
0
 62
     0
100
AcDbPolyline
 90
        2
 70
     0
 39
0.003
 10
-0.428445
 20
2.789839
 40
0.003
 41
0.003
 10
-0.42202
 20
2.790193
 40
0.003
 41
0.003
  0
LWPOLYLINE
  5
61E
100
AcDbEntity
  8
0
 62
     0
100
AcDbPolyline
 90
        2
 70
     0
 39
0.003
 10
-0.42202
 20
2.790193
 40
0.003
 41
0.003
 10
-0.415433
 20
2.790465
 40
0.003
 41
0.003
  0
LWPOLYLINE
  5
61F
100
AcDbEntity
  8
0
 62
     0
100
AcDbPolyline
 90
        2
 70
     0
 39
0.003
 10
-0.415433
 20
2.790465
 40
0.003
 41
0.003
 10
-0.408689
 20
2.790673
 40
0.003
 41
0.003
  0
LWPOLYLINE
  5
620
100
AcDbEntity
  8
0
 62
     0
100
AcDbPolyline
 90
        2
 70
     0
 39
0.003
 10
-0.408689
 20
2.790673
 40
0.003
 41
0.003
 10
-0.40178
 20
2.790795
 40
0.003
 41
0.003
  0
LWPOLYLINE
  5
621
100
AcDbEntity
  8
0
 62
     0
100
AcDbPolyline
 90
        2
 70
     0
 39
0.003
 10
-0.40178
 20
2.790795
 40
0.003
 41
0.003
 10
-0.394717
 20
2.790835
 40
0.003
 41
0.003
  0
LWPOLYLINE
  5
622
100
AcDbEntity
  8
0
 62
   127
100
AcDbPolyline
 90
        2
 70
     0
 39
0.003
 10
-2.487921
 20
2.133843
 40
0.003
 41
0.003
 10
-1.842858
 20
2.503236
 40
0.003
 41
0.003
  0
LWPOLYLINE
  5
623
100
AcDbEntity
  8
0
 62
   127
100
AcDbPolyline
 90
        2
 70
     0
 39
0.003
 10
-1.842858
 20
2.503236
 40
0.003
 41
0.003
 10
-1.858024
 20
2.497972
 40
0.003
 41
0.003
  0
LWPOLYLINE
  5
624
100
AcDbEntity
  8
0
 62
   127
100
AcDbPolyline
 90
        2
 70
     0
 39
0.003
 10
-1.858024
 20
2.497972
 40
0.003
 41
0.003
 10
-2.503087
 20
2.128579
 40
0.003
 41
0.003
  0
LWPOLYLINE
  5
625
100
AcDbEntity
  8
0
 62
   127
100
AcDbPolyline
 90
        2
 70
     0
 39
0.003
 10
-2.503087
 20
2.128579
 40
0.003
 41
0.003
 10
-2.487921
 20
2.133843
 40
0.003
 41
0.003
  0
LWPOLYLINE
  5
626
100
AcDbEntity
  8
0
 62
   251
100
AcDbPolyline
 90
        2
 70
     0
 39
0.003
 10
-2.503087
 20
2.128579
 40
0.003
 41
0.003
 10
-1.858024
 20
2.497972
 40
0.003
 41
0.003
  0
LWPOLYLINE
  5
627
100
AcDbEntity
  8
0
 62
   251
100
AcDbPolyline
 90
        2
 70
     0
 39
0.003
 10
-1.858024
 20
2.497972
 40
0.003
 41
0.003
 10
-1.872917
 20
2.492142
 40
0.003
 41
0.003
  0
LWPOLYLINE
  5
628
100
AcDbEntity
  8
0
 62
   251
100
AcDbPolyline
 90
        2
 70
     0
 39
0.003
 10
-1.872917
 20
2.492142
 40
0.003
 41
0.003
 10
-2.51798
 20
2.122748
 40
0.003
 41
0.003
  0
LWPOLYLINE
  5
629
100
AcDbEntity
  8
0
 62
   251
100
AcDbPolyline
 90
        2
 70
     0
 39
0.003
 10
-2.51798
 20
2.122748
 40
0.003
 41
0.003
 10
-2.503087
 20
2.128579
 40
0.003
 41
0.003
  0
LWPOLYLINE
  5
62A
100
AcDbEntity
  8
0
 62
   251
100
AcDbPolyline
 90
        2
 70
     0
 39
0.003
 10
-2.51798
 20
2.122748
 40
0.003
 41
0.003
 10
-1.872917
 20
2.492142
 40
0.003
 41
0.003
  0
LWPOLYLINE
  5
62B
100
AcDbEntity
  8
0
 62
   251
100
AcDbPolyline
 90
        2
 70
     0
 39
0.003
 10
-1.872917
 20
2.492142
 40
0.003
 41
0.003
 10
-1.88752
 20
2.485744
 40
0.003
 41
0.003
  0
LWPOLYLINE
  5
62C
100
AcDbEntity
  8
0
 62
   251
100
AcDbPolyline
 90
        2
 70
     0
 39
0.003
 10
-1.88752
 20
2.485744
 40
0.003
 41
0.003
 10
-2.532583
 20
2.11635
 40
0.003
 41
0.003
  0
LWPOLYLINE
  5
62D
100
AcDbEntity
  8
0
 62
   251
100
AcDbPolyline
 90
        2
 70
     0
 39
0.003
 10
-2.532583
 20
2.11635
 40
0.003
 41
0.003
 10
-2.51798
 20
2.122748
 40
0.003
 41
0.003
  0
LWPOLYLINE
  5
62E
100
AcDbEntity
  8
0
 62
   139
100
AcDbPolyline
 90
        2
 70
     0
 39
0.003
 10
-2.532583
 20
2.11635
 40
0.003
 41
0.003
 10
-1.88752
 20
2.485744
 40
0.003
 41
0.003
  0
LWPOLYLINE
  5
62F
100
AcDbEntity
  8
0
 62
   139
100
AcDbPolyline
 90
        2
 70
     0
 39
0.003
 10
-1.88752
 20
2.485744
 40
0.003
 41
0.003
 10
-1.901827
 20
2.478799
 40
0.003
 41
0.003
  0
LWPOLYLINE
  5
630
100
AcDbEntity
  8
0
 62
   139
100
AcDbPolyline
 90
        2
 70
     0
 39
0.003
 10
-1.901827
 20
2.478799
 40
0.003
 41
0.003
 10
-2.54689
 20
2.109406
 40
0.003
 41
0.003
  0
LWPOLYLINE
  5
631
100
AcDbEntity
  8
0
 62
   139
100
AcDbPolyline
 90
        2
 70
     0
 39
0.003
 10
-2.54689
 20
2.109406
 40
0.003
 41
0.003
 10
-2.532583
 20
2.11635
 40
0.003
 41
0.003
  0
LWPOLYLINE
  5
632
100
AcDbEntity
  8
0
 62
     0
100
AcDbPolyline
 90
        2
 70
     0
 39
0.003
 10
-2.487921
 20
2.133843
 40
0.003
 41
0.003
 10
-1.842858
 20
2.503236
 40
0.003
 41
0.003
  0
LWPOLYLINE
  5
633
100
AcDbEntity
  8
0
 62
     0
100
AcDbPolyline
 90
        2
 70
     0
 39
0.003
 10
-1.842858
 20
2.503236
 40
0.003
 41
0.003
 10
-1.858024
 20
2.497972
 40
0.003
 41
0.003
  0
LWPOLYLINE
  5
634
100
AcDbEntity
  8
0
 62
     0
100
AcDbPolyline
 90
        2
 70
     0
 39
0.003
 10
-1.858024
 20
2.497972
 40
0.003
 41
0.003
 10
-1.872917
 20
2.492142
 40
0.003
 41
0.003
  0
LWPOLYLINE
  5
635
100
AcDbEntity
  8
0
 62
     0
100
AcDbPolyline
 90
        2
 70
     0
 39
0.003
 10
-1.872917
 20
2.492142
 40
0.003
 41
0.003
 10
-1.88752
 20
2.485744
 40
0.003
 41
0.003
  0
LWPOLYLINE
  5
636
100
AcDbEntity
  8
0
 62
     0
100
AcDbPolyline
 90
        2
 70
     0
 39
0.003
 10
-1.88752
 20
2.485744
 40
0.003
 41
0.003
 10
-1.901827
 20
2.478799
 40
0.003
 41
0.003
  0
LWPOLYLINE
  5
637
100
AcDbEntity
  8
0
 62
     0
100
AcDbPolyline
 90
        2
 70
     0
 39
0.003
 10
-1.901827
 20
2.478799
 40
0.003
 41
0.003
 10
-2.54689
 20
2.109406
 40
0.003
 41
0.003
  0
LWPOLYLINE
  5
638
100
AcDbEntity
  8
0
 62
     0
100
AcDbPolyline
 90
        2
 70
     0
 39
0.003
 10
-2.54689
 20
2.109406
 40
0.003
 41
0.003
 10
-2.532583
 20
2.11635
 40
0.003
 41
0.003
  0
LWPOLYLINE
  5
639
100
AcDbEntity
  8
0
 62
     0
100
AcDbPolyline
 90
        2
 70
     0
 39
0.003
 10
-2.532583
 20
2.11635
 40
0.003
 41
0.003
 10
-2.51798
 20
2.122748
 40
0.003
 41
0.003
  0
LWPOLYLINE
  5
63A
100
AcDbEntity
  8
0
 62
     0
100
AcDbPolyline
 90
        2
 70
     0
 39
0.003
 10
-2.51798
 20
2.122748
 40
0.003
 41
0.003
 10
-2.503087
 20
2.128579
 40
0.003
 41
0.003
  0
LWPOLYLINE
  5
63B
100
AcDbEntity
  8
0
 62
     0
100
AcDbPolyline
 90
        2
 70
     0
 39
0.003
 10
-2.503087
 20
2.128579
 40
0.003
 41
0.003
 10
-2.487921
 20
2.133843
 40
0.003
 41
0.003
  0
LWPOLYLINE
  5
63C
100
AcDbEntity
  8
0
 62
   127
100
AcDbPolyline
 90
        2
 70
     0
 39
0.003
 10
-0.551071
 20
2.768193
 40
0.003
 41
0.003
 10
0.093992
 20
3.137587
 40
0.003
 41
0.003
  0
LWPOLYLINE
  5
63D
100
AcDbEntity
  8
0
 62
   127
100
AcDbPolyline
 90
        2
 70
     0
 39
0.003
 10
0.093992
 20
3.137587
 40
0.003
 41
0.003
 10
-1.843154
 20
2.613772
 40
0.003
 41
0.003
  0
LWPOLYLINE
  5
63E
100
AcDbEntity
  8
0
 62
   127
100
AcDbPolyline
 90
        2
 70
     0
 39
0.003
 10
-1.843154
 20
2.613772
 40
0.003
 41
0.003
 10
-2.488217
 20
2.244378
 40
0.003
 41
0.003
  0
LWPOLYLINE
  5
63F
100
AcDbEntity
  8
0
 62
   127
100
AcDbPolyline
 90
        2
 70
     0
 39
0.003
 10
-2.488217
 20
2.244378
 40
0.003
 41
0.003
 10
-0.551071
 20
2.768193
 40
0.003
 41
0.003
  0
LWPOLYLINE
  5
640
100
AcDbEntity
  8
0
 62
     0
100
AcDbPolyline
 90
        2
 70
     0
 39
0.003
 10
-0.551071
 20
2.768193
 40
0.003
 41
0.003
 10
0.093992
 20
3.137587
 40
0.003
 41
0.003
  0
LWPOLYLINE
  5
641
100
AcDbEntity
  8
0
 62
     0
100
AcDbPolyline
 90
        2
 70
     0
 39
0.003
 10
0.093992
 20
3.137587
 40
0.003
 41
0.003
 10
-1.843154
 20
2.613772
 40
0.003
 41
0.003
  0
LWPOLYLINE
  5
642
100
AcDbEntity
  8
0
 62
     0
100
AcDbPolyline
 90
        2
 70
     0
 39
0.003
 10
-1.843154
 20
2.613772
 40
0.003
 41
0.003
 10
-2.488217
 20
2.244378
 40
0.003
 41
0.003
  0
LWPOLYLINE
  5
643
100
AcDbEntity
  8
0
 62
     0
100
AcDbPolyline
 90
        2
 70
     0
 39
0.003
 10
-2.488217
 20
2.244378
 40
0.003
 41
0.003
 10
-0.551071
 20
2.768193
 40
0.003
 41
0.003
  0
SPLINE
  5
644
100
AcDbEntity
  8
0
 62
     7
100
AcDbSpline
210
0.0
220
0.0
230
1.0
 70
     0
 71
     3
 72
     0
 73
     0
 74
    32
 44
0.0000000001
 11
1.6726181102362205
 21
1.3521338582677165
 31
0.0
 11
1.7051377952755906
 21
1.3617992125984253
 31
0.0
 11
1.736484251968504
 21
1.3740551181102363
 31
0.0
 11
1.766511811023622
 21
1.388771653543307
 31
0.0
 11
1.7951102362204725
 21
1.4058267716535433
 31
0.0
 11
1.8221377952755906
 21
1.4250826771653544
 31
0.0
 11
1.8474803149606298
 21
1.4464291338582678
 31
0.0
 11
1.8710078740157481
 21
1.469732283464567
 31
0.0
 11
1.8925984251968504
 21
1.4948700787401574
 31
0.0
 11
1.9121141732283464
 21
1.5217007874015749
 31
0.0
 11
1.9294409448818897
 21
1.5501181102362205
 31
0.0
 11
1.9444448818897637
 21
1.579988188976378
 31
0.0
 11
1.9570118110236221
 21
1.6111850393700788
 31
0.0
 11
1.9669960629921259
 21
1.6435787401574804
 31
0.0
 11
1.9742913385826772
 21
1.6770511811023623
 31
0.0
 11
1.9787598425196851
 21
1.711464566929134
 31
0.0
 11
1.980279527559055
 21
1.7467086614173228
 31
0.0
 11
1.9789055118110237
 21
1.7802125984251969
 31
0.0
 11
1.9748622047244095
 21
1.8129881889763779
 31
0.0
 11
1.968251968503937
 21
1.8449173228346456
 31
0.0
 11
1.9592007874015749
 21
1.8758976377952756
 31
0.0
 11
1.9477913385826771
 21
1.9058070866141732
 31
0.0
 11
1.9341535433070867
 21
1.9345551181102363
 31
0.0
 11
1.9183818897637794
 21
1.9620196850393701
 31
0.0
 11
1.9005905511811023
 21
1.9881062992125984
 31
0.0
 11
1.8808818897637796
 21
2.0126850393700786
 31
0.0
 11
1.8593740157480314
 21
2.0356692913385825
 31
0.0
 11
1.8361653543307086
 21
2.0569370078740157
 31
0.0
 11
1.8113740157480316
 21
2.0763937007874014
 31
0.0
 11
1.7850984251968505
 21
2.0939173228346455
 31
0.0
 11
1.7574566929133859
 21
2.1094055118110235
 31
0.0
 11
1.7285472440944882
 21
2.1227480314960632
 31
0.0
  0
LWPOLYLINE
  5
645
100
AcDbEntity
  8
0
 62
     7
100
AcDbPolyline
 90
        2
 70
     0
 39
0.003
 10
1.728547
 20
2.122748
 40
0.003
 41
0.003
 10
1.698488
 20
2.133843
 40
0.003
 41
0.003
  0
LWPOLYLINE
  5
646
100
AcDbEntity
  8
0
 62
     7
100
AcDbPolyline
 90
        2
 70
     0
 39
0.003
 10
1.698488
 20
2.133843
 40
0.003
 41
0.003
 10
1.698783
 20
2.244378
 40
0.003
 41
0.003
  0
LWPOLYLINE
  5
647
100
AcDbEntity
  8
0
 62
     7
100
AcDbPolyline
 90
        2
 70
     0
 39
0.003
 10
1.698783
 20
2.244378
 40
0.003
 41
0.003
 10
-0.238362
 20
2.768193
 40
0.003
 41
0.003
  0
SPLINE
  5
648
100
AcDbEntity
  8
0
 62
     7
100
AcDbSpline
210
0.0
220
0.0
230
1.0
 70
     0
 71
     3
 72
     0
 73
     0
 74
    16
 44
0.0000000001
 11
-0.2383622047244094
 21
2.768192913385827
 31
0.0
 11
-0.2445590551181102
 21
2.7697086614173227
 31
0.0
 11
-0.2511574803149607
 21
2.7713700787401576
 31
0.0
 11
-0.2581614173228347
 21
2.7731338582677165
 31
0.0
 11
-0.2655944881889764
 21
2.7749763779527559
 31
0.0
 11
-0.2734645669291339
 21
2.7768543307086615
 31
0.0
 11
-0.2818070866141733
 21
2.7787440944881889
 31
0.0
 11
-0.2906299212598425
 21
2.7806062992125984
 31
0.0
 11
-0.2999527559055118
 21
2.7824173228346458
 31
0.0
 11
-0.3097834645669291
 21
2.7841259842519683
 31
0.0
 11
-0.3201614173228347
 21
2.785720472440945
 31
0.0
 11
-0.3310905511811024
 21
2.7871535433070864
 31
0.0
 11
-0.3425984251968504
 21
2.7884015748031494
 31
0.0
 11
-0.3546929133858268
 21
2.7894212598425199
 31
0.0
 11
-0.3674015748031496
 21
2.7901929133858268
 31
0.0
 11
-0.380732283464567
 21
2.7906732283464568
 31
0.0
  0
LWPOLYLINE
  5
649
100
AcDbEntity
  8
0
 62
     7
100
AcDbPolyline
 90
        2
 70
     0
 39
0.003
 10
-0.380732
 20
2.790673
 40
0.003
 41
0.003
 10
-0.394717
 20
2.790835
 40
0.003
 41
0.003
  0
LWPOLYLINE
  5
64A
100
AcDbEntity
  8
0
 62
     7
100
AcDbPolyline
 90
        2
 70
     0
 39
0.003
 10
-0.394717
 20
2.790835
 40
0.003
 41
0.003
 10
-0.394717
 20
2.790835
 40
0.003
 41
0.003
  0
SPLINE
  5
64B
100
AcDbEntity
  8
0
 62
     7
100
AcDbSpline
210
0.0
220
0.0
230
1.0
 70
     0
 71
     3
 72
     0
 73
     0
 74
    16
 44
0.0000000001
 11
-0.3947165354330709
 21
2.7908346456692912
 31
0.0
 11
-0.4086889763779528
 21
2.7906732283464568
 31
0.0
 11
-0.4220196850393701
 21
2.7901929133858268
 31
0.0
 11
-0.4347244094488189
 21
2.7894212598425199
 31
0.0
 11
-0.4468228346456693
 21
2.7884015748031494
 31
0.0
 11
-0.4583188976377953
 21
2.7871535433070864
 31
0.0
 11
-0.469251968503937
 21
2.785720472440945
 31
0.0
 11
-0.4796299212598425
 21
2.7841259842519683
 31
0.0
 11
-0.4894724409448819
 21
2.7824173228346458
 31
0.0
 11
-0.4987874015748032
 21
2.7806062992125984
 31
0.0
 11
-0.5076102362204724
 21
2.7787440944881889
 31
0.0
 11
-0.5159448818897637
 21
2.7768543307086615
 31
0.0
 11
-0.5238267716535433
 21
2.7749763779527559
 31
0.0
 11
-0.531255905511811
 21
2.7731338582677165
 31
0.0
 11
-0.5382637795275591
 21
2.7713700787401576
 31
0.0
 11
-0.5448622047244095
 21
2.7697086614173227
 31
0.0
  0
LWPOLYLINE
  5
64C
100
AcDbEntity
  8
0
 62
     7
100
AcDbPolyline
 90
        2
 70
     0
 39
0.003
 10
-0.544862
 20
2.769709
 40
0.003
 41
0.003
 10
-0.551071
 20
2.768193
 40
0.003
 41
0.003
  0
LWPOLYLINE
  5
64D
100
AcDbEntity
  8
0
 62
     7
100
AcDbPolyline
 90
        2
 70
     0
 39
0.003
 10
-0.551071
 20
2.768193
 40
0.003
 41
0.003
 10
-2.488217
 20
2.244378
 40
0.003
 41
0.003
  0
LWPOLYLINE
  5
64E
100
AcDbEntity
  8
0
 62
     7
100
AcDbPolyline
 90
        2
 70
     0
 39
0.003
 10
-2.488217
 20
2.244378
 40
0.003
 41
0.003
 10
-2.487921
 20
2.133843
 40
0.003
 41
0.003
  0
SPLINE
  5
64F
100
AcDbEntity
  8
0
 62
     7
100
AcDbSpline
210
0.0
220
0.0
230
1.0
 70
     0
 71
     3
 72
     0
 73
     0
 74
    32
 44
0.0000000001
 11
-2.4879212598425196
 21
2.1338425196850395
 31
0.0
 11
-2.5179803149606301
 21
2.1227480314960632
 31
0.0
 11
-2.5468897637795274
 21
2.1094055118110235
 31
0.0
 11
-2.5745314960629919
 21
2.0939173228346455
 31
0.0
 11
-2.6008070866141733
 21
2.0763937007874014
 31
0.0
 11
-2.6255984251968503
 21
2.0569370078740157
 31
0.0
 11
-2.6488070866141733
 21
2.0356692913385825
 31
0.0
 11
-2.6703149606299212
 21
2.0126850393700786
 31
0.0
 11
-2.690023622047244
 21
1.9881062992125984
 31
0.0
 11
-2.7078149606299213
 21
1.9620196850393701
 31
0.0
 11
-2.7235866141732283
 21
1.9345551181102363
 31
0.0
 11
-2.7372244094488187
 21
1.9058070866141732
 31
0.0
 11
-2.7486338582677163
 21
1.8758976377952756
 31
0.0
 11
-2.7576850393700787
 21
1.8449173228346456
 31
0.0
 11
-2.764295275590551
 21
1.8129881889763779
 31
0.0
 11
-2.7683385826771651
 21
1.7802125984251969
 31
0.0
 11
-2.7697125984251967
 21
1.7467086614173228
 31
0.0
 11
-2.768192913385827
 21
1.711464566929134
 31
0.0
 11
-2.7637244094488187
 21
1.6770511811023623
 31
0.0
 11
-2.7564291338582678
 21
1.6435787401574804
 31
0.0
 11
-2.7464448818897638
 21
1.6111850393700788
 31
0.0
 11
-2.7338779527559054
 21
1.579988188976378
 31
0.0
 11
-2.7188740157480313
 21
1.5501181102362205
 31
0.0
 11
-2.7015472440944883
 21
1.5217007874015749
 31
0.0
 11
-2.6820314960629923
 21
1.4948700787401574
 31
0.0
 11
-2.66044094488189
 21
1.469732283464567
 31
0.0
 11
-2.6369133858267717
 21
1.4464291338582678
 31
0.0
 11
-2.6115708661417325
 21
1.4250826771653544
 31
0.0
 11
-2.5845433070866144
 21
1.4058267716535433
 31
0.0
 11
-2.5559448818897637
 21
1.388771653543307
 31
0.0
 11
-2.5259173228346459
 21
1.3740551181102363
 31
0.0
 11
-2.4945708661417321
 21
1.3617992125984253
 31
0.0
  0
LWPOLYLINE
  5
650
100
AcDbEntity
  8
0
 62
     7
100
AcDbPolyline
 90
        2
 70
     0
 39
0.003
 10
-2.494571
 20
1.361799
 40
0.003
 41
0.003
 10
-2.462051
 20
1.352134
 40
0.003
 41
0.003
  0
LWPOLYLINE
  5
651
100
AcDbEntity
  8
0
 62
     7
100
AcDbPolyline
 90
        2
 70
     0
 39
0.003
 10
-2.462051
 20
1.352134
 40
0.003
 41
0.003
 10
1.672618
 20
1.352134
 40
0.003
 41
0.003
  0
MTEXT
  5
652
100
AcDbEntity
  8
0
 62
     0
100
AcDbMText
 10
-1.195882
 20
1.412268
 30
0.0
 40
0.166665
 41
0.0
 71
     1
 72
     1
  1
{\fBookman Old Style|b0|i0|c0|p32;BA  1412  1-7/16" x 4-3/4"}
 73
     1
 44
1.0
  0
MTEXT
  5
653
100
AcDbEntity
  8
0
 62
     0
100
AcDbMText
 10
-1.195882
 20
1.224768
 30
0.0
 40
0.166665
 41
0.0
 71
     1
 72
     1
  1
{\fBookman Old Style|b0|i0|c0|p32;BA  1411 Top}
 73
     1
 44
1.0
  0
ENDSEC
  0
SECTION
  2
OBJECTS
  0
DICTIONARY
  5
19
100
AcDbDictionary
280
     0
281
     1
  3
ACAD_GROUP
350
1A
  3
ACAD_MLINESTYLE
350
1B
  3
ACAD_LAYOUT
350
1E
  3
ACAD_PLOTSETTINGS
350
22
  3
ACAD_PLOTSTYLENAME
350
1F
  3
ACAD_WIPEOUT_VARS
350
23
  0
DICTIONARY
  5
1A
102
{ACAD_REACTORS
330
19
102
}
100
AcDbDictionary
280
     0
281
     1
  0
DICTIONARY
  5
1B
102
{ACAD_REACTORS
330
19
102
}
100
AcDbDictionary
280
     0
281
     1
  3
Standard
350
1C
  0
MLINESTYLE
  5
1C
102
{ACAD_REACTORS
330
1B
102
}
100
AcDbMlineStyle
  2
Standard
 70
     0
  3

 62
     0
 51
90.0
 52
90.0
 71
     2
 49
0.5
 62
   256
  6
BYLAYER
 49
-0.5
 62
   256
  6
BYLAYER
  0
ACDBDICTIONARYWDFLT
  5
1F
102
{ACAD_REACTORS
330
19
102
}
100
AcDbDictionary
281
     1
  3
Normal
350
1D
100
AcDbDictionaryWithDefault
340
1D
  0
ACDBPLACEHOLDER
  5
1D
102
{ACAD_REACTORS
330
1F
102
}
  0
LAYOUT
  5
20
102
{ACAD_REACTORS
330
1E
102
}
100
AcDbPlotSettings
  1

  2

  4

  6

 40
0.0
 41
0.0
 42
0.0
 43
0.0
 44
0.0
 45
0.0
 46
0.0
 47
0.0
 48
0.0
 49
0.0
140
0.0
141
0.0
142
1.0
143
1.0
 70
  1024
 72
     0
 73
     0
 74
     0
  7

 75
     0
147
1.0
148
0.0
149
0.0
100
AcDbLayout
  1
Model
 70
     0
 71
     0
 10
0.0
 20
0.0
 11
0.0
 21
0.0
 12
0.0
 22
0.0
 32
0.0
 14
0.0
 24
0.0
 34
0.0
 15
0.0
 25
0.0
 35
0.0
146
0.0
 13
0.0
 23
0.0
 33
0.0
 16
0.0
 26
0.0
 36
0.0
 17
0.0
 27
0.0
 37
0.0
 76
     0
330
A
331
0
345
0
346
0
  0
LAYOUT
  5
21
102
{ACAD_REACTORS
330
1E
102
}
100
AcDbPlotSettings
  1

  2

  4

  6

 40
0.0
 41
0.0
 42
0.0
 43
0.0
 44
0.0
 45
0.0
 46
0.0
 47
0.0
 48
0.0
 49
0.0
140
0.0
141
0.0
142
1.0
143
1.0
 70
     0
 72
     0
 73
     0
 74
     0
  7

 75
     0
147
1.0
148
0.0
149
0.0
100
AcDbLayout
  1
Layout1
 70
     0
 71
     0
 10
0.0
 20
0.0
 11
0.0
 21
0.0
 12
0.0
 22
0.0
 32
0.0
 14
0.0
 24
0.0
 34
0.0
 15
0.0
 25
0.0
 35
0.0
146
0.0
 13
0.0
 23
0.0
 33
0.0
 16
0.0
 26
0.0
 36
0.0
 17
0.0
 27
0.0
 37
0.0
 76
     0
330
B
331
0
345
0
346
0
  0
DICTIONARY
  5
1E
102
{ACAD_REACTORS
330
19
102
}
100
AcDbDictionary
280
     0
281
     1
  3
Layout1
350
21
  3
Model
350
20
  0
DICTIONARY
  5
22
102
{ACAD_REACTORS
330
19
102
}
100
AcDbDictionary
280
     0
281
     1
  0
WIPEOUTVARIABLES
  5
23
100
AcDbWipeoutVariables
 70
     1
  0
ENDSEC
  0
EOF
