  0
SECTION
  2
HEADER
  9
$ACADVER
  1
AC1015
  9
$ACADMAINTVER
 70
     6
  9
$DWGCODEPAGE
  3
DOS850
  9
$INSBASE
 10
0.0
 20
0.0
 30
0.0
  9
$EXTMIN
 10
1.000000E+20
 20
1.000000E+20
 30
1.000000E+20
  9
$EXTMAX
 10
-1.000000E+20
 20
-1.000000E+20
 30
-1.000000E+20
  9
$LIMMIN
 10
0.0
 20
0.0
  9
$LIMMAX
 10
0.0
 20
0.0
  9
$ORTHOMODE
 70
     0
  9
$REGENMODE
 70
     1
  9
$FILLMODE
 70
     1
  9
$QTEXTMODE
 70
     0
  9
$MIRRTEXT
 70
     1
  9
$LTSCALE
 40
1.0
  9
$ATTMODE
 70
     1
  9
$TEXTSIZE
 40
0.2
  9
$TRACEWID
 40
0.05
  9
$TEXTSTYLE
  7
Standard
  9
$CLAYER
  8
0
  9
$CELTYPE
  6
Continuous
  9
$CECOLOR
 62
   256
  9
$CELTSCALE
 40
1.0
  9
$DISPSILH
 70
     0
  9
$DIMSCALE
 40
1.0
  9
$DIMASZ
 40
0.18
  9
$DIMEXO
 40
0.0625
  9
$DIMDLI
 40
0.38
  9
$DIMRND
 40
0.0
  9
$DIMDLE
 40
0.0
  9
$DIMEXE
 40
0.18
  9
$DIMTP
 40
0.0
  9
$DIMTM
 40
0.0
  9
$DIMTXT
 40
0.18
  9
$DIMCEN
 40
0.09
  9
$DIMTSZ
 40
0.0
  9
$DIMTOL
 70
     0
  9
$DIMLIM
 70
     0
  9
$DIMTIH
 70
     1
  9
$DIMTOH
 70
     1
  9
$DIMSE1
 70
     0
  9
$DIMSE2
 70
     0
  9
$DIMTAD
 70
     0
  9
$DIMZIN
 70
     0
  9
$DIMBLK
  1

  9
$DIMASO
 70
     1
  9
$DIMSHO
 70
     1
  9
$DIMPOST
  1

  9
$DIMAPOST
  1

  9
$DIMALT
 70
     0
  9
$DIMALTD
 70
     2
  9
$DIMALTF
 40
25.4
  9
$DIMLFAC
 40
1.0
  9
$DIMTOFL
 70
     0
  9
$DIMTVP
 40
0.0
  9
$DIMTIX
 70
     0
  9
$DIMSOXD
 70
     0
  9
$DIMSAH
 70
     0
  9
$DIMBLK1
  1

  9
$DIMBLK2
  1

  9
$DIMSTYLE
  2
Standard
  9
$DIMCLRD
 70
     0
  9
$DIMCLRE
 70
     0
  9
$DIMCLRT
 70
     0
  9
$DIMTFAC
 40
1.0
  9
$DIMGAP
 40
0.09
  9
$DIMJUST
 70
     0
  9
$DIMSD1
 70
     0
  9
$DIMSD2
 70
     0
  9
$DIMTOLJ
 70
     1
  9
$DIMTZIN
 70
     0
  9
$DIMALTZ
 70
     0
  9
$DIMALTTZ
 70
     0
  9
$DIMUPT
 70
     0
  9
$DIMDEC
 70
     4
  9
$DIMTDEC
 70
     4
  9
$DIMALTU
 70
     2
  9
$DIMALTTD
 70
     2
  9
$DIMTXSTY
  7
Standard
  9
$DIMAUNIT
 70
     0
  9
$DIMADEC
 70
     0
  9
$DIMALTRND
 40
0.0
  9
$DIMAZIN
 70
     0
  9
$DIMDSEP
 70
     0
  9
$DIMATFIT
 70
     3
  9
$DIMFRAC
 70
     0
  9
$DIMLDRBLK
  1

  9
$DIMLUNIT
 70
     2
  9
$DIMLWD
 70
     0
  9
$DIMLWE
 70
     0
  9
$DIMTMOVE
 70
     0
  9
$LUNITS
 70
     2
  9
$LUPREC
 70
     4
  9
$SKETCHINC
 40
0.1
  9
$FILLETRAD
 40
0.0
  9
$AUNITS
 70
     0
  9
$AUPREC
 70
     0
  9
$MENU
  1
acad
  9
$ELEVATION
 40
0.0
  9
$PELEVATION
 40
0.0
  9
$THICKNESS
 40
0.0
  9
$LIMCHECK
 70
     0
  9
$CHAMFERA
 40
0.0
  9
$CHAMFERB
 40
0.0
  9
$CHAMFERC
 40
0.0
  9
$CHAMFERD
 40
0.0
  9
$SKPOLY
 70
     0
  9
$TDCREATE
 40
0.000000000
  9
$TDUCREATE
 40
0.000000000
  9
$TDUPDATE
 40
0.000000000
  9
$TDUUPDATE
 40
0.000000000
  9
$TDINDWG
 40
0.0000000000
  9
$TDUSRTIMER
 40
0.0000000000
  9
$USRTIMER
 70
     1
  9
$ANGBASE
 50
0.0
  9
$ANGDIR
 70
     0
  9
$PDMODE
 70
     0
  9
$PDSIZE
 40
0.0
  9
$PLINEWID
 40
0.0
  9
$SPLFRAME
 70
     0
  9
$SPLINETYPE
 70
     6
  9
$SPLINESEGS
 70
     8
  9
$HANDSEED
  5
12A
  9
$SURFTAB1
 70
     6
  9
$SURFTAB2
 70
     6
  9
$SURFTYPE
 70
     6
  9
$SURFU
 70
     6
  9
$SURFV
 70
     6
  9
$UCSBASE
  2

  9
$UCSNAME
  2

  9
$UCSORG
 10
0.0
 20
0.0
 30
0.0
  9
$UCSXDIR
 10
1.0
 20
0.0
 30
0.0
  9
$UCSYDIR
 10
0.0
 20
1.0
 30
0.0
  9
$UCSORTHOREF
  2

  9
$UCSORTHOVIEW
 70
     0
  9
$UCSORGTOP
 10
0.0
 20
0.0
 30
0.0
  9
$UCSORGBOTTOM
 10
0.0
 20
0.0
 30
0.0
  9
$UCSORGLEFT
 10
0.0
 20
0.0
 30
0.0
  9
$UCSORGRIGHT
 10
0.0
 20
0.0
 30
0.0
  9
$UCSORGFRONT
 10
0.0
 20
0.0
 30
0.0
  9
$UCSORGBACK
 10
0.0
 20
0.0
 30
0.0
  9
$PUCSBASE
  2

  9
$PUCSNAME
  2

  9
$PUCSORG
 10
0.0
 20
0.0
 30
0.0
  9
$PUCSXDIR
 10
1.0
 20
0.0
 30
0.0
  9
$PUCSYDIR
 10
0.0
 20
1.0
 30
0.0
  9
$PUCSORTHOREF
  2

  9
$PUCSORTHOVIEW
 70
     0
  9
$PUCSORGTOP
 10
0.0
 20
0.0
 30
0.0
  9
$PUCSORGBOTTOM
 10
0.0
 20
0.0
 30
0.0
  9
$PUCSORGLEFT
 10
0.0
 20
0.0
 30
0.0
  9
$PUCSORGRIGHT
 10
0.0
 20
0.0
 30
0.0
  9
$PUCSORGFRONT
 10
0.0
 20
0.0
 30
0.0
  9
$PUCSORGBACK
 10
0.0
 20
0.0
 30
0.0
  9
$USERI1
 70
     0
  9
$USERI2
 70
     0
  9
$USERI3
 70
     0
  9
$USERI4
 70
     0
  9
$USERI5
 70
     0
  9
$USERR1
 40
0.0
  9
$USERR2
 40
0.0
  9
$USERR3
 40
0.0
  9
$USERR4
 40
0.0
  9
$USERR5
 40
0.0
  9
$WORLDVIEW
 70
     1
  9
$SHADEDGE
 70
     3
  9
$SHADEDIF
 70
    70
  9
$TILEMODE
 70
     1
  9
$MAXACTVP
 70
    16
  9
$PINSBASE
 10
0.0
 20
0.0
 30
0.0
  9
$PLIMCHECK
 70
     0
  9
$PEXTMIN
 10
1.000000E+20
 20
1.000000E+20
 30
1.000000E+20
  9
$PEXTMAX
 10
-1.000000E+20
 20
-1.000000E+20
 30
-1.000000E+20
  9
$PLIMMIN
 10
0.0
 20
0.0
  9
$PLIMMAX
 10
12.0
 20
9.0
  9
$UNITMODE
 70
     0
  9
$VISRETAIN
 70
     0
  9
$PLINEGEN
 70
     1
  9
$PSLTSCALE
 70
     0
  9
$TREEDEPTH
 70
  3020
  9
$CMLSTYLE
  2
Standard
  9
$CMLJUST
 70
     0
  9
$CMLSCALE
 40
1.0
  9
$PROXYGRAPHICS
 70
     0
  9
$MEASUREMENT
 70
     0
  9
$CELWEIGHT
370
     0
  9
$ENDCAPS
280
     0
  9
$JOINSTYLE
280
     0
  9
$LWDISPLAY
290
     0
  9
$INSUNITS
 70
     0
  9
$HYPERLINKBASE
  1

  9
$XEDIT
290
     1
  9
$CEPSNTYPE
380
     0
  9
$PSTYLEMODE
290
     1
  9
$FINGERPRINTGUID
  2

  9
$VERSIONGUID
  2

  9
$EXTNAMES
290
     1
  9
$PSVPSCALE
 40
0.0
  0
ENDSEC
  0
SECTION
  2
CLASSES
  0
CLASS
  1
LWPOLYLINE
  2
AcDbPolyline
  3
AutoCAD 2000
 90
        0
280
     0
281
     1
  0
CLASS
  1
IMAGE
  2
AcDbRasterImage
  3
ISM
 90
    32895
280
     0
281
     1
  0
CLASS
  1
OLE2FRAME
  2
AcDbOle2Frame
  3
AutoCAD 2000
 90
    32768
280
     0
281
     1
  0
CLASS
  1
HATCH
  2
AcDbHatch
  3
AutoCAD 2000
 90
    32768
280
     0
281
     1
  0
CLASS
  1
DICTIONARYVAR
  2
AcDbDictionaryVar
  3
AutoCAD 2000
 90
    32768
280
     0
281
     0
  0
CLASS
  1
RASTERVARIABLES
  2
AcDbRasterVariables
  3
ISM
 90
    32768
280
     0
281
     0
  0
CLASS
  1
IMAGEDEF
  2
AcDbRasterImageDef
  3
ISM
 90
    32768
280
     0
281
     0
  0
CLASS
  1
IMAGEDEF_REACTOR
  2
AcDbRasterImageDefReactor
  3
ISM
 90
    32769
280
     0
281
     0
  0
CLASS
  1
IDBUFFER
  2
AcDbIdBuffer
  3
AutoCAD 2000
 90
    32768
280
     0
281
     0
  0
CLASS
  1
SPATIAL_FILTER
  2
AcDbSpatialFilter
  3
AutoCAD 2000
 90
    32768
280
     0
281
     0
  0
CLASS
  1
XRECORD
  2
AcDbXrecord
  3
AutoCAD 2000
 90
    32768
280
     0
281
     0
  0
CLASS
  1
SORTENTSTABLE
  2
AcDbSortentsTable
  3
AutoCAD 2000
 90
    32768
280
     0
281
     0
  0
CLASS
  1
LAYER_INDEX
  2
AcDbLayerIndex
  3
AutoCAD 2000
 90
    32768
280
     0
281
     0
  0
CLASS
  1
SPATIAL_INDEX
  2
AcDbSpatialIndex
  3
AutoCAD 2000
 90
    32768
280
     0
281
     0
  0
CLASS
  1
OBJECT_PTR
  2
CAseDLPNTableRecord
  3
"ASE-LPNTableRecord"
 90
    32769
280
     0
281
     0
  0
CLASS
  1
LAYOUT
  2
AcDbLayout
  3
AutoCAD 2000
 90
        0
280
     0
281
     0
  0
CLASS
  1
PLOTSETTINGS
  2
AcDbPlotSettings
  3
AutoCAD 2000
 90
    32768
280
     0
281
     0
  0
CLASS
  1
ACDBDICTIONARYWDFLT
  2
AcDbDictionaryWithDefault
  3
AutoCAD 2000
 90
        0
280
     0
281
     0
  0
CLASS
  1
ACDBPLACEHOLDER
  2
AcDbPlaceHolder
  3
AutoCAD 2000
 90
        0
280
     0
281
     0
  0
CLASS
  1
VBA_PROJECT
  2
AcDbVbaProject
  3
acadvba
 90
    32768
280
     0
281
     0
  0
CLASS
  1
WIPEOUT
  2
AcDbWipeout
  3
WipeOut|AutoCAD Express Tool|expresstools@autodesk.com
 90
    32895
280
     0
281
     1
  0
CLASS
  1
WIPEOUTVARIABLES
  2
AcDbWipeoutVariables
  3
WipeOut|AutoCAD Express Tool|expresstools@autodesk.com
 90
        0
280
     0
281
     0
  0
CLASS
  1
RTEXT
  2
RText
  3
RText|AutoCAD Express Tool|expresstools@autodesk.com
 90
    32768
280
     0
281
     1
  0
CLASS
  1
ARCALIGNEDTEXT
  2
AcDbArcAlignedText
  3
ATEXT|AutoCAD Express Tool|expresstools@autodesk.com
 90
    32768
280
     0
281
     1
  0
ENDSEC
  0
SECTION
  2
TABLES
  0
TABLE
  2
VPORT
  5
7
100
AcDbSymbolTable
 70
     1
  0
VPORT
  5
15
100
AcDbSymbolTableRecord
100
AcDbViewportTableRecord
  2
*ACTIVE
 70
     0
 10
0.0
 20
0.0
 11
1.0
 21
1.0
 12
6.591288
 22
4.579184
 13
0.0
 23
0.0
 14
1.0
 24
1.0
 15
0.0
 25
0.0
 16
0.0
 26
0.0
 36
1.0
 17
0.0
 27
0.0
 37
0.0
 40
9.158369
 41
0.688564
 42
50.0
 43
0.0
 44
0.0
 50
0.0
 51
0.0
 71
     0
 72
   100
 73
     1
 74
     1
 75
     0
 76
     0
 77
     0
 78
     0
281
     0
 65
     0
110
0.0
120
0.0
130
0.0
111
1.0
121
0.0
131
0.0
112
0.0
122
1.0
132
0.0
345
0
346
0
 79
     0
146
0.0
  0
ENDTAB
  0
TABLE
  2
LTYPE
  5
4
100
AcDbSymbolTable
 70
     3
  0
LTYPE
  5
11
100
AcDbSymbolTableRecord
100
AcDbLinetypeTableRecord
  2
ByBlock
 70
    64
  3

 72
    65
 73
     0
 40
0.0
  0
LTYPE
  5
12
100
AcDbSymbolTableRecord
100
AcDbLinetypeTableRecord
  2
ByLayer
 70
    64
  3

 72
    65
 73
     0
 40
0.0
  0
LTYPE
  5
13
100
AcDbSymbolTableRecord
100
AcDbLinetypeTableRecord
  2
Continuous
 70
    64
  3
Solid line
 72
    65
 73
     0
 40
0.0
  0
ENDTAB
  0
TABLE
  2
LAYER
  5
2
100
AcDbSymbolTable
 70
     1
  0
LAYER
  5
14
100
AcDbSymbolTableRecord
100
AcDbLayerTableRecord
  2
0
 70
     0
 62
     7
  6
Continuous
290
     1
370
    -3
390
1D
  0
ENDTAB
  0
TABLE
  2
STYLE
  5
3
100
AcDbSymbolTable
 70
     1
  0
STYLE
  5
17
100
AcDbSymbolTableRecord
100
AcDbTextStyleTableRecord
  2
Standard
 70
     0
 40
0.0
 41
1.0
 50
0.0
 71
     0
 42
0.0
  3
txt
  4

  0
ENDTAB
  0
TABLE
  2
VIEW
  5
5
100
AcDbSymbolTable
 70
     0
  0
ENDTAB
  0
TABLE
  2
UCS
  5
6
100
AcDbSymbolTable
 70
     0
  0
ENDTAB
  0
TABLE
  2
APPID
  5
8
100
AcDbSymbolTable
 70
     1
  0
APPID
  5
16
100
AcDbSymbolTableRecord
100
AcDbRegAppTableRecord
  2
ACAD
 70
     0
  0
ENDTAB
  0
TABLE
  2
DIMSTYLE
  5
9
100
AcDbSymbolTable
 70
     1
100
AcDbDimStyleTable
 71
     0
  0
DIMSTYLE
105
18
100
AcDbSymbolTableRecord
100
AcDbDimStyleTableRecord
  2
Standard
 70
     0
  3

  4

 40
1.0
 41
0.18
 42
0.0625
 43
0.38
 44
0.18
 45
0.0
 46
0.0
 47
0.0
 48
0.0
 71
     0
 72
     0
 73
     1
 74
     1
 75
     0
 76
     0
 77
     0
 78
     0
 79
     0
140
0.18
141
0.09
142
0.0
143
25.4
144
1.0
145
0.0
146
1.0
147
0.09
148
0.0
170
     0
171
     2
172
     0
173
     0
174
     0
175
     0
176
     0
177
     0
178
     0
179
     0
271
     4
272
     4
273
     2
274
     2
275
     0
276
     0
277
     2
278
    46
279
     0
280
     0
281
     0
282
     0
283
     1
284
     0
285
     0
286
     0
288
     0
340
17
341
0
342
0
343
0
344
0
371
    -2
372
    -2
  0
ENDTAB
  0
TABLE
  2
BLOCK_RECORD
  5
1
100
AcDbSymbolTable
 70
     0
  0
BLOCK_RECORD
  5
A
100
AcDbSymbolTableRecord
100
AcDbBlockTableRecord
  2
*MODEL_SPACE
340
20
  0
BLOCK_RECORD
  5
B
100
AcDbSymbolTableRecord
100
AcDbBlockTableRecord
  2
*PAPER_SPACE
340
21
  0
ENDTAB
  0
ENDSEC
  0
SECTION
  2
BLOCKS
  0
BLOCK
  5
D
100
AcDbEntity
  8
0
100
AcDbBlockBegin
  2
*MODEL_SPACE
 70
     0
 10
0.0
 20
0.0
 30
0.0
  3
*MODEL_SPACE
  1

  0
ENDBLK
  5
E
100
AcDbEntity
  8
0
100
AcDbBlockEnd
  0
BLOCK
  5
F
100
AcDbEntity
 67
     1
  8
0
100
AcDbBlockBegin
  2
*PAPER_SPACE
 70
     0
 10
0.0
 20
0.0
 30
0.0
  3
*PAPER_SPACE
  1

  0
ENDBLK
  5
10
100
AcDbEntity
 67
     1
  8
0
100
AcDbBlockEnd
  0
ENDSEC
  0
SECTION
  2
ENTITIES
  0
SPLINE
  5
24
100
AcDbEntity
  8
0
 62
     0
100
AcDbSpline
210
0.0
220
0.0
230
1.0
 70
     0
 71
     3
 72
     0
 73
     0
 74
    16
 44
0.0000000001
 11
-1.254728346456693
 21
1.8618976377952756
 31
0.0
 11
-1.2552952755905511
 21
1.9080354330708662
 31
0.0
 11
-1.2571338582677165
 21
1.9500944881889763
 31
0.0
 11
-1.2604448818897638
 21
1.988216535433071
 31
0.0
 11
-1.2654291338582677
 21
2.0225669291338582
 31
0.0
 11
-1.2722716535433072
 21
2.053279527559055
 31
0.0
 11
-1.2811811023622046
 21
2.0805275590551182
 31
0.0
 11
-1.2923503937007874
 21
2.1044488188976378
 31
0.0
 11
-1.305988188976378
 21
2.125204724409449
 31
0.0
 11
-1.322271653543307
 21
2.1429370078740155
 31
0.0
 11
-1.3414133858267716
 21
2.1578110236220471
 31
0.0
 11
-1.3636023622047244
 21
2.169972440944882
 31
0.0
 11
-1.3890511811023623
 21
2.1795826771653544
 31
0.0
 11
-1.4179370078740157
 21
2.1867795275590551
 31
0.0
 11
-1.4504763779527559
 21
2.1917322834645669
 31
0.0
 11
-1.4868582677165354
 21
2.1945826771653545
 31
0.0
  0
LWPOLYLINE
  5
25
100
AcDbEntity
  8
0
 62
     0
100
AcDbPolyline
 90
        2
 70
     0
 39
0.003
 10
-1.486858
 20
2.194583
 40
0.003
 41
0.003
 10
-1.527283
 20
2.195496
 40
0.003
 41
0.003
  0
LWPOLYLINE
  5
26
100
AcDbEntity
  8
0
 62
     0
100
AcDbPolyline
 90
        2
 70
     0
 39
0.003
 10
-1.527283
 20
2.195496
 40
0.003
 41
0.003
 10
-1.527283
 20
2.513992
 40
0.003
 41
0.003
  0
LWPOLYLINE
  5
27
100
AcDbEntity
  8
0
 62
     0
100
AcDbPolyline
 90
        2
 70
     0
 39
0.003
 10
-1.527283
 20
2.513992
 40
0.003
 41
0.003
 10
-1.612661
 20
2.651028
 40
0.003
 41
0.003
  0
SPLINE
  5
28
100
AcDbEntity
  8
0
 62
     0
100
AcDbSpline
210
0.0
220
0.0
230
1.0
 70
     0
 71
     3
 72
     0
 73
     0
 74
    16
 44
0.0000000001
 11
-1.6126614173228346
 21
2.6510275590551182
 31
0.0
 11
-1.6123661417322834
 21
2.7714921259842518
 31
0.0
 11
-1.6125
 21
2.8807244094488187
 31
0.0
 11
-1.6137125984251968
 21
2.9792047244094486
 31
0.0
 11
-1.6166614173228346
 21
3.0674330708661417
 31
0.0
 11
-1.6219763779527558
 21
3.1458779527559053
 31
0.0
 11
-1.6303307086614174
 21
3.2150393700787401
 31
0.0
 11
-1.6423622047244095
 21
3.2753937007874017
 31
0.0
 11
-1.6587283464566929
 21
3.3274409448818898
 31
0.0
 11
-1.6800629921259842
 21
3.3716456692913388
 31
0.0
 11
-1.7070354330708661
 21
3.4085196850393702
 31
0.0
 11
-1.7402874015748031
 21
3.4385314960629922
 31
0.0
 11
-1.7804803149606299
 21
3.4621850393700786
 31
0.0
 11
-1.828248031496063
 21
3.4799448818897636
 31
0.0
 11
-1.8842519685039369
 21
3.4923149606299213
 31
0.0
 11
-1.9491377952755906
 21
3.4997795275590553
 31
0.0
  0
LWPOLYLINE
  5
29
100
AcDbEntity
  8
0
 62
     0
100
AcDbPolyline
 90
        2
 70
     0
 39
0.003
 10
-1.949138
 20
3.49978
 40
0.003
 41
0.003
 10
-2.023563
 20
3.502823
 40
0.003
 41
0.003
  0
LWPOLYLINE
  5
2A
100
AcDbEntity
  8
0
 62
     0
100
AcDbPolyline
 90
        2
 70
     0
 39
0.003
 10
-2.023563
 20
3.502823
 40
0.003
 41
0.003
 10
-2.023563
 20
3.91063
 40
0.003
 41
0.003
  0
LWPOLYLINE
  5
2B
100
AcDbEntity
  8
0
 62
     0
100
AcDbPolyline
 90
        2
 70
     0
 39
0.003
 10
-2.023563
 20
3.91063
 40
0.003
 41
0.003
 10
0.019768
 20
4.079366
 40
0.003
 41
0.003
  0
LWPOLYLINE
  5
2C
100
AcDbEntity
  8
0
 62
     0
100
AcDbPolyline
 90
        2
 70
     0
 39
0.003
 10
0.019768
 20
4.079366
 40
0.003
 41
0.003
 10
2.065193
 20
3.91063
 40
0.003
 41
0.003
  0
LWPOLYLINE
  5
2D
100
AcDbEntity
  8
0
 62
     0
100
AcDbPolyline
 90
        2
 70
     0
 39
0.003
 10
2.065193
 20
3.91063
 40
0.003
 41
0.003
 10
2.065193
 20
3.502823
 40
0.003
 41
0.003
  0
SPLINE
  5
2E
100
AcDbEntity
  8
0
 62
     0
100
AcDbSpline
210
0.0
220
0.0
230
1.0
 70
     0
 71
     3
 72
     0
 73
     0
 74
    16
 44
0.0000000001
 11
2.0651929133858267
 21
3.5028228346456691
 31
0.0
 11
1.9907677165354332
 21
3.4997795275590553
 31
0.0
 11
1.9258818897637795
 21
3.4923149606299213
 31
0.0
 11
1.8698779527559055
 21
3.4799448818897636
 31
0.0
 11
1.8221102362204724
 21
3.4621850393700786
 31
0.0
 11
1.7819173228346457
 21
3.4385314960629922
 31
0.0
 11
1.7486653543307087
 21
3.4085196850393702
 31
0.0
 11
1.7216929133858268
 21
3.3716456692913388
 31
0.0
 11
1.7003582677165354
 21
3.3274409448818898
 31
0.0
 11
1.6839921259842521
 21
3.2753937007874017
 31
0.0
 11
1.6719606299212599
 21
3.2150393700787401
 31
0.0
 11
1.6636062992125984
 21
3.1458779527559053
 31
0.0
 11
1.6582913385826772
 21
3.0674330708661417
 31
0.0
 11
1.6553425196850393
 21
2.9792047244094486
 31
0.0
 11
1.6541299212598426
 21
2.8807244094488187
 31
0.0
 11
1.653996062992126
 21
2.7714921259842518
 31
0.0
  0
LWPOLYLINE
  5
2F
100
AcDbEntity
  8
0
 62
     0
100
AcDbPolyline
 90
        2
 70
     0
 39
0.003
 10
1.653996
 20
2.771492
 40
0.003
 41
0.003
 10
1.654291
 20
2.651028
 40
0.003
 41
0.003
  0
LWPOLYLINE
  5
30
100
AcDbEntity
  8
0
 62
     0
100
AcDbPolyline
 90
        2
 70
     0
 39
0.003
 10
1.654291
 20
2.651028
 40
0.003
 41
0.003
 10
1.568913
 20
2.513992
 40
0.003
 41
0.003
  0
LWPOLYLINE
  5
31
100
AcDbEntity
  8
0
 62
     0
100
AcDbPolyline
 90
        2
 70
     0
 39
0.003
 10
1.568913
 20
2.513992
 40
0.003
 41
0.003
 10
1.568913
 20
2.195496
 40
0.003
 41
0.003
  0
SPLINE
  5
32
100
AcDbEntity
  8
0
 62
     0
100
AcDbSpline
210
0.0
220
0.0
230
1.0
 70
     0
 71
     3
 72
     0
 73
     0
 74
    16
 44
0.0000000001
 11
1.5689133858267716
 21
2.1954960629921261
 31
0.0
 11
1.5284881889763779
 21
2.1945826771653545
 31
0.0
 11
1.4921062992125984
 21
2.1917322834645669
 31
0.0
 11
1.4595669291338582
 21
2.1867795275590551
 31
0.0
 11
1.4306811023622048
 21
2.1795826771653544
 31
0.0
 11
1.405232283464567
 21
2.169972440944882
 31
0.0
 11
1.3830433070866142
 21
2.1578110236220471
 31
0.0
 11
1.3639015748031496
 21
2.1429370078740155
 31
0.0
 11
1.3476181102362206
 21
2.125204724409449
 31
0.0
 11
1.33398031496063
 21
2.1044488188976378
 31
0.0
 11
1.3228110236220472
 21
2.0805275590551182
 31
0.0
 11
1.3139015748031495
 21
2.053279527559055
 31
0.0
 11
1.3070590551181103
 21
2.0225669291338582
 31
0.0
 11
1.3020748031496063
 21
1.988216535433071
 31
0.0
 11
1.2987637795275591
 21
1.9500944881889763
 31
0.0
 11
1.2969251968503936
 21
1.9080354330708662
 31
0.0
  0
LWPOLYLINE
  5
33
100
AcDbEntity
  8
0
 62
     0
100
AcDbPolyline
 90
        2
 70
     0
 39
0.003
 10
1.296925
 20
1.908035
 40
0.003
 41
0.003
 10
1.296358
 20
1.861898
 40
0.003
 41
0.003
  0
LWPOLYLINE
  5
34
100
AcDbEntity
  8
0
 62
     0
100
AcDbPolyline
 90
        2
 70
     0
 39
0.003
 10
1.296358
 20
1.861898
 40
0.003
 41
0.003
 10
-1.254728
 20
1.861898
 40
0.003
 41
0.003
  0
LWPOLYLINE
  5
35
100
AcDbEntity
  8
0
 62
   253
100
AcDbPolyline
 90
        2
 70
     0
 39
0.003
 10
-2.003047
 20
0.321984
 40
0.003
 41
0.003
 10
-1.357496
 20
0.690724
 40
0.003
 41
0.003
  0
LWPOLYLINE
  5
36
100
AcDbEntity
  8
0
 62
   253
100
AcDbPolyline
 90
        2
 70
     0
 39
0.003
 10
-1.357496
 20
0.690724
 40
0.003
 41
0.003
 10
0.685835
 20
0.859461
 40
0.003
 41
0.003
  0
LWPOLYLINE
  5
37
100
AcDbEntity
  8
0
 62
   253
100
AcDbPolyline
 90
        2
 70
     0
 39
0.003
 10
0.685835
 20
0.859461
 40
0.003
 41
0.003
 10
0.040283
 20
0.49072
 40
0.003
 41
0.003
  0
LWPOLYLINE
  5
38
100
AcDbEntity
  8
0
 62
   253
100
AcDbPolyline
 90
        2
 70
     0
 39
0.003
 10
0.040283
 20
0.49072
 40
0.003
 41
0.003
 10
-2.003047
 20
0.321984
 40
0.003
 41
0.003
  0
LWPOLYLINE
  5
39
100
AcDbEntity
  8
0
 62
   253
100
AcDbPolyline
 90
        2
 70
     0
 39
0.003
 10
0.040283
 20
0.49072
 40
0.003
 41
0.003
 10
0.685835
 20
0.859461
 40
0.003
 41
0.003
  0
LWPOLYLINE
  5
3A
100
AcDbEntity
  8
0
 62
   253
100
AcDbPolyline
 90
        2
 70
     0
 39
0.003
 10
0.685835
 20
0.859461
 40
0.003
 41
0.003
 10
2.73126
 20
0.690724
 40
0.003
 41
0.003
  0
LWPOLYLINE
  5
3B
100
AcDbEntity
  8
0
 62
   253
100
AcDbPolyline
 90
        2
 70
     0
 39
0.003
 10
2.73126
 20
0.690724
 40
0.003
 41
0.003
 10
2.085709
 20
0.321984
 40
0.003
 41
0.003
  0
LWPOLYLINE
  5
3C
100
AcDbEntity
  8
0
 62
   253
100
AcDbPolyline
 90
        2
 70
     0
 39
0.003
 10
2.085709
 20
0.321984
 40
0.003
 41
0.003
 10
0.040283
 20
0.49072
 40
0.003
 41
0.003
  0
LWPOLYLINE
  5
3D
100
AcDbEntity
  8
0
 62
   253
100
AcDbPolyline
 90
        2
 70
     0
 39
0.003
 10
1.821618
 20
-0.137508
 40
0.003
 41
0.003
 10
2.467169
 20
0.231232
 40
0.003
 41
0.003
  0
LWPOLYLINE
  5
3E
100
AcDbEntity
  8
0
 62
   253
100
AcDbPolyline
 90
        2
 70
     0
 39
0.003
 10
2.467169
 20
0.231232
 40
0.003
 41
0.003
 10
2.447984
 20
0.218646
 40
0.003
 41
0.003
  0
LWPOLYLINE
  5
3F
100
AcDbEntity
  8
0
 62
   253
100
AcDbPolyline
 90
        2
 70
     0
 39
0.003
 10
2.447984
 20
0.218646
 40
0.003
 41
0.003
 10
2.430528
 20
0.204469
 40
0.003
 41
0.003
  0
LWPOLYLINE
  5
40
100
AcDbEntity
  8
0
 62
   253
100
AcDbPolyline
 90
        2
 70
     0
 39
0.003
 10
2.430528
 20
0.204469
 40
0.003
 41
0.003
 10
2.414732
 20
0.18863
 40
0.003
 41
0.003
  0
LWPOLYLINE
  5
41
100
AcDbEntity
  8
0
 62
   253
100
AcDbPolyline
 90
        2
 70
     0
 39
0.003
 10
2.414732
 20
0.18863
 40
0.003
 41
0.003
 10
2.4005
 20
0.171083
 40
0.003
 41
0.003
  0
LWPOLYLINE
  5
42
100
AcDbEntity
  8
0
 62
   253
100
AcDbPolyline
 90
        2
 70
     0
 39
0.003
 10
2.4005
 20
0.171083
 40
0.003
 41
0.003
 10
2.38776
 20
0.151756
 40
0.003
 41
0.003
  0
LWPOLYLINE
  5
43
100
AcDbEntity
  8
0
 62
   253
100
AcDbPolyline
 90
        2
 70
     0
 39
0.003
 10
2.38776
 20
0.151756
 40
0.003
 41
0.003
 10
2.376425
 20
0.130598
 40
0.003
 41
0.003
  0
LWPOLYLINE
  5
44
100
AcDbEntity
  8
0
 62
   253
100
AcDbPolyline
 90
        2
 70
     0
 39
0.003
 10
2.376425
 20
0.130598
 40
0.003
 41
0.003
 10
2.366425
 20
0.107539
 40
0.003
 41
0.003
  0
LWPOLYLINE
  5
45
100
AcDbEntity
  8
0
 62
   253
100
AcDbPolyline
 90
        2
 70
     0
 39
0.003
 10
2.366425
 20
0.107539
 40
0.003
 41
0.003
 10
2.357657
 20
0.082535
 40
0.003
 41
0.003
  0
LWPOLYLINE
  5
46
100
AcDbEntity
  8
0
 62
   253
100
AcDbPolyline
 90
        2
 70
     0
 39
0.003
 10
2.357657
 20
0.082535
 40
0.003
 41
0.003
 10
2.350059
 20
0.055504
 40
0.003
 41
0.003
  0
LWPOLYLINE
  5
47
100
AcDbEntity
  8
0
 62
   253
100
AcDbPolyline
 90
        2
 70
     0
 39
0.003
 10
2.350059
 20
0.055504
 40
0.003
 41
0.003
 10
2.343539
 20
0.026398
 40
0.003
 41
0.003
  0
LWPOLYLINE
  5
48
100
AcDbEntity
  8
0
 62
   253
100
AcDbPolyline
 90
        2
 70
     0
 39
0.003
 10
2.343539
 20
0.026398
 40
0.003
 41
0.003
 10
2.338028
 20
-0.004854
 40
0.003
 41
0.003
  0
LWPOLYLINE
  5
49
100
AcDbEntity
  8
0
 62
   253
100
AcDbPolyline
 90
        2
 70
     0
 39
0.003
 10
2.338028
 20
-0.004854
 40
0.003
 41
0.003
 10
2.333429
 20
-0.038299
 40
0.003
 41
0.003
  0
LWPOLYLINE
  5
4A
100
AcDbEntity
  8
0
 62
   253
100
AcDbPolyline
 90
        2
 70
     0
 39
0.003
 10
2.333429
 20
-0.038299
 40
0.003
 41
0.003
 10
2.329673
 20
-0.074012
 40
0.003
 41
0.003
  0
LWPOLYLINE
  5
4B
100
AcDbEntity
  8
0
 62
   253
100
AcDbPolyline
 90
        2
 70
     0
 39
0.003
 10
2.329673
 20
-0.074012
 40
0.003
 41
0.003
 10
2.326673
 20
-0.112043
 40
0.003
 41
0.003
  0
LWPOLYLINE
  5
4C
100
AcDbEntity
  8
0
 62
   253
100
AcDbPolyline
 90
        2
 70
     0
 39
0.003
 10
2.326673
 20
-0.112043
 40
0.003
 41
0.003
 10
2.324358
 20
-0.152461
 40
0.003
 41
0.003
  0
LWPOLYLINE
  5
4D
100
AcDbEntity
  8
0
 62
   253
100
AcDbPolyline
 90
        2
 70
     0
 39
0.003
 10
2.324358
 20
-0.152461
 40
0.003
 41
0.003
 10
2.322622
 20
-0.195315
 40
0.003
 41
0.003
  0
LWPOLYLINE
  5
4E
100
AcDbEntity
  8
0
 62
   253
100
AcDbPolyline
 90
        2
 70
     0
 39
0.003
 10
2.322622
 20
-0.195315
 40
0.003
 41
0.003
 10
2.321409
 20
-0.240681
 40
0.003
 41
0.003
  0
LWPOLYLINE
  5
4F
100
AcDbEntity
  8
0
 62
   253
100
AcDbPolyline
 90
        2
 70
     0
 39
0.003
 10
2.321409
 20
-0.240681
 40
0.003
 41
0.003
 10
2.320626
 20
-0.288606
 40
0.003
 41
0.003
  0
LWPOLYLINE
  5
50
100
AcDbEntity
  8
0
 62
   253
100
AcDbPolyline
 90
        2
 70
     0
 39
0.003
 10
2.320626
 20
-0.288606
 40
0.003
 41
0.003
 10
2.320197
 20
-0.339169
 40
0.003
 41
0.003
  0
LWPOLYLINE
  5
51
100
AcDbEntity
  8
0
 62
   253
100
AcDbPolyline
 90
        2
 70
     0
 39
0.003
 10
2.320197
 20
-0.339169
 40
0.003
 41
0.003
 10
2.320031
 20
-0.392409
 40
0.003
 41
0.003
  0
LWPOLYLINE
  5
52
100
AcDbEntity
  8
0
 62
   253
100
AcDbPolyline
 90
        2
 70
     0
 39
0.003
 10
2.320031
 20
-0.392409
 40
0.003
 41
0.003
 10
2.320063
 20
-0.448402
 40
0.003
 41
0.003
  0
LWPOLYLINE
  5
53
100
AcDbEntity
  8
0
 62
   253
100
AcDbPolyline
 90
        2
 70
     0
 39
0.003
 10
2.320063
 20
-0.448402
 40
0.003
 41
0.003
 10
2.320193
 20
-0.507201
 40
0.003
 41
0.003
  0
LWPOLYLINE
  5
54
100
AcDbEntity
  8
0
 62
   253
100
AcDbPolyline
 90
        2
 70
     0
 39
0.003
 10
2.320193
 20
-0.507201
 40
0.003
 41
0.003
 10
2.320358
 20
-0.568878
 40
0.003
 41
0.003
  0
LWPOLYLINE
  5
55
100
AcDbEntity
  8
0
 62
   253
100
AcDbPolyline
 90
        2
 70
     0
 39
0.003
 10
2.320358
 20
-0.568878
 40
0.003
 41
0.003
 10
1.674807
 20
-0.937618
 40
0.003
 41
0.003
  0
LWPOLYLINE
  5
56
100
AcDbEntity
  8
0
 62
   253
100
AcDbPolyline
 90
        2
 70
     0
 39
0.003
 10
1.674807
 20
-0.937618
 40
0.003
 41
0.003
 10
1.674642
 20
-0.875941
 40
0.003
 41
0.003
  0
LWPOLYLINE
  5
57
100
AcDbEntity
  8
0
 62
   253
100
AcDbPolyline
 90
        2
 70
     0
 39
0.003
 10
1.674642
 20
-0.875941
 40
0.003
 41
0.003
 10
1.674512
 20
-0.817142
 40
0.003
 41
0.003
  0
LWPOLYLINE
  5
58
100
AcDbEntity
  8
0
 62
   253
100
AcDbPolyline
 90
        2
 70
     0
 39
0.003
 10
1.674512
 20
-0.817142
 40
0.003
 41
0.003
 10
1.67448
 20
-0.76115
 40
0.003
 41
0.003
  0
LWPOLYLINE
  5
59
100
AcDbEntity
  8
0
 62
   253
100
AcDbPolyline
 90
        2
 70
     0
 39
0.003
 10
1.67448
 20
-0.76115
 40
0.003
 41
0.003
 10
1.674646
 20
-0.707909
 40
0.003
 41
0.003
  0
LWPOLYLINE
  5
5A
100
AcDbEntity
  8
0
 62
   253
100
AcDbPolyline
 90
        2
 70
     0
 39
0.003
 10
1.674646
 20
-0.707909
 40
0.003
 41
0.003
 10
1.675075
 20
-0.657346
 40
0.003
 41
0.003
  0
LWPOLYLINE
  5
5B
100
AcDbEntity
  8
0
 62
   253
100
AcDbPolyline
 90
        2
 70
     0
 39
0.003
 10
1.675075
 20
-0.657346
 40
0.003
 41
0.003
 10
1.675858
 20
-0.609421
 40
0.003
 41
0.003
  0
LWPOLYLINE
  5
5C
100
AcDbEntity
  8
0
 62
   253
100
AcDbPolyline
 90
        2
 70
     0
 39
0.003
 10
1.675858
 20
-0.609421
 40
0.003
 41
0.003
 10
1.677071
 20
-0.564055
 40
0.003
 41
0.003
  0
LWPOLYLINE
  5
5D
100
AcDbEntity
  8
0
 62
   253
100
AcDbPolyline
 90
        2
 70
     0
 39
0.003
 10
1.677071
 20
-0.564055
 40
0.003
 41
0.003
 10
1.678807
 20
-0.521201
 40
0.003
 41
0.003
  0
LWPOLYLINE
  5
5E
100
AcDbEntity
  8
0
 62
   253
100
AcDbPolyline
 90
        2
 70
     0
 39
0.003
 10
1.678807
 20
-0.521201
 40
0.003
 41
0.003
 10
1.681122
 20
-0.480783
 40
0.003
 41
0.003
  0
LWPOLYLINE
  5
5F
100
AcDbEntity
  8
0
 62
   253
100
AcDbPolyline
 90
        2
 70
     0
 39
0.003
 10
1.681122
 20
-0.480783
 40
0.003
 41
0.003
 10
1.684122
 20
-0.442752
 40
0.003
 41
0.003
  0
LWPOLYLINE
  5
60
100
AcDbEntity
  8
0
 62
   253
100
AcDbPolyline
 90
        2
 70
     0
 39
0.003
 10
1.684122
 20
-0.442752
 40
0.003
 41
0.003
 10
1.687878
 20
-0.407039
 40
0.003
 41
0.003
  0
LWPOLYLINE
  5
61
100
AcDbEntity
  8
0
 62
   253
100
AcDbPolyline
 90
        2
 70
     0
 39
0.003
 10
1.687878
 20
-0.407039
 40
0.003
 41
0.003
 10
1.692476
 20
-0.373594
 40
0.003
 41
0.003
  0
LWPOLYLINE
  5
62
100
AcDbEntity
  8
0
 62
   253
100
AcDbPolyline
 90
        2
 70
     0
 39
0.003
 10
1.692476
 20
-0.373594
 40
0.003
 41
0.003
 10
1.697988
 20
-0.342343
 40
0.003
 41
0.003
  0
LWPOLYLINE
  5
63
100
AcDbEntity
  8
0
 62
   253
100
AcDbPolyline
 90
        2
 70
     0
 39
0.003
 10
1.697988
 20
-0.342343
 40
0.003
 41
0.003
 10
1.704508
 20
-0.313236
 40
0.003
 41
0.003
  0
LWPOLYLINE
  5
64
100
AcDbEntity
  8
0
 62
   253
100
AcDbPolyline
 90
        2
 70
     0
 39
0.003
 10
1.704508
 20
-0.313236
 40
0.003
 41
0.003
 10
1.712106
 20
-0.286205
 40
0.003
 41
0.003
  0
LWPOLYLINE
  5
65
100
AcDbEntity
  8
0
 62
   253
100
AcDbPolyline
 90
        2
 70
     0
 39
0.003
 10
1.712106
 20
-0.286205
 40
0.003
 41
0.003
 10
1.720874
 20
-0.261201
 40
0.003
 41
0.003
  0
LWPOLYLINE
  5
66
100
AcDbEntity
  8
0
 62
   253
100
AcDbPolyline
 90
        2
 70
     0
 39
0.003
 10
1.720874
 20
-0.261201
 40
0.003
 41
0.003
 10
1.730874
 20
-0.238142
 40
0.003
 41
0.003
  0
LWPOLYLINE
  5
67
100
AcDbEntity
  8
0
 62
   253
100
AcDbPolyline
 90
        2
 70
     0
 39
0.003
 10
1.730874
 20
-0.238142
 40
0.003
 41
0.003
 10
1.742209
 20
-0.216984
 40
0.003
 41
0.003
  0
LWPOLYLINE
  5
68
100
AcDbEntity
  8
0
 62
   253
100
AcDbPolyline
 90
        2
 70
     0
 39
0.003
 10
1.742209
 20
-0.216984
 40
0.003
 41
0.003
 10
1.754949
 20
-0.197657
 40
0.003
 41
0.003
  0
LWPOLYLINE
  5
69
100
AcDbEntity
  8
0
 62
   253
100
AcDbPolyline
 90
        2
 70
     0
 39
0.003
 10
1.754949
 20
-0.197657
 40
0.003
 41
0.003
 10
1.769181
 20
-0.18011
 40
0.003
 41
0.003
  0
LWPOLYLINE
  5
6A
100
AcDbEntity
  8
0
 62
   253
100
AcDbPolyline
 90
        2
 70
     0
 39
0.003
 10
1.769181
 20
-0.18011
 40
0.003
 41
0.003
 10
1.784976
 20
-0.164272
 40
0.003
 41
0.003
  0
LWPOLYLINE
  5
6B
100
AcDbEntity
  8
0
 62
   253
100
AcDbPolyline
 90
        2
 70
     0
 39
0.003
 10
1.784976
 20
-0.164272
 40
0.003
 41
0.003
 10
1.802433
 20
-0.150094
 40
0.003
 41
0.003
  0
LWPOLYLINE
  5
6C
100
AcDbEntity
  8
0
 62
   253
100
AcDbPolyline
 90
        2
 70
     0
 39
0.003
 10
1.802433
 20
-0.150094
 40
0.003
 41
0.003
 10
1.821618
 20
-0.137508
 40
0.003
 41
0.003
  0
LWPOLYLINE
  5
6D
100
AcDbEntity
  8
0
 62
   253
100
AcDbPolyline
 90
        2
 70
     0
 39
0.003
 10
2.085709
 20
0.321984
 40
0.003
 41
0.003
 10
2.73126
 20
0.690724
 40
0.003
 41
0.003
  0
LWPOLYLINE
  5
6E
100
AcDbEntity
  8
0
 62
   253
100
AcDbPolyline
 90
        2
 70
     0
 39
0.003
 10
2.73126
 20
0.690724
 40
0.003
 41
0.003
 10
2.73126
 20
0.282917
 40
0.003
 41
0.003
  0
LWPOLYLINE
  5
6F
100
AcDbEntity
  8
0
 62
   253
100
AcDbPolyline
 90
        2
 70
     0
 39
0.003
 10
2.73126
 20
0.282917
 40
0.003
 41
0.003
 10
2.085709
 20
-0.085823
 40
0.003
 41
0.003
  0
LWPOLYLINE
  5
70
100
AcDbEntity
  8
0
 62
   253
100
AcDbPolyline
 90
        2
 70
     0
 39
0.003
 10
2.085709
 20
-0.085823
 40
0.003
 41
0.003
 10
2.085709
 20
0.321984
 40
0.003
 41
0.003
  0
LWPOLYLINE
  5
71
100
AcDbEntity
  8
0
 62
   253
100
AcDbPolyline
 90
        2
 70
     0
 39
0.003
 10
1.674807
 20
-0.937618
 40
0.003
 41
0.003
 10
2.320358
 20
-0.568878
 40
0.003
 41
0.003
  0
LWPOLYLINE
  5
72
100
AcDbEntity
  8
0
 62
   253
100
AcDbPolyline
 90
        2
 70
     0
 39
0.003
 10
2.320358
 20
-0.568878
 40
0.003
 41
0.003
 10
2.23498
 20
-0.705913
 40
0.003
 41
0.003
  0
LWPOLYLINE
  5
73
100
AcDbEntity
  8
0
 62
   253
100
AcDbPolyline
 90
        2
 70
     0
 39
0.003
 10
2.23498
 20
-0.705913
 40
0.003
 41
0.003
 10
1.589429
 20
-1.074654
 40
0.003
 41
0.003
  0
LWPOLYLINE
  5
74
100
AcDbEntity
  8
0
 62
   253
100
AcDbPolyline
 90
        2
 70
     0
 39
0.003
 10
1.589429
 20
-1.074654
 40
0.003
 41
0.003
 10
1.674807
 20
-0.937618
 40
0.003
 41
0.003
  0
LWPOLYLINE
  5
75
100
AcDbEntity
  8
0
 62
   253
100
AcDbPolyline
 90
        2
 70
     0
 39
0.003
 10
1.403559
 20
-1.430823
 40
0.003
 41
0.003
 10
2.04911
 20
-1.062083
 40
0.003
 41
0.003
  0
LWPOLYLINE
  5
76
100
AcDbEntity
  8
0
 62
   253
100
AcDbPolyline
 90
        2
 70
     0
 39
0.003
 10
2.04911
 20
-1.062083
 40
0.003
 41
0.003
 10
2.039169
 20
-1.069165
 40
0.003
 41
0.003
  0
LWPOLYLINE
  5
77
100
AcDbEntity
  8
0
 62
   253
100
AcDbPolyline
 90
        2
 70
     0
 39
0.003
 10
2.039169
 20
-1.069165
 40
0.003
 41
0.003
 10
2.029969
 20
-1.076953
 40
0.003
 41
0.003
  0
LWPOLYLINE
  5
78
100
AcDbEntity
  8
0
 62
   253
100
AcDbPolyline
 90
        2
 70
     0
 39
0.003
 10
2.029969
 20
-1.076953
 40
0.003
 41
0.003
 10
2.02148
 20
-1.085457
 40
0.003
 41
0.003
  0
LWPOLYLINE
  5
79
100
AcDbEntity
  8
0
 62
   253
100
AcDbPolyline
 90
        2
 70
     0
 39
0.003
 10
2.02148
 20
-1.085457
 40
0.003
 41
0.003
 10
2.013685
 20
-1.094697
 40
0.003
 41
0.003
  0
LWPOLYLINE
  5
7A
100
AcDbEntity
  8
0
 62
   253
100
AcDbPolyline
 90
        2
 70
     0
 39
0.003
 10
2.013685
 20
-1.094697
 40
0.003
 41
0.003
 10
2.006547
 20
-1.104681
 40
0.003
 41
0.003
  0
LWPOLYLINE
  5
7B
100
AcDbEntity
  8
0
 62
   253
100
AcDbPolyline
 90
        2
 70
     0
 39
0.003
 10
2.006547
 20
-1.104681
 40
0.003
 41
0.003
 10
2.000047
 20
-1.115445
 40
0.003
 41
0.003
  0
LWPOLYLINE
  5
7C
100
AcDbEntity
  8
0
 62
   253
100
AcDbPolyline
 90
        2
 70
     0
 39
0.003
 10
2.000047
 20
-1.115445
 40
0.003
 41
0.003
 10
1.994161
 20
-1.126996
 40
0.003
 41
0.003
  0
LWPOLYLINE
  5
7D
100
AcDbEntity
  8
0
 62
   253
100
AcDbPolyline
 90
        2
 70
     0
 39
0.003
 10
1.994161
 20
-1.126996
 40
0.003
 41
0.003
 10
1.988878
 20
-1.139366
 40
0.003
 41
0.003
  0
LWPOLYLINE
  5
7E
100
AcDbEntity
  8
0
 62
   253
100
AcDbPolyline
 90
        2
 70
     0
 39
0.003
 10
1.988878
 20
-1.139366
 40
0.003
 41
0.003
 10
1.98415
 20
-1.152559
 40
0.003
 41
0.003
  0
LWPOLYLINE
  5
7F
100
AcDbEntity
  8
0
 62
   253
100
AcDbPolyline
 90
        2
 70
     0
 39
0.003
 10
1.98415
 20
-1.152559
 40
0.003
 41
0.003
 10
1.979969
 20
-1.166606
 40
0.003
 41
0.003
  0
LWPOLYLINE
  5
80
100
AcDbEntity
  8
0
 62
   253
100
AcDbPolyline
 90
        2
 70
     0
 39
0.003
 10
1.979969
 20
-1.166606
 40
0.003
 41
0.003
 10
1.976299
 20
-1.18152
 40
0.003
 41
0.003
  0
LWPOLYLINE
  5
81
100
AcDbEntity
  8
0
 62
   253
100
AcDbPolyline
 90
        2
 70
     0
 39
0.003
 10
1.976299
 20
-1.18152
 40
0.003
 41
0.003
 10
1.973126
 20
-1.197331
 40
0.003
 41
0.003
  0
LWPOLYLINE
  5
82
100
AcDbEntity
  8
0
 62
   253
100
AcDbPolyline
 90
        2
 70
     0
 39
0.003
 10
1.973126
 20
-1.197331
 40
0.003
 41
0.003
 10
1.970409
 20
-1.214035
 40
0.003
 41
0.003
  0
LWPOLYLINE
  5
83
100
AcDbEntity
  8
0
 62
   253
100
AcDbPolyline
 90
        2
 70
     0
 39
0.003
 10
1.970409
 20
-1.214035
 40
0.003
 41
0.003
 10
1.968142
 20
-1.231673
 40
0.003
 41
0.003
  0
LWPOLYLINE
  5
84
100
AcDbEntity
  8
0
 62
   253
100
AcDbPolyline
 90
        2
 70
     0
 39
0.003
 10
1.968142
 20
-1.231673
 40
0.003
 41
0.003
 10
1.966287
 20
-1.250252
 40
0.003
 41
0.003
  0
LWPOLYLINE
  5
85
100
AcDbEntity
  8
0
 62
   253
100
AcDbPolyline
 90
        2
 70
     0
 39
0.003
 10
1.966287
 20
-1.250252
 40
0.003
 41
0.003
 10
1.964831
 20
-1.269799
 40
0.003
 41
0.003
  0
LWPOLYLINE
  5
86
100
AcDbEntity
  8
0
 62
   253
100
AcDbPolyline
 90
        2
 70
     0
 39
0.003
 10
1.964831
 20
-1.269799
 40
0.003
 41
0.003
 10
1.963736
 20
-1.290323
 40
0.003
 41
0.003
  0
LWPOLYLINE
  5
87
100
AcDbEntity
  8
0
 62
   253
100
AcDbPolyline
 90
        2
 70
     0
 39
0.003
 10
1.963736
 20
-1.290323
 40
0.003
 41
0.003
 10
1.962992
 20
-1.311858
 40
0.003
 41
0.003
  0
LWPOLYLINE
  5
88
100
AcDbEntity
  8
0
 62
   253
100
AcDbPolyline
 90
        2
 70
     0
 39
0.003
 10
1.962992
 20
-1.311858
 40
0.003
 41
0.003
 10
1.962559
 20
-1.334409
 40
0.003
 41
0.003
  0
LWPOLYLINE
  5
89
100
AcDbEntity
  8
0
 62
   253
100
AcDbPolyline
 90
        2
 70
     0
 39
0.003
 10
1.962559
 20
-1.334409
 40
0.003
 41
0.003
 10
1.962425
 20
-1.358008
 40
0.003
 41
0.003
  0
LWPOLYLINE
  5
8A
100
AcDbEntity
  8
0
 62
   253
100
AcDbPolyline
 90
        2
 70
     0
 39
0.003
 10
1.962425
 20
-1.358008
 40
0.003
 41
0.003
 10
1.316874
 20
-1.726748
 40
0.003
 41
0.003
  0
LWPOLYLINE
  5
8B
100
AcDbEntity
  8
0
 62
   253
100
AcDbPolyline
 90
        2
 70
     0
 39
0.003
 10
1.316874
 20
-1.726748
 40
0.003
 41
0.003
 10
1.317008
 20
-1.70315
 40
0.003
 41
0.003
  0
LWPOLYLINE
  5
8C
100
AcDbEntity
  8
0
 62
   253
100
AcDbPolyline
 90
        2
 70
     0
 39
0.003
 10
1.317008
 20
-1.70315
 40
0.003
 41
0.003
 10
1.317441
 20
-1.680598
 40
0.003
 41
0.003
  0
LWPOLYLINE
  5
8D
100
AcDbEntity
  8
0
 62
   253
100
AcDbPolyline
 90
        2
 70
     0
 39
0.003
 10
1.317441
 20
-1.680598
 40
0.003
 41
0.003
 10
1.318185
 20
-1.659063
 40
0.003
 41
0.003
  0
LWPOLYLINE
  5
8E
100
AcDbEntity
  8
0
 62
   253
100
AcDbPolyline
 90
        2
 70
     0
 39
0.003
 10
1.318185
 20
-1.659063
 40
0.003
 41
0.003
 10
1.31928
 20
-1.638539
 40
0.003
 41
0.003
  0
LWPOLYLINE
  5
8F
100
AcDbEntity
  8
0
 62
   253
100
AcDbPolyline
 90
        2
 70
     0
 39
0.003
 10
1.31928
 20
-1.638539
 40
0.003
 41
0.003
 10
1.320736
 20
-1.618992
 40
0.003
 41
0.003
  0
LWPOLYLINE
  5
90
100
AcDbEntity
  8
0
 62
   253
100
AcDbPolyline
 90
        2
 70
     0
 39
0.003
 10
1.320736
 20
-1.618992
 40
0.003
 41
0.003
 10
1.322591
 20
-1.600413
 40
0.003
 41
0.003
  0
LWPOLYLINE
  5
91
100
AcDbEntity
  8
0
 62
   253
100
AcDbPolyline
 90
        2
 70
     0
 39
0.003
 10
1.322591
 20
-1.600413
 40
0.003
 41
0.003
 10
1.324858
 20
-1.582776
 40
0.003
 41
0.003
  0
LWPOLYLINE
  5
92
100
AcDbEntity
  8
0
 62
   253
100
AcDbPolyline
 90
        2
 70
     0
 39
0.003
 10
1.324858
 20
-1.582776
 40
0.003
 41
0.003
 10
1.327575
 20
-1.566071
 40
0.003
 41
0.003
  0
LWPOLYLINE
  5
93
100
AcDbEntity
  8
0
 62
   253
100
AcDbPolyline
 90
        2
 70
     0
 39
0.003
 10
1.327575
 20
-1.566071
 40
0.003
 41
0.003
 10
1.330748
 20
-1.55026
 40
0.003
 41
0.003
  0
LWPOLYLINE
  5
94
100
AcDbEntity
  8
0
 62
   253
100
AcDbPolyline
 90
        2
 70
     0
 39
0.003
 10
1.330748
 20
-1.55026
 40
0.003
 41
0.003
 10
1.334417
 20
-1.535346
 40
0.003
 41
0.003
  0
LWPOLYLINE
  5
95
100
AcDbEntity
  8
0
 62
   253
100
AcDbPolyline
 90
        2
 70
     0
 39
0.003
 10
1.334417
 20
-1.535346
 40
0.003
 41
0.003
 10
1.338598
 20
-1.521299
 40
0.003
 41
0.003
  0
LWPOLYLINE
  5
96
100
AcDbEntity
  8
0
 62
   253
100
AcDbPolyline
 90
        2
 70
     0
 39
0.003
 10
1.338598
 20
-1.521299
 40
0.003
 41
0.003
 10
1.343327
 20
-1.508106
 40
0.003
 41
0.003
  0
LWPOLYLINE
  5
97
100
AcDbEntity
  8
0
 62
   253
100
AcDbPolyline
 90
        2
 70
     0
 39
0.003
 10
1.343327
 20
-1.508106
 40
0.003
 41
0.003
 10
1.34861
 20
-1.495736
 40
0.003
 41
0.003
  0
LWPOLYLINE
  5
98
100
AcDbEntity
  8
0
 62
   253
100
AcDbPolyline
 90
        2
 70
     0
 39
0.003
 10
1.34861
 20
-1.495736
 40
0.003
 41
0.003
 10
1.354496
 20
-1.484185
 40
0.003
 41
0.003
  0
LWPOLYLINE
  5
99
100
AcDbEntity
  8
0
 62
   253
100
AcDbPolyline
 90
        2
 70
     0
 39
0.003
 10
1.354496
 20
-1.484185
 40
0.003
 41
0.003
 10
1.360996
 20
-1.473421
 40
0.003
 41
0.003
  0
LWPOLYLINE
  5
9A
100
AcDbEntity
  8
0
 62
   253
100
AcDbPolyline
 90
        2
 70
     0
 39
0.003
 10
1.360996
 20
-1.473421
 40
0.003
 41
0.003
 10
1.368134
 20
-1.463437
 40
0.003
 41
0.003
  0
LWPOLYLINE
  5
9B
100
AcDbEntity
  8
0
 62
   253
100
AcDbPolyline
 90
        2
 70
     0
 39
0.003
 10
1.368134
 20
-1.463437
 40
0.003
 41
0.003
 10
1.375929
 20
-1.454197
 40
0.003
 41
0.003
  0
LWPOLYLINE
  5
9C
100
AcDbEntity
  8
0
 62
   253
100
AcDbPolyline
 90
        2
 70
     0
 39
0.003
 10
1.375929
 20
-1.454197
 40
0.003
 41
0.003
 10
1.384417
 20
-1.445693
 40
0.003
 41
0.003
  0
LWPOLYLINE
  5
9D
100
AcDbEntity
  8
0
 62
   253
100
AcDbPolyline
 90
        2
 70
     0
 39
0.003
 10
1.384417
 20
-1.445693
 40
0.003
 41
0.003
 10
1.393618
 20
-1.437906
 40
0.003
 41
0.003
  0
LWPOLYLINE
  5
9E
100
AcDbEntity
  8
0
 62
   253
100
AcDbPolyline
 90
        2
 70
     0
 39
0.003
 10
1.393618
 20
-1.437906
 40
0.003
 41
0.003
 10
1.403559
 20
-1.430823
 40
0.003
 41
0.003
  0
LWPOLYLINE
  5
9F
100
AcDbEntity
  8
0
 62
   253
100
AcDbPolyline
 90
        2
 70
     0
 39
0.003
 10
1.589429
 20
-1.074654
 40
0.003
 41
0.003
 10
2.23498
 20
-0.705913
 40
0.003
 41
0.003
  0
LWPOLYLINE
  5
A0
100
AcDbEntity
  8
0
 62
   253
100
AcDbPolyline
 90
        2
 70
     0
 39
0.003
 10
2.23498
 20
-0.705913
 40
0.003
 41
0.003
 10
2.23498
 20
-1.024409
 40
0.003
 41
0.003
  0
LWPOLYLINE
  5
A1
100
AcDbEntity
  8
0
 62
   253
100
AcDbPolyline
 90
        2
 70
     0
 39
0.003
 10
2.23498
 20
-1.024409
 40
0.003
 41
0.003
 10
1.589429
 20
-1.39315
 40
0.003
 41
0.003
  0
LWPOLYLINE
  5
A2
100
AcDbEntity
  8
0
 62
   253
100
AcDbPolyline
 90
        2
 70
     0
 39
0.003
 10
1.589429
 20
-1.39315
 40
0.003
 41
0.003
 10
1.589429
 20
-1.074654
 40
0.003
 41
0.003
  0
LWPOLYLINE
  5
A3
100
AcDbEntity
  8
0
 62
   253
100
AcDbPolyline
 90
        2
 70
     0
 39
0.003
 10
-2.003047
 20
0.321984
 40
0.003
 41
0.003
 10
-1.357496
 20
0.690724
 40
0.003
 41
0.003
  0
LWPOLYLINE
  5
A4
100
AcDbEntity
  8
0
 62
   253
100
AcDbPolyline
 90
        2
 70
     0
 39
0.003
 10
-1.357496
 20
0.690724
 40
0.003
 41
0.003
 10
0.685835
 20
0.859461
 40
0.003
 41
0.003
  0
LWPOLYLINE
  5
A5
100
AcDbEntity
  8
0
 62
   253
100
AcDbPolyline
 90
        2
 70
     0
 39
0.003
 10
0.685835
 20
0.859461
 40
0.003
 41
0.003
 10
0.040283
 20
0.49072
 40
0.003
 41
0.003
  0
LWPOLYLINE
  5
A6
100
AcDbEntity
  8
0
 62
   253
100
AcDbPolyline
 90
        2
 70
     0
 39
0.003
 10
0.040283
 20
0.49072
 40
0.003
 41
0.003
 10
-2.003047
 20
0.321984
 40
0.003
 41
0.003
  0
LWPOLYLINE
  5
A7
100
AcDbEntity
  8
0
 62
   253
100
AcDbPolyline
 90
        2
 70
     0
 39
0.003
 10
0.040283
 20
0.49072
 40
0.003
 41
0.003
 10
0.685835
 20
0.859461
 40
0.003
 41
0.003
  0
LWPOLYLINE
  5
A8
100
AcDbEntity
  8
0
 62
   253
100
AcDbPolyline
 90
        2
 70
     0
 39
0.003
 10
0.685835
 20
0.859461
 40
0.003
 41
0.003
 10
2.73126
 20
0.690724
 40
0.003
 41
0.003
  0
LWPOLYLINE
  5
A9
100
AcDbEntity
  8
0
 62
   253
100
AcDbPolyline
 90
        2
 70
     0
 39
0.003
 10
2.73126
 20
0.690724
 40
0.003
 41
0.003
 10
2.085709
 20
0.321984
 40
0.003
 41
0.003
  0
LWPOLYLINE
  5
AA
100
AcDbEntity
  8
0
 62
   253
100
AcDbPolyline
 90
        2
 70
     0
 39
0.003
 10
2.085709
 20
0.321984
 40
0.003
 41
0.003
 10
0.040283
 20
0.49072
 40
0.003
 41
0.003
  0
LWPOLYLINE
  5
AB
100
AcDbEntity
  8
0
 62
   253
100
AcDbPolyline
 90
        2
 70
     0
 39
0.003
 10
1.821618
 20
-0.137508
 40
0.003
 41
0.003
 10
2.467169
 20
0.231232
 40
0.003
 41
0.003
  0
LWPOLYLINE
  5
AC
100
AcDbEntity
  8
0
 62
   253
100
AcDbPolyline
 90
        2
 70
     0
 39
0.003
 10
2.467169
 20
0.231232
 40
0.003
 41
0.003
 10
2.447984
 20
0.218646
 40
0.003
 41
0.003
  0
LWPOLYLINE
  5
AD
100
AcDbEntity
  8
0
 62
   253
100
AcDbPolyline
 90
        2
 70
     0
 39
0.003
 10
2.447984
 20
0.218646
 40
0.003
 41
0.003
 10
2.430528
 20
0.204469
 40
0.003
 41
0.003
  0
LWPOLYLINE
  5
AE
100
AcDbEntity
  8
0
 62
   253
100
AcDbPolyline
 90
        2
 70
     0
 39
0.003
 10
2.430528
 20
0.204469
 40
0.003
 41
0.003
 10
2.414732
 20
0.18863
 40
0.003
 41
0.003
  0
LWPOLYLINE
  5
AF
100
AcDbEntity
  8
0
 62
   253
100
AcDbPolyline
 90
        2
 70
     0
 39
0.003
 10
2.414732
 20
0.18863
 40
0.003
 41
0.003
 10
2.4005
 20
0.171083
 40
0.003
 41
0.003
  0
LWPOLYLINE
  5
B0
100
AcDbEntity
  8
0
 62
   253
100
AcDbPolyline
 90
        2
 70
     0
 39
0.003
 10
2.4005
 20
0.171083
 40
0.003
 41
0.003
 10
2.38776
 20
0.151756
 40
0.003
 41
0.003
  0
LWPOLYLINE
  5
B1
100
AcDbEntity
  8
0
 62
   253
100
AcDbPolyline
 90
        2
 70
     0
 39
0.003
 10
2.38776
 20
0.151756
 40
0.003
 41
0.003
 10
2.376425
 20
0.130598
 40
0.003
 41
0.003
  0
LWPOLYLINE
  5
B2
100
AcDbEntity
  8
0
 62
   253
100
AcDbPolyline
 90
        2
 70
     0
 39
0.003
 10
2.376425
 20
0.130598
 40
0.003
 41
0.003
 10
2.366425
 20
0.107539
 40
0.003
 41
0.003
  0
LWPOLYLINE
  5
B3
100
AcDbEntity
  8
0
 62
   253
100
AcDbPolyline
 90
        2
 70
     0
 39
0.003
 10
2.366425
 20
0.107539
 40
0.003
 41
0.003
 10
2.357657
 20
0.082535
 40
0.003
 41
0.003
  0
LWPOLYLINE
  5
B4
100
AcDbEntity
  8
0
 62
   253
100
AcDbPolyline
 90
        2
 70
     0
 39
0.003
 10
2.357657
 20
0.082535
 40
0.003
 41
0.003
 10
2.350059
 20
0.055504
 40
0.003
 41
0.003
  0
LWPOLYLINE
  5
B5
100
AcDbEntity
  8
0
 62
   253
100
AcDbPolyline
 90
        2
 70
     0
 39
0.003
 10
2.350059
 20
0.055504
 40
0.003
 41
0.003
 10
2.343539
 20
0.026398
 40
0.003
 41
0.003
  0
LWPOLYLINE
  5
B6
100
AcDbEntity
  8
0
 62
   253
100
AcDbPolyline
 90
        2
 70
     0
 39
0.003
 10
2.343539
 20
0.026398
 40
0.003
 41
0.003
 10
2.338028
 20
-0.004854
 40
0.003
 41
0.003
  0
LWPOLYLINE
  5
B7
100
AcDbEntity
  8
0
 62
   253
100
AcDbPolyline
 90
        2
 70
     0
 39
0.003
 10
2.338028
 20
-0.004854
 40
0.003
 41
0.003
 10
2.333429
 20
-0.038299
 40
0.003
 41
0.003
  0
LWPOLYLINE
  5
B8
100
AcDbEntity
  8
0
 62
   253
100
AcDbPolyline
 90
        2
 70
     0
 39
0.003
 10
2.333429
 20
-0.038299
 40
0.003
 41
0.003
 10
2.329673
 20
-0.074012
 40
0.003
 41
0.003
  0
LWPOLYLINE
  5
B9
100
AcDbEntity
  8
0
 62
   253
100
AcDbPolyline
 90
        2
 70
     0
 39
0.003
 10
2.329673
 20
-0.074012
 40
0.003
 41
0.003
 10
2.326673
 20
-0.112043
 40
0.003
 41
0.003
  0
LWPOLYLINE
  5
BA
100
AcDbEntity
  8
0
 62
   253
100
AcDbPolyline
 90
        2
 70
     0
 39
0.003
 10
2.326673
 20
-0.112043
 40
0.003
 41
0.003
 10
2.324358
 20
-0.152461
 40
0.003
 41
0.003
  0
LWPOLYLINE
  5
BB
100
AcDbEntity
  8
0
 62
   253
100
AcDbPolyline
 90
        2
 70
     0
 39
0.003
 10
2.324358
 20
-0.152461
 40
0.003
 41
0.003
 10
2.322622
 20
-0.195315
 40
0.003
 41
0.003
  0
LWPOLYLINE
  5
BC
100
AcDbEntity
  8
0
 62
   253
100
AcDbPolyline
 90
        2
 70
     0
 39
0.003
 10
2.322622
 20
-0.195315
 40
0.003
 41
0.003
 10
2.321409
 20
-0.240681
 40
0.003
 41
0.003
  0
LWPOLYLINE
  5
BD
100
AcDbEntity
  8
0
 62
   253
100
AcDbPolyline
 90
        2
 70
     0
 39
0.003
 10
2.321409
 20
-0.240681
 40
0.003
 41
0.003
 10
2.320626
 20
-0.288606
 40
0.003
 41
0.003
  0
LWPOLYLINE
  5
BE
100
AcDbEntity
  8
0
 62
   253
100
AcDbPolyline
 90
        2
 70
     0
 39
0.003
 10
2.320626
 20
-0.288606
 40
0.003
 41
0.003
 10
2.320197
 20
-0.339169
 40
0.003
 41
0.003
  0
LWPOLYLINE
  5
BF
100
AcDbEntity
  8
0
 62
   253
100
AcDbPolyline
 90
        2
 70
     0
 39
0.003
 10
2.320197
 20
-0.339169
 40
0.003
 41
0.003
 10
2.320031
 20
-0.392409
 40
0.003
 41
0.003
  0
LWPOLYLINE
  5
C0
100
AcDbEntity
  8
0
 62
   253
100
AcDbPolyline
 90
        2
 70
     0
 39
0.003
 10
2.320031
 20
-0.392409
 40
0.003
 41
0.003
 10
2.320063
 20
-0.448402
 40
0.003
 41
0.003
  0
LWPOLYLINE
  5
C1
100
AcDbEntity
  8
0
 62
   253
100
AcDbPolyline
 90
        2
 70
     0
 39
0.003
 10
2.320063
 20
-0.448402
 40
0.003
 41
0.003
 10
2.320193
 20
-0.507201
 40
0.003
 41
0.003
  0
LWPOLYLINE
  5
C2
100
AcDbEntity
  8
0
 62
   253
100
AcDbPolyline
 90
        2
 70
     0
 39
0.003
 10
2.320193
 20
-0.507201
 40
0.003
 41
0.003
 10
2.320358
 20
-0.568878
 40
0.003
 41
0.003
  0
LWPOLYLINE
  5
C3
100
AcDbEntity
  8
0
 62
   253
100
AcDbPolyline
 90
        2
 70
     0
 39
0.003
 10
2.320358
 20
-0.568878
 40
0.003
 41
0.003
 10
1.674807
 20
-0.937618
 40
0.003
 41
0.003
  0
LWPOLYLINE
  5
C4
100
AcDbEntity
  8
0
 62
   253
100
AcDbPolyline
 90
        2
 70
     0
 39
0.003
 10
1.674807
 20
-0.937618
 40
0.003
 41
0.003
 10
1.674642
 20
-0.875941
 40
0.003
 41
0.003
  0
LWPOLYLINE
  5
C5
100
AcDbEntity
  8
0
 62
   253
100
AcDbPolyline
 90
        2
 70
     0
 39
0.003
 10
1.674642
 20
-0.875941
 40
0.003
 41
0.003
 10
1.674512
 20
-0.817142
 40
0.003
 41
0.003
  0
LWPOLYLINE
  5
C6
100
AcDbEntity
  8
0
 62
   253
100
AcDbPolyline
 90
        2
 70
     0
 39
0.003
 10
1.674512
 20
-0.817142
 40
0.003
 41
0.003
 10
1.67448
 20
-0.76115
 40
0.003
 41
0.003
  0
LWPOLYLINE
  5
C7
100
AcDbEntity
  8
0
 62
   253
100
AcDbPolyline
 90
        2
 70
     0
 39
0.003
 10
1.67448
 20
-0.76115
 40
0.003
 41
0.003
 10
1.674646
 20
-0.707909
 40
0.003
 41
0.003
  0
LWPOLYLINE
  5
C8
100
AcDbEntity
  8
0
 62
   253
100
AcDbPolyline
 90
        2
 70
     0
 39
0.003
 10
1.674646
 20
-0.707909
 40
0.003
 41
0.003
 10
1.675075
 20
-0.657346
 40
0.003
 41
0.003
  0
LWPOLYLINE
  5
C9
100
AcDbEntity
  8
0
 62
   253
100
AcDbPolyline
 90
        2
 70
     0
 39
0.003
 10
1.675075
 20
-0.657346
 40
0.003
 41
0.003
 10
1.675858
 20
-0.609421
 40
0.003
 41
0.003
  0
LWPOLYLINE
  5
CA
100
AcDbEntity
  8
0
 62
   253
100
AcDbPolyline
 90
        2
 70
     0
 39
0.003
 10
1.675858
 20
-0.609421
 40
0.003
 41
0.003
 10
1.677071
 20
-0.564055
 40
0.003
 41
0.003
  0
LWPOLYLINE
  5
CB
100
AcDbEntity
  8
0
 62
   253
100
AcDbPolyline
 90
        2
 70
     0
 39
0.003
 10
1.677071
 20
-0.564055
 40
0.003
 41
0.003
 10
1.678807
 20
-0.521201
 40
0.003
 41
0.003
  0
LWPOLYLINE
  5
CC
100
AcDbEntity
  8
0
 62
   253
100
AcDbPolyline
 90
        2
 70
     0
 39
0.003
 10
1.678807
 20
-0.521201
 40
0.003
 41
0.003
 10
1.681122
 20
-0.480783
 40
0.003
 41
0.003
  0
LWPOLYLINE
  5
CD
100
AcDbEntity
  8
0
 62
   253
100
AcDbPolyline
 90
        2
 70
     0
 39
0.003
 10
1.681122
 20
-0.480783
 40
0.003
 41
0.003
 10
1.684122
 20
-0.442752
 40
0.003
 41
0.003
  0
LWPOLYLINE
  5
CE
100
AcDbEntity
  8
0
 62
   253
100
AcDbPolyline
 90
        2
 70
     0
 39
0.003
 10
1.684122
 20
-0.442752
 40
0.003
 41
0.003
 10
1.687878
 20
-0.407039
 40
0.003
 41
0.003
  0
LWPOLYLINE
  5
CF
100
AcDbEntity
  8
0
 62
   253
100
AcDbPolyline
 90
        2
 70
     0
 39
0.003
 10
1.687878
 20
-0.407039
 40
0.003
 41
0.003
 10
1.692476
 20
-0.373594
 40
0.003
 41
0.003
  0
LWPOLYLINE
  5
D0
100
AcDbEntity
  8
0
 62
   253
100
AcDbPolyline
 90
        2
 70
     0
 39
0.003
 10
1.692476
 20
-0.373594
 40
0.003
 41
0.003
 10
1.697988
 20
-0.342343
 40
0.003
 41
0.003
  0
LWPOLYLINE
  5
D1
100
AcDbEntity
  8
0
 62
   253
100
AcDbPolyline
 90
        2
 70
     0
 39
0.003
 10
1.697988
 20
-0.342343
 40
0.003
 41
0.003
 10
1.704508
 20
-0.313236
 40
0.003
 41
0.003
  0
LWPOLYLINE
  5
D2
100
AcDbEntity
  8
0
 62
   253
100
AcDbPolyline
 90
        2
 70
     0
 39
0.003
 10
1.704508
 20
-0.313236
 40
0.003
 41
0.003
 10
1.712106
 20
-0.286205
 40
0.003
 41
0.003
  0
LWPOLYLINE
  5
D3
100
AcDbEntity
  8
0
 62
   253
100
AcDbPolyline
 90
        2
 70
     0
 39
0.003
 10
1.712106
 20
-0.286205
 40
0.003
 41
0.003
 10
1.720874
 20
-0.261201
 40
0.003
 41
0.003
  0
LWPOLYLINE
  5
D4
100
AcDbEntity
  8
0
 62
   253
100
AcDbPolyline
 90
        2
 70
     0
 39
0.003
 10
1.720874
 20
-0.261201
 40
0.003
 41
0.003
 10
1.730874
 20
-0.238142
 40
0.003
 41
0.003
  0
LWPOLYLINE
  5
D5
100
AcDbEntity
  8
0
 62
   253
100
AcDbPolyline
 90
        2
 70
     0
 39
0.003
 10
1.730874
 20
-0.238142
 40
0.003
 41
0.003
 10
1.742209
 20
-0.216984
 40
0.003
 41
0.003
  0
LWPOLYLINE
  5
D6
100
AcDbEntity
  8
0
 62
   253
100
AcDbPolyline
 90
        2
 70
     0
 39
0.003
 10
1.742209
 20
-0.216984
 40
0.003
 41
0.003
 10
1.754949
 20
-0.197657
 40
0.003
 41
0.003
  0
LWPOLYLINE
  5
D7
100
AcDbEntity
  8
0
 62
   253
100
AcDbPolyline
 90
        2
 70
     0
 39
0.003
 10
1.754949
 20
-0.197657
 40
0.003
 41
0.003
 10
1.769181
 20
-0.18011
 40
0.003
 41
0.003
  0
LWPOLYLINE
  5
D8
100
AcDbEntity
  8
0
 62
   253
100
AcDbPolyline
 90
        2
 70
     0
 39
0.003
 10
1.769181
 20
-0.18011
 40
0.003
 41
0.003
 10
1.784976
 20
-0.164272
 40
0.003
 41
0.003
  0
LWPOLYLINE
  5
D9
100
AcDbEntity
  8
0
 62
   253
100
AcDbPolyline
 90
        2
 70
     0
 39
0.003
 10
1.784976
 20
-0.164272
 40
0.003
 41
0.003
 10
1.802433
 20
-0.150094
 40
0.003
 41
0.003
  0
LWPOLYLINE
  5
DA
100
AcDbEntity
  8
0
 62
   253
100
AcDbPolyline
 90
        2
 70
     0
 39
0.003
 10
1.802433
 20
-0.150094
 40
0.003
 41
0.003
 10
1.821618
 20
-0.137508
 40
0.003
 41
0.003
  0
LWPOLYLINE
  5
DB
100
AcDbEntity
  8
0
 62
   253
100
AcDbPolyline
 90
        2
 70
     0
 39
0.003
 10
2.085709
 20
0.321984
 40
0.003
 41
0.003
 10
2.73126
 20
0.690724
 40
0.003
 41
0.003
  0
LWPOLYLINE
  5
DC
100
AcDbEntity
  8
0
 62
   253
100
AcDbPolyline
 90
        2
 70
     0
 39
0.003
 10
2.73126
 20
0.690724
 40
0.003
 41
0.003
 10
2.73126
 20
0.282917
 40
0.003
 41
0.003
  0
LWPOLYLINE
  5
DD
100
AcDbEntity
  8
0
 62
   253
100
AcDbPolyline
 90
        2
 70
     0
 39
0.003
 10
2.73126
 20
0.282917
 40
0.003
 41
0.003
 10
2.085709
 20
-0.085823
 40
0.003
 41
0.003
  0
LWPOLYLINE
  5
DE
100
AcDbEntity
  8
0
 62
   253
100
AcDbPolyline
 90
        2
 70
     0
 39
0.003
 10
2.085709
 20
-0.085823
 40
0.003
 41
0.003
 10
2.085709
 20
0.321984
 40
0.003
 41
0.003
  0
LWPOLYLINE
  5
DF
100
AcDbEntity
  8
0
 62
   253
100
AcDbPolyline
 90
        2
 70
     0
 39
0.003
 10
1.674807
 20
-0.937618
 40
0.003
 41
0.003
 10
2.320358
 20
-0.568878
 40
0.003
 41
0.003
  0
LWPOLYLINE
  5
E0
100
AcDbEntity
  8
0
 62
   253
100
AcDbPolyline
 90
        2
 70
     0
 39
0.003
 10
2.320358
 20
-0.568878
 40
0.003
 41
0.003
 10
2.23498
 20
-0.705913
 40
0.003
 41
0.003
  0
LWPOLYLINE
  5
E1
100
AcDbEntity
  8
0
 62
   253
100
AcDbPolyline
 90
        2
 70
     0
 39
0.003
 10
2.23498
 20
-0.705913
 40
0.003
 41
0.003
 10
1.589429
 20
-1.074654
 40
0.003
 41
0.003
  0
LWPOLYLINE
  5
E2
100
AcDbEntity
  8
0
 62
   253
100
AcDbPolyline
 90
        2
 70
     0
 39
0.003
 10
1.589429
 20
-1.074654
 40
0.003
 41
0.003
 10
1.674807
 20
-0.937618
 40
0.003
 41
0.003
  0
LWPOLYLINE
  5
E3
100
AcDbEntity
  8
0
 62
   253
100
AcDbPolyline
 90
        2
 70
     0
 39
0.003
 10
1.403559
 20
-1.430823
 40
0.003
 41
0.003
 10
2.04911
 20
-1.062083
 40
0.003
 41
0.003
  0
LWPOLYLINE
  5
E4
100
AcDbEntity
  8
0
 62
   253
100
AcDbPolyline
 90
        2
 70
     0
 39
0.003
 10
2.04911
 20
-1.062083
 40
0.003
 41
0.003
 10
2.039169
 20
-1.069165
 40
0.003
 41
0.003
  0
LWPOLYLINE
  5
E5
100
AcDbEntity
  8
0
 62
   253
100
AcDbPolyline
 90
        2
 70
     0
 39
0.003
 10
2.039169
 20
-1.069165
 40
0.003
 41
0.003
 10
2.029969
 20
-1.076953
 40
0.003
 41
0.003
  0
LWPOLYLINE
  5
E6
100
AcDbEntity
  8
0
 62
   253
100
AcDbPolyline
 90
        2
 70
     0
 39
0.003
 10
2.029969
 20
-1.076953
 40
0.003
 41
0.003
 10
2.02148
 20
-1.085457
 40
0.003
 41
0.003
  0
LWPOLYLINE
  5
E7
100
AcDbEntity
  8
0
 62
   253
100
AcDbPolyline
 90
        2
 70
     0
 39
0.003
 10
2.02148
 20
-1.085457
 40
0.003
 41
0.003
 10
2.013685
 20
-1.094697
 40
0.003
 41
0.003
  0
LWPOLYLINE
  5
E8
100
AcDbEntity
  8
0
 62
   253
100
AcDbPolyline
 90
        2
 70
     0
 39
0.003
 10
2.013685
 20
-1.094697
 40
0.003
 41
0.003
 10
2.006547
 20
-1.104681
 40
0.003
 41
0.003
  0
LWPOLYLINE
  5
E9
100
AcDbEntity
  8
0
 62
   253
100
AcDbPolyline
 90
        2
 70
     0
 39
0.003
 10
2.006547
 20
-1.104681
 40
0.003
 41
0.003
 10
2.000047
 20
-1.115445
 40
0.003
 41
0.003
  0
LWPOLYLINE
  5
EA
100
AcDbEntity
  8
0
 62
   253
100
AcDbPolyline
 90
        2
 70
     0
 39
0.003
 10
2.000047
 20
-1.115445
 40
0.003
 41
0.003
 10
1.994161
 20
-1.126996
 40
0.003
 41
0.003
  0
LWPOLYLINE
  5
EB
100
AcDbEntity
  8
0
 62
   253
100
AcDbPolyline
 90
        2
 70
     0
 39
0.003
 10
1.994161
 20
-1.126996
 40
0.003
 41
0.003
 10
1.988878
 20
-1.139366
 40
0.003
 41
0.003
  0
LWPOLYLINE
  5
EC
100
AcDbEntity
  8
0
 62
   253
100
AcDbPolyline
 90
        2
 70
     0
 39
0.003
 10
1.988878
 20
-1.139366
 40
0.003
 41
0.003
 10
1.98415
 20
-1.152559
 40
0.003
 41
0.003
  0
LWPOLYLINE
  5
ED
100
AcDbEntity
  8
0
 62
   253
100
AcDbPolyline
 90
        2
 70
     0
 39
0.003
 10
1.98415
 20
-1.152559
 40
0.003
 41
0.003
 10
1.979969
 20
-1.166606
 40
0.003
 41
0.003
  0
LWPOLYLINE
  5
EE
100
AcDbEntity
  8
0
 62
   253
100
AcDbPolyline
 90
        2
 70
     0
 39
0.003
 10
1.979969
 20
-1.166606
 40
0.003
 41
0.003
 10
1.976299
 20
-1.18152
 40
0.003
 41
0.003
  0
LWPOLYLINE
  5
EF
100
AcDbEntity
  8
0
 62
   253
100
AcDbPolyline
 90
        2
 70
     0
 39
0.003
 10
1.976299
 20
-1.18152
 40
0.003
 41
0.003
 10
1.973126
 20
-1.197331
 40
0.003
 41
0.003
  0
LWPOLYLINE
  5
F0
100
AcDbEntity
  8
0
 62
   253
100
AcDbPolyline
 90
        2
 70
     0
 39
0.003
 10
1.973126
 20
-1.197331
 40
0.003
 41
0.003
 10
1.970409
 20
-1.214035
 40
0.003
 41
0.003
  0
LWPOLYLINE
  5
F1
100
AcDbEntity
  8
0
 62
   253
100
AcDbPolyline
 90
        2
 70
     0
 39
0.003
 10
1.970409
 20
-1.214035
 40
0.003
 41
0.003
 10
1.968142
 20
-1.231673
 40
0.003
 41
0.003
  0
LWPOLYLINE
  5
F2
100
AcDbEntity
  8
0
 62
   253
100
AcDbPolyline
 90
        2
 70
     0
 39
0.003
 10
1.968142
 20
-1.231673
 40
0.003
 41
0.003
 10
1.966287
 20
-1.250252
 40
0.003
 41
0.003
  0
LWPOLYLINE
  5
F3
100
AcDbEntity
  8
0
 62
   253
100
AcDbPolyline
 90
        2
 70
     0
 39
0.003
 10
1.966287
 20
-1.250252
 40
0.003
 41
0.003
 10
1.964831
 20
-1.269799
 40
0.003
 41
0.003
  0
LWPOLYLINE
  5
F4
100
AcDbEntity
  8
0
 62
   253
100
AcDbPolyline
 90
        2
 70
     0
 39
0.003
 10
1.964831
 20
-1.269799
 40
0.003
 41
0.003
 10
1.963736
 20
-1.290323
 40
0.003
 41
0.003
  0
LWPOLYLINE
  5
F5
100
AcDbEntity
  8
0
 62
   253
100
AcDbPolyline
 90
        2
 70
     0
 39
0.003
 10
1.963736
 20
-1.290323
 40
0.003
 41
0.003
 10
1.962992
 20
-1.311858
 40
0.003
 41
0.003
  0
LWPOLYLINE
  5
F6
100
AcDbEntity
  8
0
 62
   253
100
AcDbPolyline
 90
        2
 70
     0
 39
0.003
 10
1.962992
 20
-1.311858
 40
0.003
 41
0.003
 10
1.962559
 20
-1.334409
 40
0.003
 41
0.003
  0
LWPOLYLINE
  5
F7
100
AcDbEntity
  8
0
 62
   253
100
AcDbPolyline
 90
        2
 70
     0
 39
0.003
 10
1.962559
 20
-1.334409
 40
0.003
 41
0.003
 10
1.962425
 20
-1.358008
 40
0.003
 41
0.003
  0
LWPOLYLINE
  5
F8
100
AcDbEntity
  8
0
 62
   253
100
AcDbPolyline
 90
        2
 70
     0
 39
0.003
 10
1.962425
 20
-1.358008
 40
0.003
 41
0.003
 10
1.316874
 20
-1.726748
 40
0.003
 41
0.003
  0
LWPOLYLINE
  5
F9
100
AcDbEntity
  8
0
 62
   253
100
AcDbPolyline
 90
        2
 70
     0
 39
0.003
 10
1.316874
 20
-1.726748
 40
0.003
 41
0.003
 10
1.317008
 20
-1.70315
 40
0.003
 41
0.003
  0
LWPOLYLINE
  5
FA
100
AcDbEntity
  8
0
 62
   253
100
AcDbPolyline
 90
        2
 70
     0
 39
0.003
 10
1.317008
 20
-1.70315
 40
0.003
 41
0.003
 10
1.317441
 20
-1.680598
 40
0.003
 41
0.003
  0
LWPOLYLINE
  5
FB
100
AcDbEntity
  8
0
 62
   253
100
AcDbPolyline
 90
        2
 70
     0
 39
0.003
 10
1.317441
 20
-1.680598
 40
0.003
 41
0.003
 10
1.318185
 20
-1.659063
 40
0.003
 41
0.003
  0
LWPOLYLINE
  5
FC
100
AcDbEntity
  8
0
 62
   253
100
AcDbPolyline
 90
        2
 70
     0
 39
0.003
 10
1.318185
 20
-1.659063
 40
0.003
 41
0.003
 10
1.31928
 20
-1.638539
 40
0.003
 41
0.003
  0
LWPOLYLINE
  5
FD
100
AcDbEntity
  8
0
 62
   253
100
AcDbPolyline
 90
        2
 70
     0
 39
0.003
 10
1.31928
 20
-1.638539
 40
0.003
 41
0.003
 10
1.320736
 20
-1.618992
 40
0.003
 41
0.003
  0
LWPOLYLINE
  5
FE
100
AcDbEntity
  8
0
 62
   253
100
AcDbPolyline
 90
        2
 70
     0
 39
0.003
 10
1.320736
 20
-1.618992
 40
0.003
 41
0.003
 10
1.322591
 20
-1.600413
 40
0.003
 41
0.003
  0
LWPOLYLINE
  5
FF
100
AcDbEntity
  8
0
 62
   253
100
AcDbPolyline
 90
        2
 70
     0
 39
0.003
 10
1.322591
 20
-1.600413
 40
0.003
 41
0.003
 10
1.324858
 20
-1.582776
 40
0.003
 41
0.003
  0
LWPOLYLINE
  5
100
100
AcDbEntity
  8
0
 62
   253
100
AcDbPolyline
 90
        2
 70
     0
 39
0.003
 10
1.324858
 20
-1.582776
 40
0.003
 41
0.003
 10
1.327575
 20
-1.566071
 40
0.003
 41
0.003
  0
LWPOLYLINE
  5
101
100
AcDbEntity
  8
0
 62
   253
100
AcDbPolyline
 90
        2
 70
     0
 39
0.003
 10
1.327575
 20
-1.566071
 40
0.003
 41
0.003
 10
1.330748
 20
-1.55026
 40
0.003
 41
0.003
  0
LWPOLYLINE
  5
102
100
AcDbEntity
  8
0
 62
   253
100
AcDbPolyline
 90
        2
 70
     0
 39
0.003
 10
1.330748
 20
-1.55026
 40
0.003
 41
0.003
 10
1.334417
 20
-1.535346
 40
0.003
 41
0.003
  0
LWPOLYLINE
  5
103
100
AcDbEntity
  8
0
 62
   253
100
AcDbPolyline
 90
        2
 70
     0
 39
0.003
 10
1.334417
 20
-1.535346
 40
0.003
 41
0.003
 10
1.338598
 20
-1.521299
 40
0.003
 41
0.003
  0
LWPOLYLINE
  5
104
100
AcDbEntity
  8
0
 62
   253
100
AcDbPolyline
 90
        2
 70
     0
 39
0.003
 10
1.338598
 20
-1.521299
 40
0.003
 41
0.003
 10
1.343327
 20
-1.508106
 40
0.003
 41
0.003
  0
LWPOLYLINE
  5
105
100
AcDbEntity
  8
0
 62
   253
100
AcDbPolyline
 90
        2
 70
     0
 39
0.003
 10
1.343327
 20
-1.508106
 40
0.003
 41
0.003
 10
1.34861
 20
-1.495736
 40
0.003
 41
0.003
  0
LWPOLYLINE
  5
106
100
AcDbEntity
  8
0
 62
   253
100
AcDbPolyline
 90
        2
 70
     0
 39
0.003
 10
1.34861
 20
-1.495736
 40
0.003
 41
0.003
 10
1.354496
 20
-1.484185
 40
0.003
 41
0.003
  0
LWPOLYLINE
  5
107
100
AcDbEntity
  8
0
 62
   253
100
AcDbPolyline
 90
        2
 70
     0
 39
0.003
 10
1.354496
 20
-1.484185
 40
0.003
 41
0.003
 10
1.360996
 20
-1.473421
 40
0.003
 41
0.003
  0
LWPOLYLINE
  5
108
100
AcDbEntity
  8
0
 62
   253
100
AcDbPolyline
 90
        2
 70
     0
 39
0.003
 10
1.360996
 20
-1.473421
 40
0.003
 41
0.003
 10
1.368134
 20
-1.463437
 40
0.003
 41
0.003
  0
LWPOLYLINE
  5
109
100
AcDbEntity
  8
0
 62
   253
100
AcDbPolyline
 90
        2
 70
     0
 39
0.003
 10
1.368134
 20
-1.463437
 40
0.003
 41
0.003
 10
1.375929
 20
-1.454197
 40
0.003
 41
0.003
  0
LWPOLYLINE
  5
10A
100
AcDbEntity
  8
0
 62
   253
100
AcDbPolyline
 90
        2
 70
     0
 39
0.003
 10
1.375929
 20
-1.454197
 40
0.003
 41
0.003
 10
1.384417
 20
-1.445693
 40
0.003
 41
0.003
  0
LWPOLYLINE
  5
10B
100
AcDbEntity
  8
0
 62
   253
100
AcDbPolyline
 90
        2
 70
     0
 39
0.003
 10
1.384417
 20
-1.445693
 40
0.003
 41
0.003
 10
1.393618
 20
-1.437906
 40
0.003
 41
0.003
  0
LWPOLYLINE
  5
10C
100
AcDbEntity
  8
0
 62
   253
100
AcDbPolyline
 90
        2
 70
     0
 39
0.003
 10
1.393618
 20
-1.437906
 40
0.003
 41
0.003
 10
1.403559
 20
-1.430823
 40
0.003
 41
0.003
  0
LWPOLYLINE
  5
10D
100
AcDbEntity
  8
0
 62
   253
100
AcDbPolyline
 90
        2
 70
     0
 39
0.003
 10
1.589429
 20
-1.074654
 40
0.003
 41
0.003
 10
2.23498
 20
-0.705913
 40
0.003
 41
0.003
  0
LWPOLYLINE
  5
10E
100
AcDbEntity
  8
0
 62
   253
100
AcDbPolyline
 90
        2
 70
     0
 39
0.003
 10
2.23498
 20
-0.705913
 40
0.003
 41
0.003
 10
2.23498
 20
-1.024409
 40
0.003
 41
0.003
  0
LWPOLYLINE
  5
10F
100
AcDbEntity
  8
0
 62
   253
100
AcDbPolyline
 90
        2
 70
     0
 39
0.003
 10
2.23498
 20
-1.024409
 40
0.003
 41
0.003
 10
1.589429
 20
-1.39315
 40
0.003
 41
0.003
  0
LWPOLYLINE
  5
110
100
AcDbEntity
  8
0
 62
   253
100
AcDbPolyline
 90
        2
 70
     0
 39
0.003
 10
1.589429
 20
-1.39315
 40
0.003
 41
0.003
 10
1.589429
 20
-1.074654
 40
0.003
 41
0.003
  0
SPLINE
  5
111
100
AcDbEntity
  8
0
 62
     7
100
AcDbSpline
210
0.0
220
0.0
230
1.0
 70
     0
 71
     3
 72
     0
 73
     0
 74
    16
 44
0.0000000001
 11
-1.2342125984251968
 21
-1.726748031496063
 31
0.0
 11
-1.2347795275590552
 21
-1.6805984251968504
 31
0.0
 11
-1.2366181102362204
 21
-1.6385393700787401
 31
0.0
 11
-1.2399291338582676
 21
-1.6004133858267717
 31
0.0
 11
-1.2449133858267716
 21
-1.5660708661417322
 31
0.0
 11
-1.251755905511811
 21
-1.5353464566929134
 31
0.0
 11
-1.2606653543307087
 21
-1.5081062992125984
 31
0.0
 11
-1.2718346456692913
 21
-1.4841850393700788
 31
0.0
 11
-1.2854724409448819
 21
-1.4634370078740158
 31
0.0
 11
-1.3017559055118111
 21
-1.4456929133858267
 31
0.0
 11
-1.3208976377952757
 21
-1.4308228346456693
 31
0.0
 11
-1.3430866141732283
 21
-1.4186535433070866
 31
0.0
 11
-1.3685354330708661
 21
-1.4090511811023623
 31
0.0
 11
-1.3974212598425197
 21
-1.4018464566929134
 31
0.0
 11
-1.4299606299212599
 21
-1.3969015748031497
 31
0.0
 11
-1.4663425196850395
 21
-1.3940511811023621
 31
0.0
  0
LWPOLYLINE
  5
112
100
AcDbEntity
  8
0
 62
     7
100
AcDbPolyline
 90
        2
 70
     0
 39
0.003
 10
-1.466343
 20
-1.394051
 40
0.003
 41
0.003
 10
-1.506768
 20
-1.39315
 40
0.003
 41
0.003
  0
LWPOLYLINE
  5
113
100
AcDbEntity
  8
0
 62
     7
100
AcDbPolyline
 90
        2
 70
     0
 39
0.003
 10
-1.506768
 20
-1.39315
 40
0.003
 41
0.003
 10
-1.506768
 20
-1.074654
 40
0.003
 41
0.003
  0
LWPOLYLINE
  5
114
100
AcDbEntity
  8
0
 62
     7
100
AcDbPolyline
 90
        2
 70
     0
 39
0.003
 10
-1.506768
 20
-1.074654
 40
0.003
 41
0.003
 10
-1.592146
 20
-0.937618
 40
0.003
 41
0.003
  0
SPLINE
  5
115
100
AcDbEntity
  8
0
 62
     7
100
AcDbSpline
210
0.0
220
0.0
230
1.0
 70
     0
 71
     3
 72
     0
 73
     0
 74
    16
 44
0.0000000001
 11
-1.5921456692913385
 21
-0.9376181102362204
 31
0.0
 11
-1.5918503937007873
 21
-0.8171417322834645
 31
0.0
 11
-1.5919842519685039
 21
-0.7079094488188976
 31
0.0
 11
-1.5931968503937008
 21
-0.6094212598425197
 31
0.0
 11
-1.5961456692913385
 21
-0.5212007874015748
 31
0.0
 11
-1.6014606299212599
 21
-0.442751968503937
 31
0.0
 11
-1.6098149606299212
 21
-0.3735944881889764
 31
0.0
 11
-1.6218464566929134
 21
-0.3132362204724409
 31
0.0
 11
-1.638212598425197
 21
-0.2612007874015748
 31
0.0
 11
-1.6595472440944883
 21
-0.2169842519685039
 31
0.0
 11
-1.68651968503937
 21
-0.1801102362204725
 31
0.0
 11
-1.7197716535433072
 21
-0.1500944881889764
 31
0.0
 11
-1.7599645669291339
 21
-0.1264527559055118
 31
0.0
 11
-1.8077322834645668
 21
-0.1086850393700787
 31
0.0
 11
-1.863736220472441
 21
-0.0963188976377953
 31
0.0
 11
-1.9286220472440945
 21
-0.0888543307086614
 31
0.0
  0
LWPOLYLINE
  5
116
100
AcDbEntity
  8
0
 62
     7
100
AcDbPolyline
 90
        2
 70
     0
 39
0.003
 10
-1.928622
 20
-0.088854
 40
0.003
 41
0.003
 10
-2.003047
 20
-0.085823
 40
0.003
 41
0.003
  0
LWPOLYLINE
  5
117
100
AcDbEntity
  8
0
 62
     7
100
AcDbPolyline
 90
        2
 70
     0
 39
0.003
 10
-2.003047
 20
-0.085823
 40
0.003
 41
0.003
 10
-2.003047
 20
0.321984
 40
0.003
 41
0.003
  0
LWPOLYLINE
  5
118
100
AcDbEntity
  8
0
 62
     7
100
AcDbPolyline
 90
        2
 70
     0
 39
0.003
 10
-2.003047
 20
0.321984
 40
0.003
 41
0.003
 10
0.040283
 20
0.49072
 40
0.003
 41
0.003
  0
LWPOLYLINE
  5
119
100
AcDbEntity
  8
0
 62
     7
100
AcDbPolyline
 90
        2
 70
     0
 39
0.003
 10
0.040283
 20
0.49072
 40
0.003
 41
0.003
 10
2.085709
 20
0.321984
 40
0.003
 41
0.003
  0
LWPOLYLINE
  5
11A
100
AcDbEntity
  8
0
 62
     7
100
AcDbPolyline
 90
        2
 70
     0
 39
0.003
 10
2.085709
 20
0.321984
 40
0.003
 41
0.003
 10
2.085709
 20
-0.085823
 40
0.003
 41
0.003
  0
SPLINE
  5
11B
100
AcDbEntity
  8
0
 62
     7
100
AcDbSpline
210
0.0
220
0.0
230
1.0
 70
     0
 71
     3
 72
     0
 73
     0
 74
    16
 44
0.0000000001
 11
2.085708661417323
 21
-0.0858228346456693
 31
0.0
 11
2.0112834645669291
 21
-0.0888543307086614
 31
0.0
 11
1.9463976377952756
 21
-0.0963188976377953
 31
0.0
 11
1.8903937007874017
 21
-0.1086850393700787
 31
0.0
 11
1.8426259842519686
 21
-0.1264527559055118
 31
0.0
 11
1.8024330708661418
 21
-0.1500944881889764
 31
0.0
 11
1.7691811023622048
 21
-0.1801102362204725
 31
0.0
 11
1.7422086614173229
 21
-0.2169842519685039
 31
0.0
 11
1.7208740157480316
 21
-0.2612007874015748
 31
0.0
 11
1.704507874015748
 21
-0.3132362204724409
 31
0.0
 11
1.6924763779527559
 21
-0.3735944881889764
 31
0.0
 11
1.6841220472440945
 21
-0.442751968503937
 31
0.0
 11
1.6788070866141733
 21
-0.5212007874015748
 31
0.0
 11
1.6758582677165355
 21
-0.6094212598425197
 31
0.0
 11
1.6746456692913385
 21
-0.7079094488188976
 31
0.0
 11
1.6745118110236221
 21
-0.8171417322834645
 31
0.0
  0
LWPOLYLINE
  5
11C
100
AcDbEntity
  8
0
 62
     7
100
AcDbPolyline
 90
        2
 70
     0
 39
0.003
 10
1.674512
 20
-0.817142
 40
0.003
 41
0.003
 10
1.674807
 20
-0.937618
 40
0.003
 41
0.003
  0
LWPOLYLINE
  5
11D
100
AcDbEntity
  8
0
 62
     7
100
AcDbPolyline
 90
        2
 70
     0
 39
0.003
 10
1.674807
 20
-0.937618
 40
0.003
 41
0.003
 10
1.589429
 20
-1.074654
 40
0.003
 41
0.003
  0
LWPOLYLINE
  5
11E
100
AcDbEntity
  8
0
 62
     7
100
AcDbPolyline
 90
        2
 70
     0
 39
0.003
 10
1.589429
 20
-1.074654
 40
0.003
 41
0.003
 10
1.589429
 20
-1.39315
 40
0.003
 41
0.003
  0
SPLINE
  5
11F
100
AcDbEntity
  8
0
 62
     7
100
AcDbSpline
210
0.0
220
0.0
230
1.0
 70
     0
 71
     3
 72
     0
 73
     0
 74
    16
 44
0.0000000001
 11
1.5894291338582678
 21
-1.3931496062992126
 31
0.0
 11
1.5490039370078741
 21
-1.3940511811023621
 31
0.0
 11
1.5126220472440945
 21
-1.3969015748031497
 31
0.0
 11
1.4800826771653544
 21
-1.4018464566929134
 31
0.0
 11
1.4511968503937007
 21
-1.4090511811023623
 31
0.0
 11
1.4257480314960629
 21
-1.4186535433070866
 31
0.0
 11
1.4035590551181103
 21
-1.4308228346456693
 31
0.0
 11
1.3844173228346457
 21
-1.4456929133858267
 31
0.0
 11
1.3681338582677165
 21
-1.4634370078740158
 31
0.0
 11
1.3544960629921259
 21
-1.4841850393700788
 31
0.0
 11
1.3433267716535433
 21
-1.5081062992125984
 31
0.0
 11
1.3344173228346456
 21
-1.5353464566929134
 31
0.0
 11
1.3275748031496064
 21
-1.5660708661417322
 31
0.0
 11
1.3225905511811025
 21
-1.6004133858267717
 31
0.0
 11
1.3192795275590552
 21
-1.6385393700787401
 31
0.0
 11
1.3174409448818898
 21
-1.6805984251968504
 31
0.0
  0
LWPOLYLINE
  5
120
100
AcDbEntity
  8
0
 62
     7
100
AcDbPolyline
 90
        2
 70
     0
 39
0.003
 10
1.317441
 20
-1.680598
 40
0.003
 41
0.003
 10
1.316874
 20
-1.726748
 40
0.003
 41
0.003
  0
LWPOLYLINE
  5
121
100
AcDbEntity
  8
0
 62
     7
100
AcDbPolyline
 90
        2
 70
     0
 39
0.003
 10
1.316874
 20
-1.726748
 40
0.003
 41
0.003
 10
-1.234213
 20
-1.726748
 40
0.003
 41
0.003
  0
MTEXT
  5
122
100
AcDbEntity
  8
0
 62
     0
100
AcDbMText
 10
-1.126343
 20
-1.623406
 30
0.0
 40
0.166665
 41
0.0
 71
     1
 72
     1
  1
{\fBookman Old Style|b0|i0|c0|p32;BA  1408}
 73
     1
 44
1.0
  0
MTEXT
  5
123
100
AcDbEntity
  8
0
 62
     0
100
AcDbMText
 10
-1.126343
 20
-1.810906
 30
0.0
 40
0.166665
 41
0.0
 71
     1
 72
     1
  1
{\fBookman Old Style|b0|i0|c0|p32;2-3/16" x 4-1/16"}
 73
     1
 44
1.0
  0
MTEXT
  5
124
100
AcDbEntity
  8
0
 62
     0
100
AcDbMText
 10
-1.40963
 20
2.459839
 30
0.0
 40
0.166665
 41
0.0
 71
     1
 72
     1
  1
{\fBookman Old Style|b0|i0|c0|p32;BA  1408}
 73
     1
 44
1.0
  0
MTEXT
  5
125
100
AcDbEntity
  8
0
 62
     0
100
AcDbMText
 10
-1.40963
 20
2.272339
 30
0.0
 40
0.166665
 41
0.0
 71
     1
 72
     1
  1
{\fBookman Old Style|b0|i0|c0|p32;2-3/16" x 4-1/16"}
 73
     1
 44
1.0
  0
MTEXT
  5
126
100
AcDbEntity
  8
0
 62
     0
100
AcDbMText
 10
-0.432839
 20
4.055976
 30
0.0
 40
0.166665
 41
0.0
 71
     1
 72
     1
  1
{\fBookman Old Style|b0|i0|c0|p32;BA  562 }
 73
     1
 44
1.0
  0
MTEXT
  5
127
100
AcDbEntity
  8
0
 62
     0
100
AcDbMText
 10
-0.432839
 20
3.868476
 30
0.0
 40
0.166665
 41
0.0
 71
     1
 72
     1
  1
{\fBookman Old Style|b0|i0|c0|p32;Top}
 73
     1
 44
1.0
  0
MTEXT
  5
128
100
AcDbEntity
  8
0
 62
     0
100
AcDbMText
 10
-0.38898
 20
0.481528
 30
0.0
 40
0.166665
 41
0.0
 71
     1
 72
     1
  1
{\fBookman Old Style|b0|i0|c0|p32;BA  562 }
 73
     1
 44
1.0
  0
MTEXT
  5
129
100
AcDbEntity
  8
0
 62
     0
100
AcDbMText
 10
-0.38898
 20
0.294028
 30
0.0
 40
0.166665
 41
0.0
 71
     1
 72
     1
  1
{\fBookman Old Style|b0|i0|c0|p32;Top}
 73
     1
 44
1.0
  0
ENDSEC
  0
SECTION
  2
OBJECTS
  0
DICTIONARY
  5
19
100
AcDbDictionary
280
     0
281
     1
  3
ACAD_GROUP
350
1A
  3
ACAD_MLINESTYLE
350
1B
  3
ACAD_LAYOUT
350
1E
  3
ACAD_PLOTSETTINGS
350
22
  3
ACAD_PLOTSTYLENAME
350
1F
  3
ACAD_WIPEOUT_VARS
350
23
  0
DICTIONARY
  5
1A
102
{ACAD_REACTORS
330
19
102
}
100
AcDbDictionary
280
     0
281
     1
  0
DICTIONARY
  5
1B
102
{ACAD_REACTORS
330
19
102
}
100
AcDbDictionary
280
     0
281
     1
  3
Standard
350
1C
  0
MLINESTYLE
  5
1C
102
{ACAD_REACTORS
330
1B
102
}
100
AcDbMlineStyle
  2
Standard
 70
     0
  3

 62
     0
 51
90.0
 52
90.0
 71
     2
 49
0.5
 62
   256
  6
BYLAYER
 49
-0.5
 62
   256
  6
BYLAYER
  0
ACDBDICTIONARYWDFLT
  5
1F
102
{ACAD_REACTORS
330
19
102
}
100
AcDbDictionary
281
     1
  3
Normal
350
1D
100
AcDbDictionaryWithDefault
340
1D
  0
ACDBPLACEHOLDER
  5
1D
102
{ACAD_REACTORS
330
1F
102
}
  0
LAYOUT
  5
20
102
{ACAD_REACTORS
330
1E
102
}
100
AcDbPlotSettings
  1

  2

  4

  6

 40
0.0
 41
0.0
 42
0.0
 43
0.0
 44
0.0
 45
0.0
 46
0.0
 47
0.0
 48
0.0
 49
0.0
140
0.0
141
0.0
142
1.0
143
1.0
 70
  1024
 72
     0
 73
     0
 74
     0
  7

 75
     0
147
1.0
148
0.0
149
0.0
100
AcDbLayout
  1
Model
 70
     0
 71
     0
 10
0.0
 20
0.0
 11
0.0
 21
0.0
 12
0.0
 22
0.0
 32
0.0
 14
0.0
 24
0.0
 34
0.0
 15
0.0
 25
0.0
 35
0.0
146
0.0
 13
0.0
 23
0.0
 33
0.0
 16
0.0
 26
0.0
 36
0.0
 17
0.0
 27
0.0
 37
0.0
 76
     0
330
A
331
0
345
0
346
0
  0
LAYOUT
  5
21
102
{ACAD_REACTORS
330
1E
102
}
100
AcDbPlotSettings
  1

  2

  4

  6

 40
0.0
 41
0.0
 42
0.0
 43
0.0
 44
0.0
 45
0.0
 46
0.0
 47
0.0
 48
0.0
 49
0.0
140
0.0
141
0.0
142
1.0
143
1.0
 70
     0
 72
     0
 73
     0
 74
     0
  7

 75
     0
147
1.0
148
0.0
149
0.0
100
AcDbLayout
  1
Layout1
 70
     0
 71
     0
 10
0.0
 20
0.0
 11
0.0
 21
0.0
 12
0.0
 22
0.0
 32
0.0
 14
0.0
 24
0.0
 34
0.0
 15
0.0
 25
0.0
 35
0.0
146
0.0
 13
0.0
 23
0.0
 33
0.0
 16
0.0
 26
0.0
 36
0.0
 17
0.0
 27
0.0
 37
0.0
 76
     0
330
B
331
0
345
0
346
0
  0
DICTIONARY
  5
1E
102
{ACAD_REACTORS
330
19
102
}
100
AcDbDictionary
280
     0
281
     1
  3
Layout1
350
21
  3
Model
350
20
  0
DICTIONARY
  5
22
102
{ACAD_REACTORS
330
19
102
}
100
AcDbDictionary
280
     0
281
     1
  0
WIPEOUTVARIABLES
  5
23
100
AcDbWipeoutVariables
 70
     1
  0
ENDSEC
  0
EOF
