  0
SECTION
  2
HEADER
  9
$ACADVER
  1
AC1015
  9
$ACADMAINTVER
 70
     6
  9
$DWGCODEPAGE
  3
DOS850
  9
$INSBASE
 10
0.0
 20
0.0
 30
0.0
  9
$EXTMIN
 10
1.000000E+20
 20
1.000000E+20
 30
1.000000E+20
  9
$EXTMAX
 10
-1.000000E+20
 20
-1.000000E+20
 30
-1.000000E+20
  9
$LIMMIN
 10
0.0
 20
0.0
  9
$LIMMAX
 10
0.0
 20
0.0
  9
$ORTHOMODE
 70
     0
  9
$REGENMODE
 70
     1
  9
$FILLMODE
 70
     1
  9
$QTEXTMODE
 70
     0
  9
$MIRRTEXT
 70
     1
  9
$LTSCALE
 40
1.0
  9
$ATTMODE
 70
     1
  9
$TEXTSIZE
 40
0.2
  9
$TRACEWID
 40
0.05
  9
$TEXTSTYLE
  7
Standard
  9
$CLAYER
  8
0
  9
$CELTYPE
  6
Continuous
  9
$CECOLOR
 62
   256
  9
$CELTSCALE
 40
1.0
  9
$DISPSILH
 70
     0
  9
$DIMSCALE
 40
1.0
  9
$DIMASZ
 40
0.18
  9
$DIMEXO
 40
0.0625
  9
$DIMDLI
 40
0.38
  9
$DIMRND
 40
0.0
  9
$DIMDLE
 40
0.0
  9
$DIMEXE
 40
0.18
  9
$DIMTP
 40
0.0
  9
$DIMTM
 40
0.0
  9
$DIMTXT
 40
0.18
  9
$DIMCEN
 40
0.09
  9
$DIMTSZ
 40
0.0
  9
$DIMTOL
 70
     0
  9
$DIMLIM
 70
     0
  9
$DIMTIH
 70
     1
  9
$DIMTOH
 70
     1
  9
$DIMSE1
 70
     0
  9
$DIMSE2
 70
     0
  9
$DIMTAD
 70
     0
  9
$DIMZIN
 70
     0
  9
$DIMBLK
  1

  9
$DIMASO
 70
     1
  9
$DIMSHO
 70
     1
  9
$DIMPOST
  1

  9
$DIMAPOST
  1

  9
$DIMALT
 70
     0
  9
$DIMALTD
 70
     2
  9
$DIMALTF
 40
25.4
  9
$DIMLFAC
 40
1.0
  9
$DIMTOFL
 70
     0
  9
$DIMTVP
 40
0.0
  9
$DIMTIX
 70
     0
  9
$DIMSOXD
 70
     0
  9
$DIMSAH
 70
     0
  9
$DIMBLK1
  1

  9
$DIMBLK2
  1

  9
$DIMSTYLE
  2
Standard
  9
$DIMCLRD
 70
     0
  9
$DIMCLRE
 70
     0
  9
$DIMCLRT
 70
     0
  9
$DIMTFAC
 40
1.0
  9
$DIMGAP
 40
0.09
  9
$DIMJUST
 70
     0
  9
$DIMSD1
 70
     0
  9
$DIMSD2
 70
     0
  9
$DIMTOLJ
 70
     1
  9
$DIMTZIN
 70
     0
  9
$DIMALTZ
 70
     0
  9
$DIMALTTZ
 70
     0
  9
$DIMUPT
 70
     0
  9
$DIMDEC
 70
     4
  9
$DIMTDEC
 70
     4
  9
$DIMALTU
 70
     2
  9
$DIMALTTD
 70
     2
  9
$DIMTXSTY
  7
Standard
  9
$DIMAUNIT
 70
     0
  9
$DIMADEC
 70
     0
  9
$DIMALTRND
 40
0.0
  9
$DIMAZIN
 70
     0
  9
$DIMDSEP
 70
     0
  9
$DIMATFIT
 70
     3
  9
$DIMFRAC
 70
     0
  9
$DIMLDRBLK
  1

  9
$DIMLUNIT
 70
     2
  9
$DIMLWD
 70
     0
  9
$DIMLWE
 70
     0
  9
$DIMTMOVE
 70
     0
  9
$LUNITS
 70
     2
  9
$LUPREC
 70
     4
  9
$SKETCHINC
 40
0.1
  9
$FILLETRAD
 40
0.0
  9
$AUNITS
 70
     0
  9
$AUPREC
 70
     0
  9
$MENU
  1
acad
  9
$ELEVATION
 40
0.0
  9
$PELEVATION
 40
0.0
  9
$THICKNESS
 40
0.0
  9
$LIMCHECK
 70
     0
  9
$CHAMFERA
 40
0.0
  9
$CHAMFERB
 40
0.0
  9
$CHAMFERC
 40
0.0
  9
$CHAMFERD
 40
0.0
  9
$SKPOLY
 70
     0
  9
$TDCREATE
 40
0.000000000
  9
$TDUCREATE
 40
0.000000000
  9
$TDUPDATE
 40
0.000000000
  9
$TDUUPDATE
 40
0.000000000
  9
$TDINDWG
 40
0.0000000000
  9
$TDUSRTIMER
 40
0.0000000000
  9
$USRTIMER
 70
     1
  9
$ANGBASE
 50
0.0
  9
$ANGDIR
 70
     0
  9
$PDMODE
 70
     0
  9
$PDSIZE
 40
0.0
  9
$PLINEWID
 40
0.0
  9
$SPLFRAME
 70
     0
  9
$SPLINETYPE
 70
     6
  9
$SPLINESEGS
 70
     8
  9
$HANDSEED
  5
3F
  9
$SURFTAB1
 70
     6
  9
$SURFTAB2
 70
     6
  9
$SURFTYPE
 70
     6
  9
$SURFU
 70
     6
  9
$SURFV
 70
     6
  9
$UCSBASE
  2

  9
$UCSNAME
  2

  9
$UCSORG
 10
0.0
 20
0.0
 30
0.0
  9
$UCSXDIR
 10
1.0
 20
0.0
 30
0.0
  9
$UCSYDIR
 10
0.0
 20
1.0
 30
0.0
  9
$UCSORTHOREF
  2

  9
$UCSORTHOVIEW
 70
     0
  9
$UCSORGTOP
 10
0.0
 20
0.0
 30
0.0
  9
$UCSORGBOTTOM
 10
0.0
 20
0.0
 30
0.0
  9
$UCSORGLEFT
 10
0.0
 20
0.0
 30
0.0
  9
$UCSORGRIGHT
 10
0.0
 20
0.0
 30
0.0
  9
$UCSORGFRONT
 10
0.0
 20
0.0
 30
0.0
  9
$UCSORGBACK
 10
0.0
 20
0.0
 30
0.0
  9
$PUCSBASE
  2

  9
$PUCSNAME
  2

  9
$PUCSORG
 10
0.0
 20
0.0
 30
0.0
  9
$PUCSXDIR
 10
1.0
 20
0.0
 30
0.0
  9
$PUCSYDIR
 10
0.0
 20
1.0
 30
0.0
  9
$PUCSORTHOREF
  2

  9
$PUCSORTHOVIEW
 70
     0
  9
$PUCSORGTOP
 10
0.0
 20
0.0
 30
0.0
  9
$PUCSORGBOTTOM
 10
0.0
 20
0.0
 30
0.0
  9
$PUCSORGLEFT
 10
0.0
 20
0.0
 30
0.0
  9
$PUCSORGRIGHT
 10
0.0
 20
0.0
 30
0.0
  9
$PUCSORGFRONT
 10
0.0
 20
0.0
 30
0.0
  9
$PUCSORGBACK
 10
0.0
 20
0.0
 30
0.0
  9
$USERI1
 70
     0
  9
$USERI2
 70
     0
  9
$USERI3
 70
     0
  9
$USERI4
 70
     0
  9
$USERI5
 70
     0
  9
$USERR1
 40
0.0
  9
$USERR2
 40
0.0
  9
$USERR3
 40
0.0
  9
$USERR4
 40
0.0
  9
$USERR5
 40
0.0
  9
$WORLDVIEW
 70
     1
  9
$SHADEDGE
 70
     3
  9
$SHADEDIF
 70
    70
  9
$TILEMODE
 70
     1
  9
$MAXACTVP
 70
    16
  9
$PINSBASE
 10
0.0
 20
0.0
 30
0.0
  9
$PLIMCHECK
 70
     0
  9
$PEXTMIN
 10
1.000000E+20
 20
1.000000E+20
 30
1.000000E+20
  9
$PEXTMAX
 10
-1.000000E+20
 20
-1.000000E+20
 30
-1.000000E+20
  9
$PLIMMIN
 10
0.0
 20
0.0
  9
$PLIMMAX
 10
12.0
 20
9.0
  9
$UNITMODE
 70
     0
  9
$VISRETAIN
 70
     0
  9
$PLINEGEN
 70
     1
  9
$PSLTSCALE
 70
     0
  9
$TREEDEPTH
 70
  3020
  9
$CMLSTYLE
  2
Standard
  9
$CMLJUST
 70
     0
  9
$CMLSCALE
 40
1.0
  9
$PROXYGRAPHICS
 70
     0
  9
$MEASUREMENT
 70
     0
  9
$CELWEIGHT
370
     0
  9
$ENDCAPS
280
     0
  9
$JOINSTYLE
280
     0
  9
$LWDISPLAY
290
     0
  9
$INSUNITS
 70
     0
  9
$HYPERLINKBASE
  1

  9
$XEDIT
290
     1
  9
$CEPSNTYPE
380
     0
  9
$PSTYLEMODE
290
     1
  9
$FINGERPRINTGUID
  2

  9
$VERSIONGUID
  2

  9
$EXTNAMES
290
     1
  9
$PSVPSCALE
 40
0.0
  0
ENDSEC
  0
SECTION
  2
CLASSES
  0
CLASS
  1
LWPOLYLINE
  2
AcDbPolyline
  3
AutoCAD 2000
 90
        0
280
     0
281
     1
  0
CLASS
  1
IMAGE
  2
AcDbRasterImage
  3
ISM
 90
    32895
280
     0
281
     1
  0
CLASS
  1
OLE2FRAME
  2
AcDbOle2Frame
  3
AutoCAD 2000
 90
    32768
280
     0
281
     1
  0
CLASS
  1
HATCH
  2
AcDbHatch
  3
AutoCAD 2000
 90
    32768
280
     0
281
     1
  0
CLASS
  1
DICTIONARYVAR
  2
AcDbDictionaryVar
  3
AutoCAD 2000
 90
    32768
280
     0
281
     0
  0
CLASS
  1
RASTERVARIABLES
  2
AcDbRasterVariables
  3
ISM
 90
    32768
280
     0
281
     0
  0
CLASS
  1
IMAGEDEF
  2
AcDbRasterImageDef
  3
ISM
 90
    32768
280
     0
281
     0
  0
CLASS
  1
IMAGEDEF_REACTOR
  2
AcDbRasterImageDefReactor
  3
ISM
 90
    32769
280
     0
281
     0
  0
CLASS
  1
IDBUFFER
  2
AcDbIdBuffer
  3
AutoCAD 2000
 90
    32768
280
     0
281
     0
  0
CLASS
  1
SPATIAL_FILTER
  2
AcDbSpatialFilter
  3
AutoCAD 2000
 90
    32768
280
     0
281
     0
  0
CLASS
  1
XRECORD
  2
AcDbXrecord
  3
AutoCAD 2000
 90
    32768
280
     0
281
     0
  0
CLASS
  1
SORTENTSTABLE
  2
AcDbSortentsTable
  3
AutoCAD 2000
 90
    32768
280
     0
281
     0
  0
CLASS
  1
LAYER_INDEX
  2
AcDbLayerIndex
  3
AutoCAD 2000
 90
    32768
280
     0
281
     0
  0
CLASS
  1
SPATIAL_INDEX
  2
AcDbSpatialIndex
  3
AutoCAD 2000
 90
    32768
280
     0
281
     0
  0
CLASS
  1
OBJECT_PTR
  2
CAseDLPNTableRecord
  3
"ASE-LPNTableRecord"
 90
    32769
280
     0
281
     0
  0
CLASS
  1
LAYOUT
  2
AcDbLayout
  3
AutoCAD 2000
 90
        0
280
     0
281
     0
  0
CLASS
  1
PLOTSETTINGS
  2
AcDbPlotSettings
  3
AutoCAD 2000
 90
    32768
280
     0
281
     0
  0
CLASS
  1
ACDBDICTIONARYWDFLT
  2
AcDbDictionaryWithDefault
  3
AutoCAD 2000
 90
        0
280
     0
281
     0
  0
CLASS
  1
ACDBPLACEHOLDER
  2
AcDbPlaceHolder
  3
AutoCAD 2000
 90
        0
280
     0
281
     0
  0
CLASS
  1
VBA_PROJECT
  2
AcDbVbaProject
  3
acadvba
 90
    32768
280
     0
281
     0
  0
CLASS
  1
WIPEOUT
  2
AcDbWipeout
  3
WipeOut|AutoCAD Express Tool|expresstools@autodesk.com
 90
    32895
280
     0
281
     1
  0
CLASS
  1
WIPEOUTVARIABLES
  2
AcDbWipeoutVariables
  3
WipeOut|AutoCAD Express Tool|expresstools@autodesk.com
 90
        0
280
     0
281
     0
  0
CLASS
  1
RTEXT
  2
RText
  3
RText|AutoCAD Express Tool|expresstools@autodesk.com
 90
    32768
280
     0
281
     1
  0
CLASS
  1
ARCALIGNEDTEXT
  2
AcDbArcAlignedText
  3
ATEXT|AutoCAD Express Tool|expresstools@autodesk.com
 90
    32768
280
     0
281
     1
  0
ENDSEC
  0
SECTION
  2
TABLES
  0
TABLE
  2
VPORT
  5
7
100
AcDbSymbolTable
 70
     1
  0
VPORT
  5
15
100
AcDbSymbolTableRecord
100
AcDbViewportTableRecord
  2
*ACTIVE
 70
     0
 10
0.0
 20
0.0
 11
1.0
 21
1.0
 12
6.591288
 22
4.579184
 13
0.0
 23
0.0
 14
1.0
 24
1.0
 15
0.0
 25
0.0
 16
0.0
 26
0.0
 36
1.0
 17
0.0
 27
0.0
 37
0.0
 40
9.158369
 41
0.688564
 42
50.0
 43
0.0
 44
0.0
 50
0.0
 51
0.0
 71
     0
 72
   100
 73
     1
 74
     1
 75
     0
 76
     0
 77
     0
 78
     0
281
     0
 65
     0
110
0.0
120
0.0
130
0.0
111
1.0
121
0.0
131
0.0
112
0.0
122
1.0
132
0.0
345
0
346
0
 79
     0
146
0.0
  0
ENDTAB
  0
TABLE
  2
LTYPE
  5
4
100
AcDbSymbolTable
 70
     3
  0
LTYPE
  5
11
100
AcDbSymbolTableRecord
100
AcDbLinetypeTableRecord
  2
ByBlock
 70
    64
  3

 72
    65
 73
     0
 40
0.0
  0
LTYPE
  5
12
100
AcDbSymbolTableRecord
100
AcDbLinetypeTableRecord
  2
ByLayer
 70
    64
  3

 72
    65
 73
     0
 40
0.0
  0
LTYPE
  5
13
100
AcDbSymbolTableRecord
100
AcDbLinetypeTableRecord
  2
Continuous
 70
    64
  3
Solid line
 72
    65
 73
     0
 40
0.0
  0
ENDTAB
  0
TABLE
  2
LAYER
  5
2
100
AcDbSymbolTable
 70
     1
  0
LAYER
  5
14
100
AcDbSymbolTableRecord
100
AcDbLayerTableRecord
  2
0
 70
     0
 62
     7
  6
Continuous
290
     1
370
    -3
390
1D
  0
ENDTAB
  0
TABLE
  2
STYLE
  5
3
100
AcDbSymbolTable
 70
     1
  0
STYLE
  5
17
100
AcDbSymbolTableRecord
100
AcDbTextStyleTableRecord
  2
Standard
 70
     0
 40
0.0
 41
1.0
 50
0.0
 71
     0
 42
0.0
  3
txt
  4

  0
ENDTAB
  0
TABLE
  2
VIEW
  5
5
100
AcDbSymbolTable
 70
     0
  0
ENDTAB
  0
TABLE
  2
UCS
  5
6
100
AcDbSymbolTable
 70
     0
  0
ENDTAB
  0
TABLE
  2
APPID
  5
8
100
AcDbSymbolTable
 70
     1
  0
APPID
  5
16
100
AcDbSymbolTableRecord
100
AcDbRegAppTableRecord
  2
ACAD
 70
     0
  0
ENDTAB
  0
TABLE
  2
DIMSTYLE
  5
9
100
AcDbSymbolTable
 70
     1
100
AcDbDimStyleTable
 71
     0
  0
DIMSTYLE
105
18
100
AcDbSymbolTableRecord
100
AcDbDimStyleTableRecord
  2
Standard
 70
     0
  3

  4

 40
1.0
 41
0.18
 42
0.0625
 43
0.38
 44
0.18
 45
0.0
 46
0.0
 47
0.0
 48
0.0
 71
     0
 72
     0
 73
     1
 74
     1
 75
     0
 76
     0
 77
     0
 78
     0
 79
     0
140
0.18
141
0.09
142
0.0
143
25.4
144
1.0
145
0.0
146
1.0
147
0.09
148
0.0
170
     0
171
     2
172
     0
173
     0
174
     0
175
     0
176
     0
177
     0
178
     0
179
     0
271
     4
272
     4
273
     2
274
     2
275
     0
276
     0
277
     2
278
    46
279
     0
280
     0
281
     0
282
     0
283
     1
284
     0
285
     0
286
     0
288
     0
340
17
341
0
342
0
343
0
344
0
371
    -2
372
    -2
  0
ENDTAB
  0
TABLE
  2
BLOCK_RECORD
  5
1
100
AcDbSymbolTable
 70
     0
  0
BLOCK_RECORD
  5
A
100
AcDbSymbolTableRecord
100
AcDbBlockTableRecord
  2
*MODEL_SPACE
340
20
  0
BLOCK_RECORD
  5
B
100
AcDbSymbolTableRecord
100
AcDbBlockTableRecord
  2
*PAPER_SPACE
340
21
  0
ENDTAB
  0
ENDSEC
  0
SECTION
  2
BLOCKS
  0
BLOCK
  5
D
100
AcDbEntity
  8
0
100
AcDbBlockBegin
  2
*MODEL_SPACE
 70
     0
 10
0.0
 20
0.0
 30
0.0
  3
*MODEL_SPACE
  1

  0
ENDBLK
  5
E
100
AcDbEntity
  8
0
100
AcDbBlockEnd
  0
BLOCK
  5
F
100
AcDbEntity
 67
     1
  8
0
100
AcDbBlockBegin
  2
*PAPER_SPACE
 70
     0
 10
0.0
 20
0.0
 30
0.0
  3
*PAPER_SPACE
  1

  0
ENDBLK
  5
10
100
AcDbEntity
 67
     1
  8
0
100
AcDbBlockEnd
  0
ENDSEC
  0
SECTION
  2
ENTITIES
  0
MTEXT
  5
24
100
AcDbEntity
  8
0
 62
     0
100
AcDbMText
 10
-1.074492
 20
0.2495
 30
0.0
 40
0.166665
 41
0.0
 71
     1
 72
     1
  1
{\fBookman Old Style|b0|i0|c0|p32;BA  1403}
 73
     1
 44
1.0
  0
MTEXT
  5
25
100
AcDbEntity
  8
0
 62
     0
100
AcDbMText
 10
-1.074492
 20
0.062
 30
0.0
 40
0.166665
 41
0.0
 71
     1
 72
     1
  1
{\fBookman Old Style|b0|i0|c0|p32;1" x 5-5/16"}
 73
     1
 44
1.0
  0
LWPOLYLINE
  5
26
100
AcDbEntity
  8
0
 62
     0
100
AcDbPolyline
 90
        2
 70
     0
 39
0.01389
 10
2.597657
 20
1.166303
 40
0.01389
 41
0.01389
 10
2.472382
 20
1.166303
 40
0.01389
 41
0.01389
  0
LWPOLYLINE
  5
27
100
AcDbEntity
  8
0
 62
     0
100
AcDbPolyline
 90
        2
 70
     0
 39
0.01389
 10
2.472382
 20
1.166303
 40
0.01389
 41
0.01389
 10
1.627575
 20
1.166303
 40
0.01389
 41
0.01389
  0
LWPOLYLINE
  5
28
100
AcDbEntity
  8
0
 62
     0
100
AcDbPolyline
 90
        2
 70
     0
 39
0.01389
 10
1.627575
 20
1.166303
 40
0.01389
 41
0.01389
 10
1.608268
 20
1.05772
 40
0.01389
 41
0.01389
  0
SPLINE
  5
29
100
AcDbEntity
  8
0
 62
     0
100
AcDbSpline
210
0.0
220
0.0
230
1.0
 70
     0
 71
     3
 72
     0
 73
     0
 74
    32
 44
0.0000000001
 11
1.6082677165354331
 21
1.0577204724409448
 31
0.0
 11
1.5924094488188976
 21
1.0795511811023621
 31
0.0
 11
1.5756850393700788
 21
1.097
 31
0.0
 11
1.5582519685039371
 21
1.1103700787401576
 31
0.0
 11
1.5402952755905512
 21
1.1199763779527558
 31
0.0
 11
1.5219685039370079
 21
1.1261220472440945
 31
0.0
 11
1.5034606299212598
 21
1.1291338582677166
 31
0.0
 11
1.4849330708661417
 21
1.1293149606299213
 31
0.0
 11
1.4665590551181102
 21
1.126984251968504
 31
0.0
 11
1.4484999999999999
 21
1.1224370078740158
 31
0.0
 11
1.4309409448818897
 21
1.116003937007874
 31
0.0
 11
1.4140433070866141
 21
1.1079881889763779
 31
0.0
 11
1.397984251968504
 21
1.0987047244094488
 31
0.0
 11
1.3829291338582677
 21
1.0884606299212598
 31
0.0
 11
1.3690551181102362
 21
1.0775787401574803
 31
0.0
 11
1.356527559055118
 21
1.0663622047244095
 31
0.0
 11
1.34551968503937
 21
1.0551338582677166
 31
0.0
 11
1.335531496062992
 21
1.0441614173228346
 31
0.0
 11
1.3259566929133859
 21
1.0335669291338583
 31
0.0
 11
1.3167874015748031
 21
1.0233740157480316
 31
0.0
 11
1.3080354330708661
 21
1.0136299212598425
 31
0.0
 11
1.2996771653543306
 21
1.0043622047244094
 31
0.0
 11
1.2917283464566929
 21
0.9956141732283464
 31
0.0
 11
1.2841771653543308
 21
0.9874133858267716
 31
0.0
 11
1.277031496062992
 21
0.9798070866141733
 31
0.0
 11
1.270267716535433
 21
0.9728149606299212
 31
0.0
 11
1.2639094488188976
 21
0.9664921259842519
 31
0.0
 11
1.2579370078740157
 21
0.9608622047244094
 31
0.0
 11
1.2523582677165355
 21
0.9559685039370078
 31
0.0
 11
1.2471574803149605
 21
0.9518385826771654
 31
0.0
 11
1.2423464566929134
 21
0.9485236220472441
 31
0.0
 11
1.2379173228346456
 21
0.9460433070866142
 31
0.0
  0
LWPOLYLINE
  5
2A
100
AcDbEntity
  8
0
 62
     0
100
AcDbPolyline
 90
        2
 70
     0
 39
0.01389
 10
1.237917
 20
0.946043
 40
0.01389
 41
0.01389
 10
1.233866
 20
0.944449
 40
0.01389
 41
0.01389
  0
LWPOLYLINE
  5
2B
100
AcDbEntity
  8
0
 62
     0
100
AcDbPolyline
 90
        2
 70
     0
 39
0.01389
 10
1.233866
 20
0.944449
 40
0.01389
 41
0.01389
 10
1.226673
 20
0.944555
 40
0.01389
 41
0.01389
  0
SPLINE
  5
2C
100
AcDbEntity
  8
0
 62
     0
100
AcDbSpline
210
0.0
220
0.0
230
1.0
 70
     0
 71
     3
 72
     0
 73
     0
 74
    32
 44
0.0000000001
 11
1.2266732283464568
 21
0.9445551181102362
 31
0.0
 11
1.2243740157480314
 21
0.9575984251968503
 31
0.0
 11
1.2209212598425196
 21
0.9702165354330709
 31
0.0
 11
1.2163700787401575
 21
0.9823503937007874
 31
0.0
 11
1.2107795275590552
 21
0.9939527559055118
 31
0.0
 11
1.2042007874015748
 21
1.0049448818897637
 31
0.0
 11
1.1967047244094489
 21
1.0152913385826772
 31
0.0
 11
1.1883346456692914
 21
1.0249212598425197
 31
0.0
 11
1.1791614173228346
 21
1.0337874015748032
 31
0.0
 11
1.1692244094488189
 21
1.0418149606299212
 31
0.0
 11
1.1586023622047243
 21
1.0489645669291339
 31
0.0
 11
1.1473425196850393
 21
1.0551692913385826
 31
0.0
 11
1.1355039370078741
 21
1.0603779527559054
 31
0.0
 11
1.1231377952755905
 21
1.0645275590551182
 31
0.0
 11
1.1103149606299212
 21
1.0675629921259842
 31
0.0
 11
1.0970826771653543
 21
1.0694251968503936
 31
0.0
 11
1.0835118110236222
 21
1.0700629921259843
 31
0.0
 11
1.0699291338582677
 21
1.0694251968503936
 31
0.0
 11
1.0566968503937009
 21
1.0675629921259842
 31
0.0
 11
1.0438700787401576
 21
1.0645275590551182
 31
0.0
 11
1.031515748031496
 21
1.0603779527559054
 31
0.0
 11
1.0196732283464567
 21
1.0551692913385826
 31
0.0
 11
1.0084133858267716
 21
1.0489645669291339
 31
0.0
 11
0.9977913385826772
 21
1.0418149606299212
 31
0.0
 11
0.9878661417322835
 21
1.0337874015748032
 31
0.0
 11
0.9786850393700788
 21
1.0249212598425197
 31
0.0
 11
0.9703188976377953
 21
1.0152913385826772
 31
0.0
 11
0.9628149606299212
 21
1.0049448818897637
 31
0.0
 11
0.956248031496063
 21
0.9939527559055118
 31
0.0
 11
0.9506535433070866
 21
0.9823503937007874
 31
0.0
 11
0.9461062992125985
 21
0.9702165354330709
 31
0.0
 11
0.9426535433070866
 21
0.9575984251968503
 31
0.0
  0
LWPOLYLINE
  5
2D
100
AcDbEntity
  8
0
 62
     0
100
AcDbPolyline
 90
        2
 70
     0
 39
0.01389
 10
0.942654
 20
0.957598
 40
0.01389
 41
0.01389
 10
0.940366
 20
0.944555
 40
0.01389
 41
0.01389
  0
LWPOLYLINE
  5
2E
100
AcDbEntity
  8
0
 62
     0
100
AcDbPolyline
 90
        2
 70
     0
 39
0.01389
 10
0.940366
 20
0.944555
 40
0.01389
 41
0.01389
 10
0.922764
 20
0.944449
 40
0.01389
 41
0.01389
  0
SPLINE
  5
2F
100
AcDbEntity
  8
0
 62
     0
100
AcDbSpline
210
0.0
220
0.0
230
1.0
 70
     0
 71
     3
 72
     0
 73
     0
 74
    96
 44
0.0000000001
 11
0.9227637795275591
 21
0.9444488188976378
 31
0.0
 11
0.9204645669291338
 21
0.9574921259842519
 31
0.0
 11
0.9170118110236221
 21
0.9701102362204724
 31
0.0
 11
0.9124606299212599
 21
0.982244094488189
 31
0.0
 11
0.9068700787401575
 21
0.9938464566929134
 31
0.0
 11
0.9002913385826772
 21
1.0048425196850395
 31
0.0
 11
0.8927952755905512
 21
1.0151889763779527
 31
0.0
 11
0.8844251968503937
 21
1.0248188976377952
 31
0.0
 11
0.8752519685039371
 21
1.0336811023622048
 31
0.0
 11
0.8653149606299213
 21
1.0417086614173228
 31
0.0
 11
0.8546929133858268
 21
1.0488582677165355
 31
0.0
 11
0.8434330708661417
 21
1.0550629921259842
 31
0.0
 11
0.8315944881889764
 21
1.060271653543307
 31
0.0
 11
0.819228346456693
 21
1.0644212598425198
 31
0.0
 11
0.8064055118110236
 21
1.0674566929133857
 31
0.0
 11
0.7931732283464567
 21
1.0693188976377952
 31
0.0
 11
0.7796023622047245
 21
1.0699566929133859
 31
0.0
 11
0.7673818897637795
 21
1.0694566929133857
 31
0.0
 11
0.7554448818897638
 21
1.067988188976378
 31
0.0
 11
0.7438267716535433
 21
1.0655826771653543
 31
0.0
 11
0.7325669291338582
 21
1.0622874015748032
 31
0.0
 11
0.7217047244094488
 21
1.0581299212598425
 31
0.0
 11
0.7112952755905512
 21
1.0531574803149606
 31
0.0
 11
0.7013661417322835
 21
1.0474015748031495
 31
0.0
 11
0.6919685039370079
 21
1.0409094488188977
 31
0.0
 11
0.6831299212598425
 21
1.0337007874015749
 31
0.0
 11
0.6749133858267716
 21
1.0258307086614173
 31
0.0
 11
0.6673425196850393
 21
1.0173267716535432
 31
0.0
 11
0.6604763779527559
 21
1.0082362204724409
 31
0.0
 11
0.6543346456692913
 21
0.9985826771653543
 31
0.0
 11
0.6489803149606299
 21
0.9884212598425197
 31
0.0
 11
0.6444448818897638
 21
0.9777795275590552
 31
0.0
 11
0.6407795275590551
 21
0.9667047244094488
 31
0.0
 11
0.608763779527559
 21
0.9904645669291339
 31
0.0
 11
0.5743897637795276
 21
1.0119330708661418
 31
0.0
 11
0.5378149606299213
 21
1.031224409448819
 31
0.0
 11
0.4992125984251968
 21
1.0484645669291339
 31
0.0
 11
0.4587401574803149
 21
1.063748031496063
 31
0.0
 11
0.4165669291338583
 21
1.0772125984251968
 31
0.0
 11
0.3728622047244095
 21
1.0889566929133858
 31
0.0
 11
0.3277952755905512
 21
1.0991062992125984
 31
0.0
 11
0.281515748031496
 21
1.1077598425196851
 31
0.0
 11
0.2342047244094488
 21
1.1150551181102362
 31
0.0
 11
0.1860275590551181
 21
1.1210866141732283
 31
0.0
 11
0.1371496062992126
 21
1.1259881889763779
 31
0.0
 11
0.0877322834645669
 21
1.1298582677165354
 31
0.0
 11
0.0379448818897638
 21
1.1328228346456692
 31
0.0
 11
-0.0120433070866142
 21
1.1349921259842519
 31
0.0
 11
-0.0620708661417323
 21
1.136488188976378
 31
0.0
 11
-0.1121023622047244
 21
1.1349921259842519
 31
0.0
 11
-0.1621181102362205
 21
1.1328228346456692
 31
0.0
 11
-0.2119330708661417
 21
1.1298582677165354
 31
0.0
 11
-0.2613976377952756
 21
1.1259881889763779
 31
0.0
 11
-0.3103267716535433
 21
1.1210866141732283
 31
0.0
 11
-0.3585629921259843
 21
1.1150551181102362
 31
0.0
 11
-0.4059291338582677
 21
1.1077598425196851
 31
0.0
 11
-0.4522716535433071
 21
1.0991062992125984
 31
0.0
 11
-0.4973976377952756
 21
1.0889566929133858
 31
0.0
 11
-0.5411653543307087
 21
1.0772125984251968
 31
0.0
 11
-0.5833897637795276
 21
1.063748031496063
 31
0.0
 11
-0.6239173228346456
 21
1.0484645669291339
 31
0.0
 11
-0.6625629921259842
 21
1.031224409448819
 31
0.0
 11
-0.6991692913385826
 21
1.0119330708661418
 31
0.0
 11
-0.7335669291338582
 21
0.9904645669291339
 31
0.0
 11
-0.7655866141732284
 21
0.9667047244094488
 31
0.0
 11
-0.769251968503937
 21
0.9777795275590552
 31
0.0
 11
-0.7737874015748032
 21
0.9884212598425197
 31
0.0
 11
-0.7791417322834646
 21
0.9985826771653543
 31
0.0
 11
-0.7852834645669291
 21
1.0082362204724409
 31
0.0
 11
-0.7921496062992126
 21
1.0173267716535432
 31
0.0
 11
-0.7997204724409449
 21
1.0258307086614173
 31
0.0
 11
-0.8079370078740158
 21
1.0337007874015749
 31
0.0
 11
-0.8167755905511811
 21
1.0409094488188977
 31
0.0
 11
-0.8261732283464567
 21
1.0474015748031495
 31
0.0
 11
-0.8361023622047245
 21
1.0531574803149606
 31
0.0
 11
-0.8465118110236221
 21
1.0581299212598425
 31
0.0
 11
-0.8573740157480315
 21
1.0622874015748032
 31
0.0
 11
-0.8686338582677166
 21
1.0655826771653543
 31
0.0
 11
-0.8802519685039371
 21
1.067988188976378
 31
0.0
 11
-0.8921889763779528
 21
1.0694566929133857
 31
0.0
 11
-0.9044094488188976
 21
1.0699566929133859
 31
0.0
 11
-0.9179803149606299
 21
1.0693188976377952
 31
0.0
 11
-0.9312125984251969
 21
1.0674566929133857
 31
0.0
 11
-0.9440354330708661
 21
1.0644212598425198
 31
0.0
 11
-0.9564015748031496
 21
1.060271653543307
 31
0.0
 11
-0.968240157480315
 21
1.0550629921259842
 31
0.0
 11
-0.9795
 21
1.0488582677165355
 31
0.0
 11
-0.9901220472440945
 21
1.0417086614173228
 31
0.0
 11
-1.0000590551181103
 21
1.0336811023622048
 31
0.0
 11
-1.0092322834645668
 21
1.0248188976377952
 31
0.0
 11
-1.0176023622047243
 21
1.0151889763779527
 31
0.0
 11
-1.0250984251968505
 21
1.0048425196850395
 31
0.0
 11
-1.0316771653543306
 21
0.9938464566929134
 31
0.0
 11
-1.0372677165354331
 21
0.982244094488189
 31
0.0
 11
-1.0418188976377953
 21
0.9701102362204724
 31
0.0
 11
-1.0452716535433071
 21
0.9574921259842519
 31
0.0
  0
LWPOLYLINE
  5
30
100
AcDbEntity
  8
0
 62
     0
100
AcDbPolyline
 90
        2
 70
     0
 39
0.01389
 10
-1.045272
 20
0.957492
 40
0.01389
 41
0.01389
 10
-1.047571
 20
0.944449
 40
0.01389
 41
0.01389
  0
LWPOLYLINE
  5
31
100
AcDbEntity
  8
0
 62
     0
100
AcDbPolyline
 90
        2
 70
     0
 39
0.01389
 10
-1.047571
 20
0.944449
 40
0.01389
 41
0.01389
 10
-1.065173
 20
0.944555
 40
0.01389
 41
0.01389
  0
SPLINE
  5
32
100
AcDbEntity
  8
0
 62
     0
100
AcDbSpline
210
0.0
220
0.0
230
1.0
 70
     0
 71
     3
 72
     0
 73
     0
 74
    32
 44
0.0000000001
 11
-1.0651732283464568
 21
0.9445551181102362
 31
0.0
 11
-1.0674606299212599
 21
0.9575984251968503
 31
0.0
 11
-1.0709133858267716
 21
0.9702165354330709
 31
0.0
 11
-1.0754606299212599
 21
0.9823503937007874
 31
0.0
 11
-1.0810551181102361
 21
0.9939527559055118
 31
0.0
 11
-1.0876220472440945
 21
1.0049448818897637
 31
0.0
 11
-1.0951259842519685
 21
1.0152913385826772
 31
0.0
 11
-1.1034921259842521
 21
1.0249212598425197
 31
0.0
 11
-1.1126732283464567
 21
1.0337874015748032
 31
0.0
 11
-1.1225984251968504
 21
1.0418149606299212
 31
0.0
 11
-1.1332204724409449
 21
1.0489645669291339
 31
0.0
 11
-1.14448031496063
 21
1.0551692913385826
 31
0.0
 11
-1.1563228346456693
 21
1.0603779527559054
 31
0.0
 11
-1.1686771653543306
 21
1.0645275590551182
 31
0.0
 11
-1.1815039370078739
 21
1.0675629921259842
 31
0.0
 11
-1.194736220472441
 21
1.0694251968503936
 31
0.0
 11
-1.2083188976377952
 21
1.0700629921259843
 31
0.0
 11
-1.2218897637795276
 21
1.0694251968503936
 31
0.0
 11
-1.2351220472440945
 21
1.0675629921259842
 31
0.0
 11
-1.2479448818897638
 21
1.0645275590551182
 31
0.0
 11
-1.2603110236220472
 21
1.0603779527559054
 31
0.0
 11
-1.2721496062992126
 21
1.0551692913385826
 31
0.0
 11
-1.2834094488188976
 21
1.0489645669291339
 31
0.0
 11
-1.2940314960629922
 21
1.0418149606299212
 31
0.0
 11
-1.3039685039370079
 21
1.0337874015748032
 31
0.0
 11
-1.3131417322834646
 21
1.0249212598425197
 31
0.0
 11
-1.3215118110236221
 21
1.0152913385826772
 31
0.0
 11
-1.329007874015748
 21
1.0049448818897637
 31
0.0
 11
-1.3355866141732284
 21
0.9939527559055118
 31
0.0
 11
-1.3411771653543307
 21
0.9823503937007874
 31
0.0
 11
-1.3457283464566929
 21
0.9702165354330709
 31
0.0
 11
-1.3491811023622047
 21
0.9575984251968503
 31
0.0
  0
LWPOLYLINE
  5
33
100
AcDbEntity
  8
0
 62
     0
100
AcDbPolyline
 90
        2
 70
     0
 39
0.01389
 10
-1.349181
 20
0.957598
 40
0.01389
 41
0.01389
 10
-1.35148
 20
0.944555
 40
0.01389
 41
0.01389
  0
LWPOLYLINE
  5
34
100
AcDbEntity
  8
0
 62
     0
100
AcDbPolyline
 90
        2
 70
     0
 39
0.01389
 10
-1.35148
 20
0.944555
 40
0.01389
 41
0.01389
 10
-1.358673
 20
0.944449
 40
0.01389
 41
0.01389
  0
SPLINE
  5
35
100
AcDbEntity
  8
0
 62
     0
100
AcDbSpline
210
0.0
220
0.0
230
1.0
 70
     0
 71
     3
 72
     0
 73
     0
 74
    32
 44
0.0000000001
 11
-1.3586732283464567
 21
0.9444488188976378
 31
0.0
 11
-1.3627244094488189
 21
0.9460433070866142
 31
0.0
 11
-1.3671535433070867
 21
0.9485236220472441
 31
0.0
 11
-1.3719645669291338
 21
0.9518385826771654
 31
0.0
 11
-1.3771653543307087
 21
0.9559685039370078
 31
0.0
 11
-1.382744094488189
 21
0.9608622047244094
 31
0.0
 11
-1.3887165354330708
 21
0.9664921259842519
 31
0.0
 11
-1.3950748031496063
 21
0.9728149606299212
 31
0.0
 11
-1.4018385826771653
 21
0.9798070866141733
 31
0.0
 11
-1.4089842519685039
 21
0.9874133858267716
 31
0.0
 11
-1.4165354330708662
 21
0.9956141732283464
 31
0.0
 11
-1.4244842519685039
 21
1.0043622047244094
 31
0.0
 11
-1.4328425196850394
 21
1.0136299212598425
 31
0.0
 11
-1.4415944881889764
 21
1.0233740157480316
 31
0.0
 11
-1.450763779527559
 21
1.0335669291338583
 31
0.0
 11
-1.4603385826771653
 21
1.0441614173228346
 31
0.0
 11
-1.4703267716535433
 21
1.0551338582677166
 31
0.0
 11
-1.4813346456692913
 21
1.0663622047244095
 31
0.0
 11
-1.4938622047244094
 21
1.0775787401574803
 31
0.0
 11
-1.5077362204724409
 21
1.0884606299212598
 31
0.0
 11
-1.5227913385826772
 21
1.0987047244094488
 31
0.0
 11
-1.5388503937007874
 21
1.1079881889763779
 31
0.0
 11
-1.555748031496063
 21
1.116003937007874
 31
0.0
 11
-1.5733070866141732
 21
1.1224370078740158
 31
0.0
 11
-1.5913661417322835
 21
1.126984251968504
 31
0.0
 11
-1.609740157480315
 21
1.1293149606299213
 31
0.0
 11
-1.6282677165354331
 21
1.1291338582677166
 31
0.0
 11
-1.6467755905511812
 21
1.1261220472440945
 31
0.0
 11
-1.6651023622047245
 21
1.1199763779527558
 31
0.0
 11
-1.6830590551181102
 21
1.1103700787401576
 31
0.0
 11
-1.700492125984252
 21
1.097
 31
0.0
 11
-1.7172165354330708
 21
1.0795511811023621
 31
0.0
  0
LWPOLYLINE
  5
36
100
AcDbEntity
  8
0
 62
     0
100
AcDbPolyline
 90
        2
 70
     0
 39
0.01389
 10
-1.717217
 20
1.079551
 40
0.01389
 41
0.01389
 10
-1.733075
 20
1.05772
 40
0.01389
 41
0.01389
  0
LWPOLYLINE
  5
37
100
AcDbEntity
  8
0
 62
     0
100
AcDbPolyline
 90
        2
 70
     0
 39
0.01389
 10
-1.733075
 20
1.05772
 40
0.01389
 41
0.01389
 10
-1.752382
 20
1.166303
 40
0.01389
 41
0.01389
  0
LWPOLYLINE
  5
38
100
AcDbEntity
  8
0
 62
     0
100
AcDbPolyline
 90
        2
 70
     0
 39
0.01389
 10
-1.752382
 20
1.166303
 40
0.01389
 41
0.01389
 10
-2.597189
 20
1.166303
 40
0.01389
 41
0.01389
  0
LWPOLYLINE
  5
39
100
AcDbEntity
  8
0
 62
     0
100
AcDbPolyline
 90
        2
 70
     0
 39
0.01389
 10
-2.597189
 20
1.166303
 40
0.01389
 41
0.01389
 10
-2.721925
 20
1.166303
 40
0.01389
 41
0.01389
  0
LWPOLYLINE
  5
3A
100
AcDbEntity
  8
0
 62
     0
100
AcDbPolyline
 90
        2
 70
     0
 39
0.01389
 10
-2.721925
 20
1.166303
 40
0.01389
 41
0.01389
 10
-2.721925
 20
0.166303
 40
0.01389
 41
0.01389
  0
LWPOLYLINE
  5
3B
100
AcDbEntity
  8
0
 62
     0
100
AcDbPolyline
 90
        2
 70
     0
 39
0.01389
 10
-2.721925
 20
0.166303
 40
0.01389
 41
0.01389
 10
2.600339
 20
0.166303
 40
0.01389
 41
0.01389
  0
LWPOLYLINE
  5
3C
100
AcDbEntity
  8
0
 62
     0
100
AcDbPolyline
 90
        2
 70
     0
 39
0.01389
 10
2.600339
 20
0.166303
 40
0.01389
 41
0.01389
 10
2.597657
 20
1.166303
 40
0.01389
 41
0.01389
  0
MTEXT
  5
3D
100
AcDbEntity
  8
0
 62
     0
100
AcDbMText
 10
1.774307
 20
0.550953
 30
0.0
 40
0.11111
 41
0.0
 71
     1
 72
     1
  1
{\fBookman Old Style|b0|i0|c0|p32;Casing}
 73
     1
 44
1.0
  0
MTEXT
  5
3E
100
AcDbEntity
  8
0
 62
     0
100
AcDbMText
 10
1.774307
 20
0.425957
 30
0.0
 40
0.11111
 41
0.0
 71
     1
 72
     1
  1
{\fBookman Old Style|b0|i0|c0|p32;BA  1391}
 73
     1
 44
1.0
  0
ENDSEC
  0
SECTION
  2
OBJECTS
  0
DICTIONARY
  5
19
100
AcDbDictionary
280
     0
281
     1
  3
ACAD_GROUP
350
1A
  3
ACAD_MLINESTYLE
350
1B
  3
ACAD_LAYOUT
350
1E
  3
ACAD_PLOTSETTINGS
350
22
  3
ACAD_PLOTSTYLENAME
350
1F
  3
ACAD_WIPEOUT_VARS
350
23
  0
DICTIONARY
  5
1A
102
{ACAD_REACTORS
330
19
102
}
100
AcDbDictionary
280
     0
281
     1
  0
DICTIONARY
  5
1B
102
{ACAD_REACTORS
330
19
102
}
100
AcDbDictionary
280
     0
281
     1
  3
Standard
350
1C
  0
MLINESTYLE
  5
1C
102
{ACAD_REACTORS
330
1B
102
}
100
AcDbMlineStyle
  2
Standard
 70
     0
  3

 62
     0
 51
90.0
 52
90.0
 71
     2
 49
0.5
 62
   256
  6
BYLAYER
 49
-0.5
 62
   256
  6
BYLAYER
  0
ACDBDICTIONARYWDFLT
  5
1F
102
{ACAD_REACTORS
330
19
102
}
100
AcDbDictionary
281
     1
  3
Normal
350
1D
100
AcDbDictionaryWithDefault
340
1D
  0
ACDBPLACEHOLDER
  5
1D
102
{ACAD_REACTORS
330
1F
102
}
  0
LAYOUT
  5
20
102
{ACAD_REACTORS
330
1E
102
}
100
AcDbPlotSettings
  1

  2

  4

  6

 40
0.0
 41
0.0
 42
0.0
 43
0.0
 44
0.0
 45
0.0
 46
0.0
 47
0.0
 48
0.0
 49
0.0
140
0.0
141
0.0
142
1.0
143
1.0
 70
  1024
 72
     0
 73
     0
 74
     0
  7

 75
     0
147
1.0
148
0.0
149
0.0
100
AcDbLayout
  1
Model
 70
     0
 71
     0
 10
0.0
 20
0.0
 11
0.0
 21
0.0
 12
0.0
 22
0.0
 32
0.0
 14
0.0
 24
0.0
 34
0.0
 15
0.0
 25
0.0
 35
0.0
146
0.0
 13
0.0
 23
0.0
 33
0.0
 16
0.0
 26
0.0
 36
0.0
 17
0.0
 27
0.0
 37
0.0
 76
     0
330
A
331
0
345
0
346
0
  0
LAYOUT
  5
21
102
{ACAD_REACTORS
330
1E
102
}
100
AcDbPlotSettings
  1

  2

  4

  6

 40
0.0
 41
0.0
 42
0.0
 43
0.0
 44
0.0
 45
0.0
 46
0.0
 47
0.0
 48
0.0
 49
0.0
140
0.0
141
0.0
142
1.0
143
1.0
 70
     0
 72
     0
 73
     0
 74
     0
  7

 75
     0
147
1.0
148
0.0
149
0.0
100
AcDbLayout
  1
Layout1
 70
     0
 71
     0
 10
0.0
 20
0.0
 11
0.0
 21
0.0
 12
0.0
 22
0.0
 32
0.0
 14
0.0
 24
0.0
 34
0.0
 15
0.0
 25
0.0
 35
0.0
146
0.0
 13
0.0
 23
0.0
 33
0.0
 16
0.0
 26
0.0
 36
0.0
 17
0.0
 27
0.0
 37
0.0
 76
     0
330
B
331
0
345
0
346
0
  0
DICTIONARY
  5
1E
102
{ACAD_REACTORS
330
19
102
}
100
AcDbDictionary
280
     0
281
     1
  3
Layout1
350
21
  3
Model
350
20
  0
DICTIONARY
  5
22
102
{ACAD_REACTORS
330
19
102
}
100
AcDbDictionary
280
     0
281
     1
  0
WIPEOUTVARIABLES
  5
23
100
AcDbWipeoutVariables
 70
     1
  0
ENDSEC
  0
EOF
