  0
SECTION
  2
HEADER
  9
$ACADVER
  1
AC1015
  9
$ACADMAINTVER
 70
     6
  9
$DWGCODEPAGE
  3
DOS850
  9
$INSBASE
 10
0.0
 20
0.0
 30
0.0
  9
$EXTMIN
 10
1.000000E+20
 20
1.000000E+20
 30
1.000000E+20
  9
$EXTMAX
 10
-1.000000E+20
 20
-1.000000E+20
 30
-1.000000E+20
  9
$LIMMIN
 10
0.0
 20
0.0
  9
$LIMMAX
 10
0.0
 20
0.0
  9
$ORTHOMODE
 70
     0
  9
$REGENMODE
 70
     1
  9
$FILLMODE
 70
     1
  9
$QTEXTMODE
 70
     0
  9
$MIRRTEXT
 70
     1
  9
$LTSCALE
 40
1.0
  9
$ATTMODE
 70
     1
  9
$TEXTSIZE
 40
0.2
  9
$TRACEWID
 40
0.05
  9
$TEXTSTYLE
  7
Standard
  9
$CLAYER
  8
0
  9
$CELTYPE
  6
Continuous
  9
$CECOLOR
 62
   256
  9
$CELTSCALE
 40
1.0
  9
$DISPSILH
 70
     0
  9
$DIMSCALE
 40
1.0
  9
$DIMASZ
 40
0.18
  9
$DIMEXO
 40
0.0625
  9
$DIMDLI
 40
0.38
  9
$DIMRND
 40
0.0
  9
$DIMDLE
 40
0.0
  9
$DIMEXE
 40
0.18
  9
$DIMTP
 40
0.0
  9
$DIMTM
 40
0.0
  9
$DIMTXT
 40
0.18
  9
$DIMCEN
 40
0.09
  9
$DIMTSZ
 40
0.0
  9
$DIMTOL
 70
     0
  9
$DIMLIM
 70
     0
  9
$DIMTIH
 70
     1
  9
$DIMTOH
 70
     1
  9
$DIMSE1
 70
     0
  9
$DIMSE2
 70
     0
  9
$DIMTAD
 70
     0
  9
$DIMZIN
 70
     0
  9
$DIMBLK
  1

  9
$DIMASO
 70
     1
  9
$DIMSHO
 70
     1
  9
$DIMPOST
  1

  9
$DIMAPOST
  1

  9
$DIMALT
 70
     0
  9
$DIMALTD
 70
     2
  9
$DIMALTF
 40
25.4
  9
$DIMLFAC
 40
1.0
  9
$DIMTOFL
 70
     0
  9
$DIMTVP
 40
0.0
  9
$DIMTIX
 70
     0
  9
$DIMSOXD
 70
     0
  9
$DIMSAH
 70
     0
  9
$DIMBLK1
  1

  9
$DIMBLK2
  1

  9
$DIMSTYLE
  2
Standard
  9
$DIMCLRD
 70
     0
  9
$DIMCLRE
 70
     0
  9
$DIMCLRT
 70
     0
  9
$DIMTFAC
 40
1.0
  9
$DIMGAP
 40
0.09
  9
$DIMJUST
 70
     0
  9
$DIMSD1
 70
     0
  9
$DIMSD2
 70
     0
  9
$DIMTOLJ
 70
     1
  9
$DIMTZIN
 70
     0
  9
$DIMALTZ
 70
     0
  9
$DIMALTTZ
 70
     0
  9
$DIMUPT
 70
     0
  9
$DIMDEC
 70
     4
  9
$DIMTDEC
 70
     4
  9
$DIMALTU
 70
     2
  9
$DIMALTTD
 70
     2
  9
$DIMTXSTY
  7
Standard
  9
$DIMAUNIT
 70
     0
  9
$DIMADEC
 70
     0
  9
$DIMALTRND
 40
0.0
  9
$DIMAZIN
 70
     0
  9
$DIMDSEP
 70
     0
  9
$DIMATFIT
 70
     3
  9
$DIMFRAC
 70
     0
  9
$DIMLDRBLK
  1

  9
$DIMLUNIT
 70
     2
  9
$DIMLWD
 70
     0
  9
$DIMLWE
 70
     0
  9
$DIMTMOVE
 70
     0
  9
$LUNITS
 70
     2
  9
$LUPREC
 70
     4
  9
$SKETCHINC
 40
0.1
  9
$FILLETRAD
 40
0.0
  9
$AUNITS
 70
     0
  9
$AUPREC
 70
     0
  9
$MENU
  1
acad
  9
$ELEVATION
 40
0.0
  9
$PELEVATION
 40
0.0
  9
$THICKNESS
 40
0.0
  9
$LIMCHECK
 70
     0
  9
$CHAMFERA
 40
0.0
  9
$CHAMFERB
 40
0.0
  9
$CHAMFERC
 40
0.0
  9
$CHAMFERD
 40
0.0
  9
$SKPOLY
 70
     0
  9
$TDCREATE
 40
0.000000000
  9
$TDUCREATE
 40
0.000000000
  9
$TDUPDATE
 40
0.000000000
  9
$TDUUPDATE
 40
0.000000000
  9
$TDINDWG
 40
0.0000000000
  9
$TDUSRTIMER
 40
0.0000000000
  9
$USRTIMER
 70
     1
  9
$ANGBASE
 50
0.0
  9
$ANGDIR
 70
     0
  9
$PDMODE
 70
     0
  9
$PDSIZE
 40
0.0
  9
$PLINEWID
 40
0.0
  9
$SPLFRAME
 70
     0
  9
$SPLINETYPE
 70
     6
  9
$SPLINESEGS
 70
     8
  9
$HANDSEED
  5
40A
  9
$SURFTAB1
 70
     6
  9
$SURFTAB2
 70
     6
  9
$SURFTYPE
 70
     6
  9
$SURFU
 70
     6
  9
$SURFV
 70
     6
  9
$UCSBASE
  2

  9
$UCSNAME
  2

  9
$UCSORG
 10
0.0
 20
0.0
 30
0.0
  9
$UCSXDIR
 10
1.0
 20
0.0
 30
0.0
  9
$UCSYDIR
 10
0.0
 20
1.0
 30
0.0
  9
$UCSORTHOREF
  2

  9
$UCSORTHOVIEW
 70
     0
  9
$UCSORGTOP
 10
0.0
 20
0.0
 30
0.0
  9
$UCSORGBOTTOM
 10
0.0
 20
0.0
 30
0.0
  9
$UCSORGLEFT
 10
0.0
 20
0.0
 30
0.0
  9
$UCSORGRIGHT
 10
0.0
 20
0.0
 30
0.0
  9
$UCSORGFRONT
 10
0.0
 20
0.0
 30
0.0
  9
$UCSORGBACK
 10
0.0
 20
0.0
 30
0.0
  9
$PUCSBASE
  2

  9
$PUCSNAME
  2

  9
$PUCSORG
 10
0.0
 20
0.0
 30
0.0
  9
$PUCSXDIR
 10
1.0
 20
0.0
 30
0.0
  9
$PUCSYDIR
 10
0.0
 20
1.0
 30
0.0
  9
$PUCSORTHOREF
  2

  9
$PUCSORTHOVIEW
 70
     0
  9
$PUCSORGTOP
 10
0.0
 20
0.0
 30
0.0
  9
$PUCSORGBOTTOM
 10
0.0
 20
0.0
 30
0.0
  9
$PUCSORGLEFT
 10
0.0
 20
0.0
 30
0.0
  9
$PUCSORGRIGHT
 10
0.0
 20
0.0
 30
0.0
  9
$PUCSORGFRONT
 10
0.0
 20
0.0
 30
0.0
  9
$PUCSORGBACK
 10
0.0
 20
0.0
 30
0.0
  9
$USERI1
 70
     0
  9
$USERI2
 70
     0
  9
$USERI3
 70
     0
  9
$USERI4
 70
     0
  9
$USERI5
 70
     0
  9
$USERR1
 40
0.0
  9
$USERR2
 40
0.0
  9
$USERR3
 40
0.0
  9
$USERR4
 40
0.0
  9
$USERR5
 40
0.0
  9
$WORLDVIEW
 70
     1
  9
$SHADEDGE
 70
     3
  9
$SHADEDIF
 70
    70
  9
$TILEMODE
 70
     1
  9
$MAXACTVP
 70
    16
  9
$PINSBASE
 10
0.0
 20
0.0
 30
0.0
  9
$PLIMCHECK
 70
     0
  9
$PEXTMIN
 10
1.000000E+20
 20
1.000000E+20
 30
1.000000E+20
  9
$PEXTMAX
 10
-1.000000E+20
 20
-1.000000E+20
 30
-1.000000E+20
  9
$PLIMMIN
 10
0.0
 20
0.0
  9
$PLIMMAX
 10
12.0
 20
9.0
  9
$UNITMODE
 70
     0
  9
$VISRETAIN
 70
     0
  9
$PLINEGEN
 70
     1
  9
$PSLTSCALE
 70
     0
  9
$TREEDEPTH
 70
  3020
  9
$CMLSTYLE
  2
Standard
  9
$CMLJUST
 70
     0
  9
$CMLSCALE
 40
1.0
  9
$PROXYGRAPHICS
 70
     0
  9
$MEASUREMENT
 70
     0
  9
$CELWEIGHT
370
     0
  9
$ENDCAPS
280
     0
  9
$JOINSTYLE
280
     0
  9
$LWDISPLAY
290
     0
  9
$INSUNITS
 70
     0
  9
$HYPERLINKBASE
  1

  9
$XEDIT
290
     1
  9
$CEPSNTYPE
380
     0
  9
$PSTYLEMODE
290
     1
  9
$FINGERPRINTGUID
  2

  9
$VERSIONGUID
  2

  9
$EXTNAMES
290
     1
  9
$PSVPSCALE
 40
0.0
  0
ENDSEC
  0
SECTION
  2
CLASSES
  0
CLASS
  1
LWPOLYLINE
  2
AcDbPolyline
  3
AutoCAD 2000
 90
        0
280
     0
281
     1
  0
CLASS
  1
IMAGE
  2
AcDbRasterImage
  3
ISM
 90
    32895
280
     0
281
     1
  0
CLASS
  1
OLE2FRAME
  2
AcDbOle2Frame
  3
AutoCAD 2000
 90
    32768
280
     0
281
     1
  0
CLASS
  1
HATCH
  2
AcDbHatch
  3
AutoCAD 2000
 90
    32768
280
     0
281
     1
  0
CLASS
  1
DICTIONARYVAR
  2
AcDbDictionaryVar
  3
AutoCAD 2000
 90
    32768
280
     0
281
     0
  0
CLASS
  1
RASTERVARIABLES
  2
AcDbRasterVariables
  3
ISM
 90
    32768
280
     0
281
     0
  0
CLASS
  1
IMAGEDEF
  2
AcDbRasterImageDef
  3
ISM
 90
    32768
280
     0
281
     0
  0
CLASS
  1
IMAGEDEF_REACTOR
  2
AcDbRasterImageDefReactor
  3
ISM
 90
    32769
280
     0
281
     0
  0
CLASS
  1
IDBUFFER
  2
AcDbIdBuffer
  3
AutoCAD 2000
 90
    32768
280
     0
281
     0
  0
CLASS
  1
SPATIAL_FILTER
  2
AcDbSpatialFilter
  3
AutoCAD 2000
 90
    32768
280
     0
281
     0
  0
CLASS
  1
XRECORD
  2
AcDbXrecord
  3
AutoCAD 2000
 90
    32768
280
     0
281
     0
  0
CLASS
  1
SORTENTSTABLE
  2
AcDbSortentsTable
  3
AutoCAD 2000
 90
    32768
280
     0
281
     0
  0
CLASS
  1
LAYER_INDEX
  2
AcDbLayerIndex
  3
AutoCAD 2000
 90
    32768
280
     0
281
     0
  0
CLASS
  1
SPATIAL_INDEX
  2
AcDbSpatialIndex
  3
AutoCAD 2000
 90
    32768
280
     0
281
     0
  0
CLASS
  1
OBJECT_PTR
  2
CAseDLPNTableRecord
  3
"ASE-LPNTableRecord"
 90
    32769
280
     0
281
     0
  0
CLASS
  1
LAYOUT
  2
AcDbLayout
  3
AutoCAD 2000
 90
        0
280
     0
281
     0
  0
CLASS
  1
PLOTSETTINGS
  2
AcDbPlotSettings
  3
AutoCAD 2000
 90
    32768
280
     0
281
     0
  0
CLASS
  1
ACDBDICTIONARYWDFLT
  2
AcDbDictionaryWithDefault
  3
AutoCAD 2000
 90
        0
280
     0
281
     0
  0
CLASS
  1
ACDBPLACEHOLDER
  2
AcDbPlaceHolder
  3
AutoCAD 2000
 90
        0
280
     0
281
     0
  0
CLASS
  1
VBA_PROJECT
  2
AcDbVbaProject
  3
acadvba
 90
    32768
280
     0
281
     0
  0
CLASS
  1
WIPEOUT
  2
AcDbWipeout
  3
WipeOut|AutoCAD Express Tool|expresstools@autodesk.com
 90
    32895
280
     0
281
     1
  0
CLASS
  1
WIPEOUTVARIABLES
  2
AcDbWipeoutVariables
  3
WipeOut|AutoCAD Express Tool|expresstools@autodesk.com
 90
        0
280
     0
281
     0
  0
CLASS
  1
RTEXT
  2
RText
  3
RText|AutoCAD Express Tool|expresstools@autodesk.com
 90
    32768
280
     0
281
     1
  0
CLASS
  1
ARCALIGNEDTEXT
  2
AcDbArcAlignedText
  3
ATEXT|AutoCAD Express Tool|expresstools@autodesk.com
 90
    32768
280
     0
281
     1
  0
ENDSEC
  0
SECTION
  2
TABLES
  0
TABLE
  2
VPORT
  5
7
100
AcDbSymbolTable
 70
     1
  0
VPORT
  5
15
100
AcDbSymbolTableRecord
100
AcDbViewportTableRecord
  2
*ACTIVE
 70
     0
 10
0.0
 20
0.0
 11
1.0
 21
1.0
 12
6.591288
 22
4.579184
 13
0.0
 23
0.0
 14
1.0
 24
1.0
 15
0.0
 25
0.0
 16
0.0
 26
0.0
 36
1.0
 17
0.0
 27
0.0
 37
0.0
 40
9.158369
 41
0.688564
 42
50.0
 43
0.0
 44
0.0
 50
0.0
 51
0.0
 71
     0
 72
   100
 73
     1
 74
     1
 75
     0
 76
     0
 77
     0
 78
     0
281
     0
 65
     0
110
0.0
120
0.0
130
0.0
111
1.0
121
0.0
131
0.0
112
0.0
122
1.0
132
0.0
345
0
346
0
 79
     0
146
0.0
  0
ENDTAB
  0
TABLE
  2
LTYPE
  5
4
100
AcDbSymbolTable
 70
     3
  0
LTYPE
  5
11
100
AcDbSymbolTableRecord
100
AcDbLinetypeTableRecord
  2
ByBlock
 70
    64
  3

 72
    65
 73
     0
 40
0.0
  0
LTYPE
  5
12
100
AcDbSymbolTableRecord
100
AcDbLinetypeTableRecord
  2
ByLayer
 70
    64
  3

 72
    65
 73
     0
 40
0.0
  0
LTYPE
  5
13
100
AcDbSymbolTableRecord
100
AcDbLinetypeTableRecord
  2
Continuous
 70
    64
  3
Solid line
 72
    65
 73
     0
 40
0.0
  0
ENDTAB
  0
TABLE
  2
LAYER
  5
2
100
AcDbSymbolTable
 70
     1
  0
LAYER
  5
14
100
AcDbSymbolTableRecord
100
AcDbLayerTableRecord
  2
0
 70
     0
 62
     7
  6
Continuous
290
     1
370
    -3
390
1D
  0
ENDTAB
  0
TABLE
  2
STYLE
  5
3
100
AcDbSymbolTable
 70
     1
  0
STYLE
  5
17
100
AcDbSymbolTableRecord
100
AcDbTextStyleTableRecord
  2
Standard
 70
     0
 40
0.0
 41
1.0
 50
0.0
 71
     0
 42
0.0
  3
txt
  4

  0
ENDTAB
  0
TABLE
  2
VIEW
  5
5
100
AcDbSymbolTable
 70
     0
  0
ENDTAB
  0
TABLE
  2
UCS
  5
6
100
AcDbSymbolTable
 70
     0
  0
ENDTAB
  0
TABLE
  2
APPID
  5
8
100
AcDbSymbolTable
 70
     1
  0
APPID
  5
16
100
AcDbSymbolTableRecord
100
AcDbRegAppTableRecord
  2
ACAD
 70
     0
  0
ENDTAB
  0
TABLE
  2
DIMSTYLE
  5
9
100
AcDbSymbolTable
 70
     1
100
AcDbDimStyleTable
 71
     0
  0
DIMSTYLE
105
18
100
AcDbSymbolTableRecord
100
AcDbDimStyleTableRecord
  2
Standard
 70
     0
  3

  4

 40
1.0
 41
0.18
 42
0.0625
 43
0.38
 44
0.18
 45
0.0
 46
0.0
 47
0.0
 48
0.0
 71
     0
 72
     0
 73
     1
 74
     1
 75
     0
 76
     0
 77
     0
 78
     0
 79
     0
140
0.18
141
0.09
142
0.0
143
25.4
144
1.0
145
0.0
146
1.0
147
0.09
148
0.0
170
     0
171
     2
172
     0
173
     0
174
     0
175
     0
176
     0
177
     0
178
     0
179
     0
271
     4
272
     4
273
     2
274
     2
275
     0
276
     0
277
     2
278
    46
279
     0
280
     0
281
     0
282
     0
283
     1
284
     0
285
     0
286
     0
288
     0
340
17
341
0
342
0
343
0
344
0
371
    -2
372
    -2
  0
ENDTAB
  0
TABLE
  2
BLOCK_RECORD
  5
1
100
AcDbSymbolTable
 70
     0
  0
BLOCK_RECORD
  5
A
100
AcDbSymbolTableRecord
100
AcDbBlockTableRecord
  2
*MODEL_SPACE
340
20
  0
BLOCK_RECORD
  5
B
100
AcDbSymbolTableRecord
100
AcDbBlockTableRecord
  2
*PAPER_SPACE
340
21
  0
ENDTAB
  0
ENDSEC
  0
SECTION
  2
BLOCKS
  0
BLOCK
  5
D
100
AcDbEntity
  8
0
100
AcDbBlockBegin
  2
*MODEL_SPACE
 70
     0
 10
0.0
 20
0.0
 30
0.0
  3
*MODEL_SPACE
  1

  0
ENDBLK
  5
E
100
AcDbEntity
  8
0
100
AcDbBlockEnd
  0
BLOCK
  5
F
100
AcDbEntity
 67
     1
  8
0
100
AcDbBlockBegin
  2
*PAPER_SPACE
 70
     0
 10
0.0
 20
0.0
 30
0.0
  3
*PAPER_SPACE
  1

  0
ENDBLK
  5
10
100
AcDbEntity
 67
     1
  8
0
100
AcDbBlockEnd
  0
ENDSEC
  0
SECTION
  2
ENTITIES
  0
LWPOLYLINE
  5
24
100
AcDbEntity
  8
0
 62
     0
100
AcDbPolyline
 90
        2
 70
     0
 39
0.003
 10
2.518874
 20
3.00348
 40
0.003
 41
0.003
 10
2.518874
 20
3.241894
 40
0.003
 41
0.003
  0
SPLINE
  5
25
100
AcDbEntity
  8
0
 62
     0
100
AcDbSpline
210
0.0
220
0.0
230
1.0
 70
     0
 71
     3
 72
     0
 73
     0
 74
    32
 44
0.0000000001
 11
2.5188740157480316
 21
3.2418937007874016
 31
0.0
 11
2.4598700787401575
 21
3.2444133858267716
 31
0.0
 11
2.4026102362204727
 21
3.2524291338582678
 31
0.0
 11
2.3481929133858266
 21
3.2651456692913388
 31
0.0
 11
2.2977401574803151
 21
3.2817834645669293
 31
0.0
 11
2.2523425196850395
 21
3.3015472440944884
 31
0.0
 11
2.2131299212598425
 21
3.3236614173228345
 31
0.0
 11
2.181204724409449
 21
3.3473307086614175
 31
0.0
 11
2.1576771653543307
 21
3.3717834645669291
 31
0.0
 11
2.1436496062992125
 21
3.3962165354330707
 31
0.0
 11
2.1402401574803149
 21
3.4198582677165352
 31
0.0
 11
2.1485590551181102
 21
3.4419094488188975
 31
0.0
 11
2.169712598425197
 21
3.4616062992125984
 31
0.0
 11
2.2048070866141734
 21
3.4781417322834645
 31
0.0
 11
2.2549645669291341
 21
3.4907440944881891
 31
0.0
 11
2.3212874015748031
 21
3.4986181102362206
 31
0.0
 11
2.4048858267716535
 21
3.5009881889763781
 31
0.0
 11
2.3992086614173229
 21
3.5916811023622048
 31
0.0
 11
2.3837283464566927
 21
3.6775866141732285
 31
0.0
 11
2.3589566929133858
 21
3.7587992125984253
 31
0.0
 11
2.3254173228346455
 21
3.8354212598425197
 31
0.0
 11
2.2836181102362203
 21
3.9075433070866143
 31
0.0
 11
2.2340944881889762
 21
3.9752755905511812
 31
0.0
 11
2.1773582677165355
 21
4.0387125984251968
 31
0.0
 11
2.1139330708661417
 21
4.0979566929133862
 31
0.0
 11
2.0443228346456692
 21
4.1530984251968501
 31
0.0
 11
1.9690669291338583
 21
4.2042480314960633
 31
0.0
 11
1.8886692913385827
 21
4.2514960629921257
 31
0.0
 11
1.8036653543307086
 21
4.2949566929133862
 31
0.0
 11
1.7145590551181102
 21
4.3347125984251971
 31
0.0
 11
1.6218818897637794
 21
4.3708740157480319
 31
0.0
 11
1.5261417322834645
 21
4.403535433070866
 31
0.0
  0
LWPOLYLINE
  5
26
100
AcDbEntity
  8
0
 62
     0
100
AcDbPolyline
 90
        2
 70
     0
 39
0.003
 10
1.526142
 20
4.403535
 40
0.003
 41
0.003
 10
1.427874
 20
4.432807
 40
0.003
 41
0.003
  0
LWPOLYLINE
  5
27
100
AcDbEntity
  8
0
 62
     0
100
AcDbPolyline
 90
        2
 70
     0
 39
0.003
 10
1.427874
 20
4.432807
 40
0.003
 41
0.003
 10
0.142224
 20
4.753488
 40
0.003
 41
0.003
  0
LWPOLYLINE
  5
28
100
AcDbEntity
  8
0
 62
     0
100
AcDbPolyline
 90
        2
 70
     0
 39
0.003
 10
0.142224
 20
4.753488
 40
0.003
 41
0.003
 10
-1.143433
 20
4.432807
 40
0.003
 41
0.003
  0
SPLINE
  5
29
100
AcDbEntity
  8
0
 62
     0
100
AcDbSpline
210
0.0
220
0.0
230
1.0
 70
     0
 71
     3
 72
     0
 73
     0
 74
    32
 44
0.0000000001
 11
-1.1434330708661418
 21
4.4328070866141731
 31
0.0
 11
-1.2417007874015749
 21
4.403535433070866
 31
0.0
 11
-1.3374409448818898
 21
4.3708740157480319
 31
0.0
 11
-1.4301181102362204
 21
4.3347125984251971
 31
0.0
 11
-1.519224409448819
 21
4.2949566929133862
 31
0.0
 11
-1.6042283464566929
 21
4.2514960629921257
 31
0.0
 11
-1.6846259842519684
 21
4.2042480314960633
 31
0.0
 11
-1.7598818897637796
 21
4.1530984251968501
 31
0.0
 11
-1.829492125984252
 21
4.0979566929133862
 31
0.0
 11
-1.8929173228346456
 21
4.0387125984251968
 31
0.0
 11
-1.9496535433070865
 21
3.9752755905511812
 31
0.0
 11
-1.9991771653543307
 21
3.9075433070866143
 31
0.0
 11
-2.0409763779527559
 21
3.8354212598425197
 31
0.0
 11
-2.0745157480314962
 21
3.7587992125984253
 31
0.0
 11
-2.0992874015748031
 21
3.6775866141732285
 31
0.0
 11
-2.1147677165354333
 21
3.5916811023622048
 31
0.0
 11
-2.1204448818897639
 21
3.5009881889763781
 31
0.0
 11
-2.0368464566929134
 21
3.4986181102362206
 31
0.0
 11
-1.9705236220472442
 21
3.4907440944881891
 31
0.0
 11
-1.9203661417322835
 21
3.4781417322834645
 31
0.0
 11
-1.8852716535433072
 21
3.4616062992125984
 31
0.0
 11
-1.8641181102362205
 21
3.4419094488188975
 31
0.0
 11
-1.8557992125984253
 21
3.4198582677165352
 31
0.0
 11
-1.8592086614173229
 21
3.3962165354330707
 31
0.0
 11
-1.8732362204724409
 21
3.3717834645669291
 31
0.0
 11
-1.8967637795275591
 21
3.3473307086614175
 31
0.0
 11
-1.9286889763779527
 21
3.3236614173228345
 31
0.0
 11
-1.9679015748031496
 21
3.3015472440944884
 31
0.0
 11
-2.013299212598425
 21
3.2817834645669293
 31
0.0
 11
-2.0637519685039369
 21
3.2651456692913388
 31
0.0
 11
-2.1181692913385826
 21
3.2524291338582678
 31
0.0
 11
-2.1754291338582679
 21
3.2444133858267716
 31
0.0
  0
LWPOLYLINE
  5
2A
100
AcDbEntity
  8
0
 62
     0
100
AcDbPolyline
 90
        2
 70
     0
 39
0.003
 10
-2.175429
 20
3.244413
 40
0.003
 41
0.003
 10
-2.234433
 20
3.241894
 40
0.003
 41
0.003
  0
LWPOLYLINE
  5
2B
100
AcDbEntity
  8
0
 62
     0
100
AcDbPolyline
 90
        2
 70
     0
 39
0.003
 10
-2.234433
 20
3.241894
 40
0.003
 41
0.003
 10
-2.234433
 20
3.00348
 40
0.003
 41
0.003
  0
LWPOLYLINE
  5
2C
100
AcDbEntity
  8
0
 62
     0
100
AcDbPolyline
 90
        2
 70
     0
 39
0.003
 10
-2.234433
 20
3.00348
 40
0.003
 41
0.003
 10
2.518874
 20
3.00348
 40
0.003
 41
0.003
  0
MTEXT
  5
2D
100
AcDbEntity
  8
0
 62
     0
100
AcDbMText
 10
-1.161551
 20
3.077673
 30
0.0
 40
0.166665
 41
0.0
 71
     1
 72
     1
  1
{\fBookman Old Style|b0|i0|c0|p32;BA  1399}
 73
     1
 44
1.0
  0
MTEXT
  5
2E
100
AcDbEntity
  8
0
 62
     0
100
AcDbMText
 10
-1.161551
 20
2.890173
 30
0.0
 40
0.166665
 41
0.0
 71
     1
 72
     1
  1
{\fBookman Old Style|b0|i0|c0|p32;1-3/4" x 4-3/4"}
 73
     1
 44
1.0
  0
LWPOLYLINE
  5
2F
100
AcDbEntity
  8
0
 62
   254
100
AcDbPolyline
 90
        2
 70
     0
 39
0.003
 10
2.185425
 20
0.166567
 40
0.003
 41
0.003
 10
2.838846
 20
0.546917
 40
0.003
 41
0.003
  0
LWPOLYLINE
  5
30
100
AcDbEntity
  8
0
 62
   254
100
AcDbPolyline
 90
        2
 70
     0
 39
0.003
 10
2.838846
 20
0.546917
 40
0.003
 41
0.003
 10
2.838846
 20
0.785331
 40
0.003
 41
0.003
  0
LWPOLYLINE
  5
31
100
AcDbEntity
  8
0
 62
   254
100
AcDbPolyline
 90
        2
 70
     0
 39
0.003
 10
2.838846
 20
0.785331
 40
0.003
 41
0.003
 10
2.185425
 20
0.40498
 40
0.003
 41
0.003
  0
LWPOLYLINE
  5
32
100
AcDbEntity
  8
0
 62
   254
100
AcDbPolyline
 90
        2
 70
     0
 39
0.003
 10
2.185425
 20
0.40498
 40
0.003
 41
0.003
 10
2.185425
 20
0.166567
 40
0.003
 41
0.003
  0
LWPOLYLINE
  5
33
100
AcDbEntity
  8
0
 62
     0
100
AcDbPolyline
 90
        2
 70
     0
 39
0.003
 10
2.185425
 20
0.166567
 40
0.003
 41
0.003
 10
2.838846
 20
0.546917
 40
0.003
 41
0.003
  0
LWPOLYLINE
  5
34
100
AcDbEntity
  8
0
 62
     0
100
AcDbPolyline
 90
        2
 70
     0
 39
0.003
 10
2.838846
 20
0.546917
 40
0.003
 41
0.003
 10
2.838846
 20
0.785331
 40
0.003
 41
0.003
  0
LWPOLYLINE
  5
35
100
AcDbEntity
  8
0
 62
     0
100
AcDbPolyline
 90
        2
 70
     0
 39
0.003
 10
2.838846
 20
0.785331
 40
0.003
 41
0.003
 10
2.185425
 20
0.40498
 40
0.003
 41
0.003
  0
LWPOLYLINE
  5
36
100
AcDbEntity
  8
0
 62
     0
100
AcDbPolyline
 90
        2
 70
     0
 39
0.003
 10
2.185425
 20
0.40498
 40
0.003
 41
0.003
 10
2.185425
 20
0.166567
 40
0.003
 41
0.003
  0
LWPOLYLINE
  5
37
100
AcDbEntity
  8
0
 62
   253
100
AcDbPolyline
 90
        2
 70
     0
 39
0.003
 10
2.185425
 20
0.40498
 40
0.003
 41
0.003
 10
2.838846
 20
0.785331
 40
0.003
 41
0.003
  0
LWPOLYLINE
  5
38
100
AcDbEntity
  8
0
 62
   253
100
AcDbPolyline
 90
        2
 70
     0
 39
0.003
 10
2.838846
 20
0.785331
 40
0.003
 41
0.003
 10
2.809193
 20
0.785854
 40
0.003
 41
0.003
  0
LWPOLYLINE
  5
39
100
AcDbEntity
  8
0
 62
   253
100
AcDbPolyline
 90
        2
 70
     0
 39
0.003
 10
2.809193
 20
0.785854
 40
0.003
 41
0.003
 10
2.155772
 20
0.405504
 40
0.003
 41
0.003
  0
LWPOLYLINE
  5
3A
100
AcDbEntity
  8
0
 62
   253
100
AcDbPolyline
 90
        2
 70
     0
 39
0.003
 10
2.155772
 20
0.405504
 40
0.003
 41
0.003
 10
2.185425
 20
0.40498
 40
0.003
 41
0.003
  0
LWPOLYLINE
  5
3B
100
AcDbEntity
  8
0
 62
   253
100
AcDbPolyline
 90
        2
 70
     0
 39
0.003
 10
2.155772
 20
0.405504
 40
0.003
 41
0.003
 10
2.809193
 20
0.785854
 40
0.003
 41
0.003
  0
LWPOLYLINE
  5
3C
100
AcDbEntity
  8
0
 62
   253
100
AcDbPolyline
 90
        2
 70
     0
 39
0.003
 10
2.809193
 20
0.785854
 40
0.003
 41
0.003
 10
2.779843
 20
0.78785
 40
0.003
 41
0.003
  0
LWPOLYLINE
  5
3D
100
AcDbEntity
  8
0
 62
   253
100
AcDbPolyline
 90
        2
 70
     0
 39
0.003
 10
2.779843
 20
0.78785
 40
0.003
 41
0.003
 10
2.126421
 20
0.4075
 40
0.003
 41
0.003
  0
LWPOLYLINE
  5
3E
100
AcDbEntity
  8
0
 62
   253
100
AcDbPolyline
 90
        2
 70
     0
 39
0.003
 10
2.126421
 20
0.4075
 40
0.003
 41
0.003
 10
2.155772
 20
0.405504
 40
0.003
 41
0.003
  0
LWPOLYLINE
  5
3F
100
AcDbEntity
  8
0
 62
     9
100
AcDbPolyline
 90
        2
 70
     0
 39
0.003
 10
2.126421
 20
0.4075
 40
0.003
 41
0.003
 10
2.779843
 20
0.78785
 40
0.003
 41
0.003
  0
LWPOLYLINE
  5
40
100
AcDbEntity
  8
0
 62
     9
100
AcDbPolyline
 90
        2
 70
     0
 39
0.003
 10
2.779843
 20
0.78785
 40
0.003
 41
0.003
 10
2.750925
 20
0.791217
 40
0.003
 41
0.003
  0
LWPOLYLINE
  5
41
100
AcDbEntity
  8
0
 62
     9
100
AcDbPolyline
 90
        2
 70
     0
 39
0.003
 10
2.750925
 20
0.791217
 40
0.003
 41
0.003
 10
2.097504
 20
0.410866
 40
0.003
 41
0.003
  0
LWPOLYLINE
  5
42
100
AcDbEntity
  8
0
 62
     9
100
AcDbPolyline
 90
        2
 70
     0
 39
0.003
 10
2.097504
 20
0.410866
 40
0.003
 41
0.003
 10
2.126421
 20
0.4075
 40
0.003
 41
0.003
  0
LWPOLYLINE
  5
43
100
AcDbEntity
  8
0
 62
     9
100
AcDbPolyline
 90
        2
 70
     0
 39
0.003
 10
2.097504
 20
0.410866
 40
0.003
 41
0.003
 10
2.750925
 20
0.791217
 40
0.003
 41
0.003
  0
LWPOLYLINE
  5
44
100
AcDbEntity
  8
0
 62
     9
100
AcDbPolyline
 90
        2
 70
     0
 39
0.003
 10
2.750925
 20
0.791217
 40
0.003
 41
0.003
 10
2.722583
 20
0.795866
 40
0.003
 41
0.003
  0
LWPOLYLINE
  5
45
100
AcDbEntity
  8
0
 62
     9
100
AcDbPolyline
 90
        2
 70
     0
 39
0.003
 10
2.722583
 20
0.795866
 40
0.003
 41
0.003
 10
2.069161
 20
0.415516
 40
0.003
 41
0.003
  0
LWPOLYLINE
  5
46
100
AcDbEntity
  8
0
 62
     9
100
AcDbPolyline
 90
        2
 70
     0
 39
0.003
 10
2.069161
 20
0.415516
 40
0.003
 41
0.003
 10
2.097504
 20
0.410866
 40
0.003
 41
0.003
  0
LWPOLYLINE
  5
47
100
AcDbEntity
  8
0
 62
     9
100
AcDbPolyline
 90
        2
 70
     0
 39
0.003
 10
2.069161
 20
0.415516
 40
0.003
 41
0.003
 10
2.722583
 20
0.795866
 40
0.003
 41
0.003
  0
LWPOLYLINE
  5
48
100
AcDbEntity
  8
0
 62
     9
100
AcDbPolyline
 90
        2
 70
     0
 39
0.003
 10
2.722583
 20
0.795866
 40
0.003
 41
0.003
 10
2.694945
 20
0.801685
 40
0.003
 41
0.003
  0
LWPOLYLINE
  5
49
100
AcDbEntity
  8
0
 62
     9
100
AcDbPolyline
 90
        2
 70
     0
 39
0.003
 10
2.694945
 20
0.801685
 40
0.003
 41
0.003
 10
2.041524
 20
0.421335
 40
0.003
 41
0.003
  0
LWPOLYLINE
  5
4A
100
AcDbEntity
  8
0
 62
     9
100
AcDbPolyline
 90
        2
 70
     0
 39
0.003
 10
2.041524
 20
0.421335
 40
0.003
 41
0.003
 10
2.069161
 20
0.415516
 40
0.003
 41
0.003
  0
LWPOLYLINE
  5
4B
100
AcDbEntity
  8
0
 62
     9
100
AcDbPolyline
 90
        2
 70
     0
 39
0.003
 10
2.041524
 20
0.421335
 40
0.003
 41
0.003
 10
2.694945
 20
0.801685
 40
0.003
 41
0.003
  0
LWPOLYLINE
  5
4C
100
AcDbEntity
  8
0
 62
     9
100
AcDbPolyline
 90
        2
 70
     0
 39
0.003
 10
2.694945
 20
0.801685
 40
0.003
 41
0.003
 10
2.668165
 20
0.808583
 40
0.003
 41
0.003
  0
LWPOLYLINE
  5
4D
100
AcDbEntity
  8
0
 62
     9
100
AcDbPolyline
 90
        2
 70
     0
 39
0.003
 10
2.668165
 20
0.808583
 40
0.003
 41
0.003
 10
2.014744
 20
0.428232
 40
0.003
 41
0.003
  0
LWPOLYLINE
  5
4E
100
AcDbEntity
  8
0
 62
     9
100
AcDbPolyline
 90
        2
 70
     0
 39
0.003
 10
2.014744
 20
0.428232
 40
0.003
 41
0.003
 10
2.041524
 20
0.421335
 40
0.003
 41
0.003
  0
LWPOLYLINE
  5
4F
100
AcDbEntity
  8
0
 62
     9
100
AcDbPolyline
 90
        2
 70
     0
 39
0.003
 10
2.014744
 20
0.428232
 40
0.003
 41
0.003
 10
2.668165
 20
0.808583
 40
0.003
 41
0.003
  0
LWPOLYLINE
  5
50
100
AcDbEntity
  8
0
 62
     9
100
AcDbPolyline
 90
        2
 70
     0
 39
0.003
 10
2.668165
 20
0.808583
 40
0.003
 41
0.003
 10
2.64237
 20
0.816461
 40
0.003
 41
0.003
  0
LWPOLYLINE
  5
51
100
AcDbEntity
  8
0
 62
     9
100
AcDbPolyline
 90
        2
 70
     0
 39
0.003
 10
2.64237
 20
0.816461
 40
0.003
 41
0.003
 10
1.988949
 20
0.43611
 40
0.003
 41
0.003
  0
LWPOLYLINE
  5
52
100
AcDbEntity
  8
0
 62
     9
100
AcDbPolyline
 90
        2
 70
     0
 39
0.003
 10
1.988949
 20
0.43611
 40
0.003
 41
0.003
 10
2.014744
 20
0.428232
 40
0.003
 41
0.003
  0
LWPOLYLINE
  5
53
100
AcDbEntity
  8
0
 62
     9
100
AcDbPolyline
 90
        2
 70
     0
 39
0.003
 10
1.988949
 20
0.43611
 40
0.003
 41
0.003
 10
2.64237
 20
0.816461
 40
0.003
 41
0.003
  0
LWPOLYLINE
  5
54
100
AcDbEntity
  8
0
 62
     9
100
AcDbPolyline
 90
        2
 70
     0
 39
0.003
 10
2.64237
 20
0.816461
 40
0.003
 41
0.003
 10
2.617713
 20
0.82522
 40
0.003
 41
0.003
  0
LWPOLYLINE
  5
55
100
AcDbEntity
  8
0
 62
     9
100
AcDbPolyline
 90
        2
 70
     0
 39
0.003
 10
2.617713
 20
0.82522
 40
0.003
 41
0.003
 10
1.964291
 20
0.44487
 40
0.003
 41
0.003
  0
LWPOLYLINE
  5
56
100
AcDbEntity
  8
0
 62
     9
100
AcDbPolyline
 90
        2
 70
     0
 39
0.003
 10
1.964291
 20
0.44487
 40
0.003
 41
0.003
 10
1.988949
 20
0.43611
 40
0.003
 41
0.003
  0
LWPOLYLINE
  5
57
100
AcDbEntity
  8
0
 62
     9
100
AcDbPolyline
 90
        2
 70
     0
 39
0.003
 10
1.964291
 20
0.44487
 40
0.003
 41
0.003
 10
2.617713
 20
0.82522
 40
0.003
 41
0.003
  0
LWPOLYLINE
  5
58
100
AcDbEntity
  8
0
 62
     9
100
AcDbPolyline
 90
        2
 70
     0
 39
0.003
 10
2.617713
 20
0.82522
 40
0.003
 41
0.003
 10
2.594307
 20
0.83476
 40
0.003
 41
0.003
  0
LWPOLYLINE
  5
59
100
AcDbEntity
  8
0
 62
     9
100
AcDbPolyline
 90
        2
 70
     0
 39
0.003
 10
2.594307
 20
0.83476
 40
0.003
 41
0.003
 10
1.940886
 20
0.454409
 40
0.003
 41
0.003
  0
LWPOLYLINE
  5
5A
100
AcDbEntity
  8
0
 62
     9
100
AcDbPolyline
 90
        2
 70
     0
 39
0.003
 10
1.940886
 20
0.454409
 40
0.003
 41
0.003
 10
1.964291
 20
0.44487
 40
0.003
 41
0.003
  0
LWPOLYLINE
  5
5B
100
AcDbEntity
  8
0
 62
     9
100
AcDbPolyline
 90
        2
 70
     0
 39
0.003
 10
1.940886
 20
0.454409
 40
0.003
 41
0.003
 10
2.594307
 20
0.83476
 40
0.003
 41
0.003
  0
LWPOLYLINE
  5
5C
100
AcDbEntity
  8
0
 62
     9
100
AcDbPolyline
 90
        2
 70
     0
 39
0.003
 10
2.594307
 20
0.83476
 40
0.003
 41
0.003
 10
2.572315
 20
0.844984
 40
0.003
 41
0.003
  0
LWPOLYLINE
  5
5D
100
AcDbEntity
  8
0
 62
     9
100
AcDbPolyline
 90
        2
 70
     0
 39
0.003
 10
2.572315
 20
0.844984
 40
0.003
 41
0.003
 10
1.918894
 20
0.464634
 40
0.003
 41
0.003
  0
LWPOLYLINE
  5
5E
100
AcDbEntity
  8
0
 62
     9
100
AcDbPolyline
 90
        2
 70
     0
 39
0.003
 10
1.918894
 20
0.464634
 40
0.003
 41
0.003
 10
1.940886
 20
0.454409
 40
0.003
 41
0.003
  0
LWPOLYLINE
  5
5F
100
AcDbEntity
  8
0
 62
     9
100
AcDbPolyline
 90
        2
 70
     0
 39
0.003
 10
1.918894
 20
0.464634
 40
0.003
 41
0.003
 10
2.572315
 20
0.844984
 40
0.003
 41
0.003
  0
LWPOLYLINE
  5
60
100
AcDbEntity
  8
0
 62
     9
100
AcDbPolyline
 90
        2
 70
     0
 39
0.003
 10
2.572315
 20
0.844984
 40
0.003
 41
0.003
 10
2.551866
 20
0.855791
 40
0.003
 41
0.003
  0
LWPOLYLINE
  5
61
100
AcDbEntity
  8
0
 62
     9
100
AcDbPolyline
 90
        2
 70
     0
 39
0.003
 10
2.551866
 20
0.855791
 40
0.003
 41
0.003
 10
1.898445
 20
0.475441
 40
0.003
 41
0.003
  0
LWPOLYLINE
  5
62
100
AcDbEntity
  8
0
 62
     9
100
AcDbPolyline
 90
        2
 70
     0
 39
0.003
 10
1.898445
 20
0.475441
 40
0.003
 41
0.003
 10
1.918894
 20
0.464634
 40
0.003
 41
0.003
  0
LWPOLYLINE
  5
63
100
AcDbEntity
  8
0
 62
     9
100
AcDbPolyline
 90
        2
 70
     0
 39
0.003
 10
1.898445
 20
0.475441
 40
0.003
 41
0.003
 10
2.551866
 20
0.855791
 40
0.003
 41
0.003
  0
LWPOLYLINE
  5
64
100
AcDbEntity
  8
0
 62
     9
100
AcDbPolyline
 90
        2
 70
     0
 39
0.003
 10
2.551866
 20
0.855791
 40
0.003
 41
0.003
 10
2.533102
 20
0.867098
 40
0.003
 41
0.003
  0
LWPOLYLINE
  5
65
100
AcDbEntity
  8
0
 62
     9
100
AcDbPolyline
 90
        2
 70
     0
 39
0.003
 10
2.533102
 20
0.867098
 40
0.003
 41
0.003
 10
1.879681
 20
0.486748
 40
0.003
 41
0.003
  0
LWPOLYLINE
  5
66
100
AcDbEntity
  8
0
 62
     9
100
AcDbPolyline
 90
        2
 70
     0
 39
0.003
 10
1.879681
 20
0.486748
 40
0.003
 41
0.003
 10
1.898445
 20
0.475441
 40
0.003
 41
0.003
  0
LWPOLYLINE
  5
67
100
AcDbEntity
  8
0
 62
     9
100
AcDbPolyline
 90
        2
 70
     0
 39
0.003
 10
1.879681
 20
0.486748
 40
0.003
 41
0.003
 10
2.533102
 20
0.867098
 40
0.003
 41
0.003
  0
LWPOLYLINE
  5
68
100
AcDbEntity
  8
0
 62
     9
100
AcDbPolyline
 90
        2
 70
     0
 39
0.003
 10
2.533102
 20
0.867098
 40
0.003
 41
0.003
 10
2.516154
 20
0.878783
 40
0.003
 41
0.003
  0
LWPOLYLINE
  5
69
100
AcDbEntity
  8
0
 62
     9
100
AcDbPolyline
 90
        2
 70
     0
 39
0.003
 10
2.516154
 20
0.878783
 40
0.003
 41
0.003
 10
1.862732
 20
0.498433
 40
0.003
 41
0.003
  0
LWPOLYLINE
  5
6A
100
AcDbEntity
  8
0
 62
     9
100
AcDbPolyline
 90
        2
 70
     0
 39
0.003
 10
1.862732
 20
0.498433
 40
0.003
 41
0.003
 10
1.879681
 20
0.486748
 40
0.003
 41
0.003
  0
LWPOLYLINE
  5
6B
100
AcDbEntity
  8
0
 62
     9
100
AcDbPolyline
 90
        2
 70
     0
 39
0.003
 10
1.862732
 20
0.498433
 40
0.003
 41
0.003
 10
2.516154
 20
0.878783
 40
0.003
 41
0.003
  0
LWPOLYLINE
  5
6C
100
AcDbEntity
  8
0
 62
     9
100
AcDbPolyline
 90
        2
 70
     0
 39
0.003
 10
2.516154
 20
0.878783
 40
0.003
 41
0.003
 10
2.501177
 20
0.890768
 40
0.003
 41
0.003
  0
LWPOLYLINE
  5
6D
100
AcDbEntity
  8
0
 62
     9
100
AcDbPolyline
 90
        2
 70
     0
 39
0.003
 10
2.501177
 20
0.890768
 40
0.003
 41
0.003
 10
1.847756
 20
0.510417
 40
0.003
 41
0.003
  0
LWPOLYLINE
  5
6E
100
AcDbEntity
  8
0
 62
     9
100
AcDbPolyline
 90
        2
 70
     0
 39
0.003
 10
1.847756
 20
0.510417
 40
0.003
 41
0.003
 10
1.862732
 20
0.498433
 40
0.003
 41
0.003
  0
LWPOLYLINE
  5
6F
100
AcDbEntity
  8
0
 62
     9
100
AcDbPolyline
 90
        2
 70
     0
 39
0.003
 10
1.847756
 20
0.510417
 40
0.003
 41
0.003
 10
2.501177
 20
0.890768
 40
0.003
 41
0.003
  0
LWPOLYLINE
  5
70
100
AcDbEntity
  8
0
 62
     9
100
AcDbPolyline
 90
        2
 70
     0
 39
0.003
 10
2.501177
 20
0.890768
 40
0.003
 41
0.003
 10
2.488291
 20
0.902941
 40
0.003
 41
0.003
  0
LWPOLYLINE
  5
71
100
AcDbEntity
  8
0
 62
     9
100
AcDbPolyline
 90
        2
 70
     0
 39
0.003
 10
2.488291
 20
0.902941
 40
0.003
 41
0.003
 10
1.83487
 20
0.522591
 40
0.003
 41
0.003
  0
LWPOLYLINE
  5
72
100
AcDbEntity
  8
0
 62
     9
100
AcDbPolyline
 90
        2
 70
     0
 39
0.003
 10
1.83487
 20
0.522591
 40
0.003
 41
0.003
 10
1.847756
 20
0.510417
 40
0.003
 41
0.003
  0
LWPOLYLINE
  5
73
100
AcDbEntity
  8
0
 62
     9
100
AcDbPolyline
 90
        2
 70
     0
 39
0.003
 10
1.83487
 20
0.522591
 40
0.003
 41
0.003
 10
2.488291
 20
0.902941
 40
0.003
 41
0.003
  0
LWPOLYLINE
  5
74
100
AcDbEntity
  8
0
 62
     9
100
AcDbPolyline
 90
        2
 70
     0
 39
0.003
 10
2.488291
 20
0.902941
 40
0.003
 41
0.003
 10
2.47765
 20
0.91522
 40
0.003
 41
0.003
  0
LWPOLYLINE
  5
75
100
AcDbEntity
  8
0
 62
     9
100
AcDbPolyline
 90
        2
 70
     0
 39
0.003
 10
2.47765
 20
0.91522
 40
0.003
 41
0.003
 10
1.824228
 20
0.53487
 40
0.003
 41
0.003
  0
LWPOLYLINE
  5
76
100
AcDbEntity
  8
0
 62
     9
100
AcDbPolyline
 90
        2
 70
     0
 39
0.003
 10
1.824228
 20
0.53487
 40
0.003
 41
0.003
 10
1.83487
 20
0.522591
 40
0.003
 41
0.003
  0
LWPOLYLINE
  5
77
100
AcDbEntity
  8
0
 62
     9
100
AcDbPolyline
 90
        2
 70
     0
 39
0.003
 10
1.824228
 20
0.53487
 40
0.003
 41
0.003
 10
2.47765
 20
0.91522
 40
0.003
 41
0.003
  0
LWPOLYLINE
  5
78
100
AcDbEntity
  8
0
 62
     9
100
AcDbPolyline
 90
        2
 70
     0
 39
0.003
 10
2.47765
 20
0.91522
 40
0.003
 41
0.003
 10
2.469374
 20
0.927484
 40
0.003
 41
0.003
  0
LWPOLYLINE
  5
79
100
AcDbEntity
  8
0
 62
     9
100
AcDbPolyline
 90
        2
 70
     0
 39
0.003
 10
2.469374
 20
0.927484
 40
0.003
 41
0.003
 10
1.815953
 20
0.547134
 40
0.003
 41
0.003
  0
LWPOLYLINE
  5
7A
100
AcDbEntity
  8
0
 62
     9
100
AcDbPolyline
 90
        2
 70
     0
 39
0.003
 10
1.815953
 20
0.547134
 40
0.003
 41
0.003
 10
1.824228
 20
0.53487
 40
0.003
 41
0.003
  0
LWPOLYLINE
  5
7B
100
AcDbEntity
  8
0
 62
   254
100
AcDbPolyline
 90
        2
 70
     0
 39
0.003
 10
1.815953
 20
0.547134
 40
0.003
 41
0.003
 10
2.469374
 20
0.927484
 40
0.003
 41
0.003
  0
LWPOLYLINE
  5
7C
100
AcDbEntity
  8
0
 62
   254
100
AcDbPolyline
 90
        2
 70
     0
 39
0.003
 10
2.469374
 20
0.927484
 40
0.003
 41
0.003
 10
2.463622
 20
0.939654
 40
0.003
 41
0.003
  0
LWPOLYLINE
  5
7D
100
AcDbEntity
  8
0
 62
   254
100
AcDbPolyline
 90
        2
 70
     0
 39
0.003
 10
2.463622
 20
0.939654
 40
0.003
 41
0.003
 10
1.810201
 20
0.559303
 40
0.003
 41
0.003
  0
LWPOLYLINE
  5
7E
100
AcDbEntity
  8
0
 62
   254
100
AcDbPolyline
 90
        2
 70
     0
 39
0.003
 10
1.810201
 20
0.559303
 40
0.003
 41
0.003
 10
1.815953
 20
0.547134
 40
0.003
 41
0.003
  0
LWPOLYLINE
  5
7F
100
AcDbEntity
  8
0
 62
   254
100
AcDbPolyline
 90
        2
 70
     0
 39
0.003
 10
1.810201
 20
0.559303
 40
0.003
 41
0.003
 10
2.463622
 20
0.939654
 40
0.003
 41
0.003
  0
LWPOLYLINE
  5
80
100
AcDbEntity
  8
0
 62
   254
100
AcDbPolyline
 90
        2
 70
     0
 39
0.003
 10
2.463622
 20
0.939654
 40
0.003
 41
0.003
 10
2.46052
 20
0.951618
 40
0.003
 41
0.003
  0
LWPOLYLINE
  5
81
100
AcDbEntity
  8
0
 62
   254
100
AcDbPolyline
 90
        2
 70
     0
 39
0.003
 10
2.46052
 20
0.951618
 40
0.003
 41
0.003
 10
1.807098
 20
0.571268
 40
0.003
 41
0.003
  0
LWPOLYLINE
  5
82
100
AcDbEntity
  8
0
 62
   254
100
AcDbPolyline
 90
        2
 70
     0
 39
0.003
 10
1.807098
 20
0.571268
 40
0.003
 41
0.003
 10
1.810201
 20
0.559303
 40
0.003
 41
0.003
  0
LWPOLYLINE
  5
83
100
AcDbEntity
  8
0
 62
   254
100
AcDbPolyline
 90
        2
 70
     0
 39
0.003
 10
1.807098
 20
0.571268
 40
0.003
 41
0.003
 10
2.46052
 20
0.951618
 40
0.003
 41
0.003
  0
LWPOLYLINE
  5
84
100
AcDbEntity
  8
0
 62
   254
100
AcDbPolyline
 90
        2
 70
     0
 39
0.003
 10
2.46052
 20
0.951618
 40
0.003
 41
0.003
 10
2.460213
 20
0.963295
 40
0.003
 41
0.003
  0
LWPOLYLINE
  5
85
100
AcDbEntity
  8
0
 62
   254
100
AcDbPolyline
 90
        2
 70
     0
 39
0.003
 10
2.460213
 20
0.963295
 40
0.003
 41
0.003
 10
1.806791
 20
0.582945
 40
0.003
 41
0.003
  0
LWPOLYLINE
  5
86
100
AcDbEntity
  8
0
 62
   254
100
AcDbPolyline
 90
        2
 70
     0
 39
0.003
 10
1.806791
 20
0.582945
 40
0.003
 41
0.003
 10
1.807098
 20
0.571268
 40
0.003
 41
0.003
  0
LWPOLYLINE
  5
87
100
AcDbEntity
  8
0
 62
     9
100
AcDbPolyline
 90
        2
 70
     0
 39
0.003
 10
1.806791
 20
0.582945
 40
0.003
 41
0.003
 10
2.460213
 20
0.963295
 40
0.003
 41
0.003
  0
LWPOLYLINE
  5
88
100
AcDbEntity
  8
0
 62
     9
100
AcDbPolyline
 90
        2
 70
     0
 39
0.003
 10
2.460213
 20
0.963295
 40
0.003
 41
0.003
 10
2.462835
 20
0.974567
 40
0.003
 41
0.003
  0
LWPOLYLINE
  5
89
100
AcDbEntity
  8
0
 62
     9
100
AcDbPolyline
 90
        2
 70
     0
 39
0.003
 10
2.462835
 20
0.974567
 40
0.003
 41
0.003
 10
1.809413
 20
0.594217
 40
0.003
 41
0.003
  0
LWPOLYLINE
  5
8A
100
AcDbEntity
  8
0
 62
     9
100
AcDbPolyline
 90
        2
 70
     0
 39
0.003
 10
1.809413
 20
0.594217
 40
0.003
 41
0.003
 10
1.806791
 20
0.582945
 40
0.003
 41
0.003
  0
LWPOLYLINE
  5
8B
100
AcDbEntity
  8
0
 62
     9
100
AcDbPolyline
 90
        2
 70
     0
 39
0.003
 10
1.809413
 20
0.594217
 40
0.003
 41
0.003
 10
2.462835
 20
0.974567
 40
0.003
 41
0.003
  0
LWPOLYLINE
  5
8C
100
AcDbEntity
  8
0
 62
     9
100
AcDbPolyline
 90
        2
 70
     0
 39
0.003
 10
2.462835
 20
0.974567
 40
0.003
 41
0.003
 10
2.468531
 20
0.985346
 40
0.003
 41
0.003
  0
LWPOLYLINE
  5
8D
100
AcDbEntity
  8
0
 62
     9
100
AcDbPolyline
 90
        2
 70
     0
 39
0.003
 10
2.468531
 20
0.985346
 40
0.003
 41
0.003
 10
1.81511
 20
0.604996
 40
0.003
 41
0.003
  0
LWPOLYLINE
  5
8E
100
AcDbEntity
  8
0
 62
     9
100
AcDbPolyline
 90
        2
 70
     0
 39
0.003
 10
1.81511
 20
0.604996
 40
0.003
 41
0.003
 10
1.809413
 20
0.594217
 40
0.003
 41
0.003
  0
LWPOLYLINE
  5
8F
100
AcDbEntity
  8
0
 62
     9
100
AcDbPolyline
 90
        2
 70
     0
 39
0.003
 10
1.81511
 20
0.604996
 40
0.003
 41
0.003
 10
2.468531
 20
0.985346
 40
0.003
 41
0.003
  0
LWPOLYLINE
  5
90
100
AcDbEntity
  8
0
 62
     9
100
AcDbPolyline
 90
        2
 70
     0
 39
0.003
 10
2.468531
 20
0.985346
 40
0.003
 41
0.003
 10
2.477429
 20
0.995535
 40
0.003
 41
0.003
  0
LWPOLYLINE
  5
91
100
AcDbEntity
  8
0
 62
     9
100
AcDbPolyline
 90
        2
 70
     0
 39
0.003
 10
2.477429
 20
0.995535
 40
0.003
 41
0.003
 10
1.824008
 20
0.615185
 40
0.003
 41
0.003
  0
LWPOLYLINE
  5
92
100
AcDbEntity
  8
0
 62
     9
100
AcDbPolyline
 90
        2
 70
     0
 39
0.003
 10
1.824008
 20
0.615185
 40
0.003
 41
0.003
 10
1.81511
 20
0.604996
 40
0.003
 41
0.003
  0
LWPOLYLINE
  5
93
100
AcDbEntity
  8
0
 62
     9
100
AcDbPolyline
 90
        2
 70
     0
 39
0.003
 10
1.824008
 20
0.615185
 40
0.003
 41
0.003
 10
2.477429
 20
0.995535
 40
0.003
 41
0.003
  0
LWPOLYLINE
  5
94
100
AcDbEntity
  8
0
 62
     9
100
AcDbPolyline
 90
        2
 70
     0
 39
0.003
 10
2.477429
 20
0.995535
 40
0.003
 41
0.003
 10
2.489685
 20
1.005043
 40
0.003
 41
0.003
  0
LWPOLYLINE
  5
95
100
AcDbEntity
  8
0
 62
     9
100
AcDbPolyline
 90
        2
 70
     0
 39
0.003
 10
2.489685
 20
1.005043
 40
0.003
 41
0.003
 10
1.836264
 20
0.624693
 40
0.003
 41
0.003
  0
LWPOLYLINE
  5
96
100
AcDbEntity
  8
0
 62
     9
100
AcDbPolyline
 90
        2
 70
     0
 39
0.003
 10
1.836264
 20
0.624693
 40
0.003
 41
0.003
 10
1.824008
 20
0.615185
 40
0.003
 41
0.003
  0
LWPOLYLINE
  5
97
100
AcDbEntity
  8
0
 62
     0
100
AcDbPolyline
 90
        2
 70
     0
 39
0.003
 10
2.185425
 20
0.40498
 40
0.003
 41
0.003
 10
2.838846
 20
0.785331
 40
0.003
 41
0.003
  0
LWPOLYLINE
  5
98
100
AcDbEntity
  8
0
 62
     0
100
AcDbPolyline
 90
        2
 70
     0
 39
0.003
 10
2.838846
 20
0.785331
 40
0.003
 41
0.003
 10
2.809193
 20
0.785854
 40
0.003
 41
0.003
  0
LWPOLYLINE
  5
99
100
AcDbEntity
  8
0
 62
     0
100
AcDbPolyline
 90
        2
 70
     0
 39
0.003
 10
2.809193
 20
0.785854
 40
0.003
 41
0.003
 10
2.779843
 20
0.78785
 40
0.003
 41
0.003
  0
LWPOLYLINE
  5
9A
100
AcDbEntity
  8
0
 62
     0
100
AcDbPolyline
 90
        2
 70
     0
 39
0.003
 10
2.779843
 20
0.78785
 40
0.003
 41
0.003
 10
2.750925
 20
0.791217
 40
0.003
 41
0.003
  0
LWPOLYLINE
  5
9B
100
AcDbEntity
  8
0
 62
     0
100
AcDbPolyline
 90
        2
 70
     0
 39
0.003
 10
2.750925
 20
0.791217
 40
0.003
 41
0.003
 10
2.722583
 20
0.795866
 40
0.003
 41
0.003
  0
LWPOLYLINE
  5
9C
100
AcDbEntity
  8
0
 62
     0
100
AcDbPolyline
 90
        2
 70
     0
 39
0.003
 10
2.722583
 20
0.795866
 40
0.003
 41
0.003
 10
2.694945
 20
0.801685
 40
0.003
 41
0.003
  0
LWPOLYLINE
  5
9D
100
AcDbEntity
  8
0
 62
     0
100
AcDbPolyline
 90
        2
 70
     0
 39
0.003
 10
2.694945
 20
0.801685
 40
0.003
 41
0.003
 10
2.668165
 20
0.808583
 40
0.003
 41
0.003
  0
LWPOLYLINE
  5
9E
100
AcDbEntity
  8
0
 62
     0
100
AcDbPolyline
 90
        2
 70
     0
 39
0.003
 10
2.668165
 20
0.808583
 40
0.003
 41
0.003
 10
2.64237
 20
0.816461
 40
0.003
 41
0.003
  0
LWPOLYLINE
  5
9F
100
AcDbEntity
  8
0
 62
     0
100
AcDbPolyline
 90
        2
 70
     0
 39
0.003
 10
2.64237
 20
0.816461
 40
0.003
 41
0.003
 10
2.617713
 20
0.82522
 40
0.003
 41
0.003
  0
LWPOLYLINE
  5
A0
100
AcDbEntity
  8
0
 62
     0
100
AcDbPolyline
 90
        2
 70
     0
 39
0.003
 10
2.617713
 20
0.82522
 40
0.003
 41
0.003
 10
2.594307
 20
0.83476
 40
0.003
 41
0.003
  0
LWPOLYLINE
  5
A1
100
AcDbEntity
  8
0
 62
     0
100
AcDbPolyline
 90
        2
 70
     0
 39
0.003
 10
2.594307
 20
0.83476
 40
0.003
 41
0.003
 10
2.572315
 20
0.844984
 40
0.003
 41
0.003
  0
LWPOLYLINE
  5
A2
100
AcDbEntity
  8
0
 62
     0
100
AcDbPolyline
 90
        2
 70
     0
 39
0.003
 10
2.572315
 20
0.844984
 40
0.003
 41
0.003
 10
2.551866
 20
0.855791
 40
0.003
 41
0.003
  0
LWPOLYLINE
  5
A3
100
AcDbEntity
  8
0
 62
     0
100
AcDbPolyline
 90
        2
 70
     0
 39
0.003
 10
2.551866
 20
0.855791
 40
0.003
 41
0.003
 10
2.533102
 20
0.867098
 40
0.003
 41
0.003
  0
LWPOLYLINE
  5
A4
100
AcDbEntity
  8
0
 62
     0
100
AcDbPolyline
 90
        2
 70
     0
 39
0.003
 10
2.533102
 20
0.867098
 40
0.003
 41
0.003
 10
2.516154
 20
0.878783
 40
0.003
 41
0.003
  0
LWPOLYLINE
  5
A5
100
AcDbEntity
  8
0
 62
     0
100
AcDbPolyline
 90
        2
 70
     0
 39
0.003
 10
2.516154
 20
0.878783
 40
0.003
 41
0.003
 10
2.501177
 20
0.890768
 40
0.003
 41
0.003
  0
LWPOLYLINE
  5
A6
100
AcDbEntity
  8
0
 62
     0
100
AcDbPolyline
 90
        2
 70
     0
 39
0.003
 10
2.501177
 20
0.890768
 40
0.003
 41
0.003
 10
2.488291
 20
0.902941
 40
0.003
 41
0.003
  0
LWPOLYLINE
  5
A7
100
AcDbEntity
  8
0
 62
     0
100
AcDbPolyline
 90
        2
 70
     0
 39
0.003
 10
2.488291
 20
0.902941
 40
0.003
 41
0.003
 10
2.47765
 20
0.91522
 40
0.003
 41
0.003
  0
LWPOLYLINE
  5
A8
100
AcDbEntity
  8
0
 62
     0
100
AcDbPolyline
 90
        2
 70
     0
 39
0.003
 10
2.47765
 20
0.91522
 40
0.003
 41
0.003
 10
2.469374
 20
0.927484
 40
0.003
 41
0.003
  0
LWPOLYLINE
  5
A9
100
AcDbEntity
  8
0
 62
     0
100
AcDbPolyline
 90
        2
 70
     0
 39
0.003
 10
2.469374
 20
0.927484
 40
0.003
 41
0.003
 10
2.463622
 20
0.939654
 40
0.003
 41
0.003
  0
LWPOLYLINE
  5
AA
100
AcDbEntity
  8
0
 62
     0
100
AcDbPolyline
 90
        2
 70
     0
 39
0.003
 10
2.463622
 20
0.939654
 40
0.003
 41
0.003
 10
2.46052
 20
0.951618
 40
0.003
 41
0.003
  0
LWPOLYLINE
  5
AB
100
AcDbEntity
  8
0
 62
     0
100
AcDbPolyline
 90
        2
 70
     0
 39
0.003
 10
2.46052
 20
0.951618
 40
0.003
 41
0.003
 10
2.460213
 20
0.963295
 40
0.003
 41
0.003
  0
LWPOLYLINE
  5
AC
100
AcDbEntity
  8
0
 62
     0
100
AcDbPolyline
 90
        2
 70
     0
 39
0.003
 10
2.460213
 20
0.963295
 40
0.003
 41
0.003
 10
2.462835
 20
0.974567
 40
0.003
 41
0.003
  0
LWPOLYLINE
  5
AD
100
AcDbEntity
  8
0
 62
     0
100
AcDbPolyline
 90
        2
 70
     0
 39
0.003
 10
2.462835
 20
0.974567
 40
0.003
 41
0.003
 10
2.468531
 20
0.985346
 40
0.003
 41
0.003
  0
LWPOLYLINE
  5
AE
100
AcDbEntity
  8
0
 62
     0
100
AcDbPolyline
 90
        2
 70
     0
 39
0.003
 10
2.468531
 20
0.985346
 40
0.003
 41
0.003
 10
2.477429
 20
0.995535
 40
0.003
 41
0.003
  0
LWPOLYLINE
  5
AF
100
AcDbEntity
  8
0
 62
     0
100
AcDbPolyline
 90
        2
 70
     0
 39
0.003
 10
2.477429
 20
0.995535
 40
0.003
 41
0.003
 10
2.489685
 20
1.005043
 40
0.003
 41
0.003
  0
LWPOLYLINE
  5
B0
100
AcDbEntity
  8
0
 62
     0
100
AcDbPolyline
 90
        2
 70
     0
 39
0.003
 10
2.489685
 20
1.005043
 40
0.003
 41
0.003
 10
1.836264
 20
0.624693
 40
0.003
 41
0.003
  0
LWPOLYLINE
  5
B1
100
AcDbEntity
  8
0
 62
     0
100
AcDbPolyline
 90
        2
 70
     0
 39
0.003
 10
1.836264
 20
0.624693
 40
0.003
 41
0.003
 10
1.824008
 20
0.615185
 40
0.003
 41
0.003
  0
LWPOLYLINE
  5
B2
100
AcDbEntity
  8
0
 62
     0
100
AcDbPolyline
 90
        2
 70
     0
 39
0.003
 10
1.824008
 20
0.615185
 40
0.003
 41
0.003
 10
1.81511
 20
0.604996
 40
0.003
 41
0.003
  0
LWPOLYLINE
  5
B3
100
AcDbEntity
  8
0
 62
     0
100
AcDbPolyline
 90
        2
 70
     0
 39
0.003
 10
1.81511
 20
0.604996
 40
0.003
 41
0.003
 10
1.809413
 20
0.594217
 40
0.003
 41
0.003
  0
LWPOLYLINE
  5
B4
100
AcDbEntity
  8
0
 62
     0
100
AcDbPolyline
 90
        2
 70
     0
 39
0.003
 10
1.809413
 20
0.594217
 40
0.003
 41
0.003
 10
1.806791
 20
0.582945
 40
0.003
 41
0.003
  0
LWPOLYLINE
  5
B5
100
AcDbEntity
  8
0
 62
     0
100
AcDbPolyline
 90
        2
 70
     0
 39
0.003
 10
1.806791
 20
0.582945
 40
0.003
 41
0.003
 10
1.807098
 20
0.571268
 40
0.003
 41
0.003
  0
LWPOLYLINE
  5
B6
100
AcDbEntity
  8
0
 62
     0
100
AcDbPolyline
 90
        2
 70
     0
 39
0.003
 10
1.807098
 20
0.571268
 40
0.003
 41
0.003
 10
1.810201
 20
0.559303
 40
0.003
 41
0.003
  0
LWPOLYLINE
  5
B7
100
AcDbEntity
  8
0
 62
     0
100
AcDbPolyline
 90
        2
 70
     0
 39
0.003
 10
1.810201
 20
0.559303
 40
0.003
 41
0.003
 10
1.815953
 20
0.547134
 40
0.003
 41
0.003
  0
LWPOLYLINE
  5
B8
100
AcDbEntity
  8
0
 62
     0
100
AcDbPolyline
 90
        2
 70
     0
 39
0.003
 10
1.815953
 20
0.547134
 40
0.003
 41
0.003
 10
1.824228
 20
0.53487
 40
0.003
 41
0.003
  0
LWPOLYLINE
  5
B9
100
AcDbEntity
  8
0
 62
     0
100
AcDbPolyline
 90
        2
 70
     0
 39
0.003
 10
1.824228
 20
0.53487
 40
0.003
 41
0.003
 10
1.83487
 20
0.522591
 40
0.003
 41
0.003
  0
LWPOLYLINE
  5
BA
100
AcDbEntity
  8
0
 62
     0
100
AcDbPolyline
 90
        2
 70
     0
 39
0.003
 10
1.83487
 20
0.522591
 40
0.003
 41
0.003
 10
1.847756
 20
0.510417
 40
0.003
 41
0.003
  0
LWPOLYLINE
  5
BB
100
AcDbEntity
  8
0
 62
     0
100
AcDbPolyline
 90
        2
 70
     0
 39
0.003
 10
1.847756
 20
0.510417
 40
0.003
 41
0.003
 10
1.862732
 20
0.498433
 40
0.003
 41
0.003
  0
LWPOLYLINE
  5
BC
100
AcDbEntity
  8
0
 62
     0
100
AcDbPolyline
 90
        2
 70
     0
 39
0.003
 10
1.862732
 20
0.498433
 40
0.003
 41
0.003
 10
1.879681
 20
0.486748
 40
0.003
 41
0.003
  0
LWPOLYLINE
  5
BD
100
AcDbEntity
  8
0
 62
     0
100
AcDbPolyline
 90
        2
 70
     0
 39
0.003
 10
1.879681
 20
0.486748
 40
0.003
 41
0.003
 10
1.898445
 20
0.475441
 40
0.003
 41
0.003
  0
LWPOLYLINE
  5
BE
100
AcDbEntity
  8
0
 62
     0
100
AcDbPolyline
 90
        2
 70
     0
 39
0.003
 10
1.898445
 20
0.475441
 40
0.003
 41
0.003
 10
1.918894
 20
0.464634
 40
0.003
 41
0.003
  0
LWPOLYLINE
  5
BF
100
AcDbEntity
  8
0
 62
     0
100
AcDbPolyline
 90
        2
 70
     0
 39
0.003
 10
1.918894
 20
0.464634
 40
0.003
 41
0.003
 10
1.940886
 20
0.454409
 40
0.003
 41
0.003
  0
LWPOLYLINE
  5
C0
100
AcDbEntity
  8
0
 62
     0
100
AcDbPolyline
 90
        2
 70
     0
 39
0.003
 10
1.940886
 20
0.454409
 40
0.003
 41
0.003
 10
1.964291
 20
0.44487
 40
0.003
 41
0.003
  0
LWPOLYLINE
  5
C1
100
AcDbEntity
  8
0
 62
     0
100
AcDbPolyline
 90
        2
 70
     0
 39
0.003
 10
1.964291
 20
0.44487
 40
0.003
 41
0.003
 10
1.988949
 20
0.43611
 40
0.003
 41
0.003
  0
LWPOLYLINE
  5
C2
100
AcDbEntity
  8
0
 62
     0
100
AcDbPolyline
 90
        2
 70
     0
 39
0.003
 10
1.988949
 20
0.43611
 40
0.003
 41
0.003
 10
2.014744
 20
0.428232
 40
0.003
 41
0.003
  0
LWPOLYLINE
  5
C3
100
AcDbEntity
  8
0
 62
     0
100
AcDbPolyline
 90
        2
 70
     0
 39
0.003
 10
2.014744
 20
0.428232
 40
0.003
 41
0.003
 10
2.041524
 20
0.421335
 40
0.003
 41
0.003
  0
LWPOLYLINE
  5
C4
100
AcDbEntity
  8
0
 62
     0
100
AcDbPolyline
 90
        2
 70
     0
 39
0.003
 10
2.041524
 20
0.421335
 40
0.003
 41
0.003
 10
2.069161
 20
0.415516
 40
0.003
 41
0.003
  0
LWPOLYLINE
  5
C5
100
AcDbEntity
  8
0
 62
     0
100
AcDbPolyline
 90
        2
 70
     0
 39
0.003
 10
2.069161
 20
0.415516
 40
0.003
 41
0.003
 10
2.097504
 20
0.410866
 40
0.003
 41
0.003
  0
LWPOLYLINE
  5
C6
100
AcDbEntity
  8
0
 62
     0
100
AcDbPolyline
 90
        2
 70
     0
 39
0.003
 10
2.097504
 20
0.410866
 40
0.003
 41
0.003
 10
2.126421
 20
0.4075
 40
0.003
 41
0.003
  0
LWPOLYLINE
  5
C7
100
AcDbEntity
  8
0
 62
     0
100
AcDbPolyline
 90
        2
 70
     0
 39
0.003
 10
2.126421
 20
0.4075
 40
0.003
 41
0.003
 10
2.155772
 20
0.405504
 40
0.003
 41
0.003
  0
LWPOLYLINE
  5
C8
100
AcDbEntity
  8
0
 62
     0
100
AcDbPolyline
 90
        2
 70
     0
 39
0.003
 10
2.155772
 20
0.405504
 40
0.003
 41
0.003
 10
2.185425
 20
0.40498
 40
0.003
 41
0.003
  0
LWPOLYLINE
  5
C9
100
AcDbEntity
  8
0
 62
   254
100
AcDbPolyline
 90
        2
 70
     0
 39
0.003
 10
2.071437
 20
0.664075
 40
0.003
 41
0.003
 10
2.724858
 20
1.044425
 40
0.003
 41
0.003
  0
LWPOLYLINE
  5
CA
100
AcDbEntity
  8
0
 62
   254
100
AcDbPolyline
 90
        2
 70
     0
 39
0.003
 10
2.724858
 20
1.044425
 40
0.003
 41
0.003
 10
2.723276
 20
1.090374
 40
0.003
 41
0.003
  0
LWPOLYLINE
  5
CB
100
AcDbEntity
  8
0
 62
   254
100
AcDbPolyline
 90
        2
 70
     0
 39
0.003
 10
2.723276
 20
1.090374
 40
0.003
 41
0.003
 10
2.069854
 20
0.710024
 40
0.003
 41
0.003
  0
LWPOLYLINE
  5
CC
100
AcDbEntity
  8
0
 62
   254
100
AcDbPolyline
 90
        2
 70
     0
 39
0.003
 10
2.069854
 20
0.710024
 40
0.003
 41
0.003
 10
2.071437
 20
0.664075
 40
0.003
 41
0.003
  0
LWPOLYLINE
  5
CD
100
AcDbEntity
  8
0
 62
   254
100
AcDbPolyline
 90
        2
 70
     0
 39
0.003
 10
2.069854
 20
0.710024
 40
0.003
 41
0.003
 10
2.723276
 20
1.090374
 40
0.003
 41
0.003
  0
LWPOLYLINE
  5
CE
100
AcDbEntity
  8
0
 62
   254
100
AcDbPolyline
 90
        2
 70
     0
 39
0.003
 10
2.723276
 20
1.090374
 40
0.003
 41
0.003
 10
2.719181
 20
1.135118
 40
0.003
 41
0.003
  0
LWPOLYLINE
  5
CF
100
AcDbEntity
  8
0
 62
   254
100
AcDbPolyline
 90
        2
 70
     0
 39
0.003
 10
2.719181
 20
1.135118
 40
0.003
 41
0.003
 10
2.06576
 20
0.754768
 40
0.003
 41
0.003
  0
LWPOLYLINE
  5
D0
100
AcDbEntity
  8
0
 62
   254
100
AcDbPolyline
 90
        2
 70
     0
 39
0.003
 10
2.06576
 20
0.754768
 40
0.003
 41
0.003
 10
2.069854
 20
0.710024
 40
0.003
 41
0.003
  0
LWPOLYLINE
  5
D1
100
AcDbEntity
  8
0
 62
   254
100
AcDbPolyline
 90
        2
 70
     0
 39
0.003
 10
2.06576
 20
0.754768
 40
0.003
 41
0.003
 10
2.719181
 20
1.135118
 40
0.003
 41
0.003
  0
LWPOLYLINE
  5
D2
100
AcDbEntity
  8
0
 62
   254
100
AcDbPolyline
 90
        2
 70
     0
 39
0.003
 10
2.719181
 20
1.135118
 40
0.003
 41
0.003
 10
2.71263
 20
1.178661
 40
0.003
 41
0.003
  0
LWPOLYLINE
  5
D3
100
AcDbEntity
  8
0
 62
   254
100
AcDbPolyline
 90
        2
 70
     0
 39
0.003
 10
2.71263
 20
1.178661
 40
0.003
 41
0.003
 10
2.059209
 20
0.798311
 40
0.003
 41
0.003
  0
LWPOLYLINE
  5
D4
100
AcDbEntity
  8
0
 62
   254
100
AcDbPolyline
 90
        2
 70
     0
 39
0.003
 10
2.059209
 20
0.798311
 40
0.003
 41
0.003
 10
2.06576
 20
0.754768
 40
0.003
 41
0.003
  0
LWPOLYLINE
  5
D5
100
AcDbEntity
  8
0
 62
   254
100
AcDbPolyline
 90
        2
 70
     0
 39
0.003
 10
2.059209
 20
0.798311
 40
0.003
 41
0.003
 10
2.71263
 20
1.178661
 40
0.003
 41
0.003
  0
LWPOLYLINE
  5
D6
100
AcDbEntity
  8
0
 62
   254
100
AcDbPolyline
 90
        2
 70
     0
 39
0.003
 10
2.71263
 20
1.178661
 40
0.003
 41
0.003
 10
2.703701
 20
1.221024
 40
0.003
 41
0.003
  0
LWPOLYLINE
  5
D7
100
AcDbEntity
  8
0
 62
   254
100
AcDbPolyline
 90
        2
 70
     0
 39
0.003
 10
2.703701
 20
1.221024
 40
0.003
 41
0.003
 10
2.05028
 20
0.840673
 40
0.003
 41
0.003
  0
LWPOLYLINE
  5
D8
100
AcDbEntity
  8
0
 62
   254
100
AcDbPolyline
 90
        2
 70
     0
 39
0.003
 10
2.05028
 20
0.840673
 40
0.003
 41
0.003
 10
2.059209
 20
0.798311
 40
0.003
 41
0.003
  0
LWPOLYLINE
  5
D9
100
AcDbEntity
  8
0
 62
   254
100
AcDbPolyline
 90
        2
 70
     0
 39
0.003
 10
2.05028
 20
0.840673
 40
0.003
 41
0.003
 10
2.703701
 20
1.221024
 40
0.003
 41
0.003
  0
LWPOLYLINE
  5
DA
100
AcDbEntity
  8
0
 62
   254
100
AcDbPolyline
 90
        2
 70
     0
 39
0.003
 10
2.703701
 20
1.221024
 40
0.003
 41
0.003
 10
2.692441
 20
1.262209
 40
0.003
 41
0.003
  0
LWPOLYLINE
  5
DB
100
AcDbEntity
  8
0
 62
   254
100
AcDbPolyline
 90
        2
 70
     0
 39
0.003
 10
2.692441
 20
1.262209
 40
0.003
 41
0.003
 10
2.03902
 20
0.881858
 40
0.003
 41
0.003
  0
LWPOLYLINE
  5
DC
100
AcDbEntity
  8
0
 62
   254
100
AcDbPolyline
 90
        2
 70
     0
 39
0.003
 10
2.03902
 20
0.881858
 40
0.003
 41
0.003
 10
2.05028
 20
0.840673
 40
0.003
 41
0.003
  0
LWPOLYLINE
  5
DD
100
AcDbEntity
  8
0
 62
   254
100
AcDbPolyline
 90
        2
 70
     0
 39
0.003
 10
2.03902
 20
0.881858
 40
0.003
 41
0.003
 10
2.692441
 20
1.262209
 40
0.003
 41
0.003
  0
LWPOLYLINE
  5
DE
100
AcDbEntity
  8
0
 62
   254
100
AcDbPolyline
 90
        2
 70
     0
 39
0.003
 10
2.692441
 20
1.262209
 40
0.003
 41
0.003
 10
2.678929
 20
1.302236
 40
0.003
 41
0.003
  0
LWPOLYLINE
  5
DF
100
AcDbEntity
  8
0
 62
   254
100
AcDbPolyline
 90
        2
 70
     0
 39
0.003
 10
2.678929
 20
1.302236
 40
0.003
 41
0.003
 10
2.025508
 20
0.921886
 40
0.003
 41
0.003
  0
LWPOLYLINE
  5
E0
100
AcDbEntity
  8
0
 62
   254
100
AcDbPolyline
 90
        2
 70
     0
 39
0.003
 10
2.025508
 20
0.921886
 40
0.003
 41
0.003
 10
2.03902
 20
0.881858
 40
0.003
 41
0.003
  0
LWPOLYLINE
  5
E1
100
AcDbEntity
  8
0
 62
   254
100
AcDbPolyline
 90
        2
 70
     0
 39
0.003
 10
2.025508
 20
0.921886
 40
0.003
 41
0.003
 10
2.678929
 20
1.302236
 40
0.003
 41
0.003
  0
LWPOLYLINE
  5
E2
100
AcDbEntity
  8
0
 62
   254
100
AcDbPolyline
 90
        2
 70
     0
 39
0.003
 10
2.678929
 20
1.302236
 40
0.003
 41
0.003
 10
2.66322
 20
1.34111
 40
0.003
 41
0.003
  0
LWPOLYLINE
  5
E3
100
AcDbEntity
  8
0
 62
   254
100
AcDbPolyline
 90
        2
 70
     0
 39
0.003
 10
2.66322
 20
1.34111
 40
0.003
 41
0.003
 10
2.009799
 20
0.96076
 40
0.003
 41
0.003
  0
LWPOLYLINE
  5
E4
100
AcDbEntity
  8
0
 62
   254
100
AcDbPolyline
 90
        2
 70
     0
 39
0.003
 10
2.009799
 20
0.96076
 40
0.003
 41
0.003
 10
2.025508
 20
0.921886
 40
0.003
 41
0.003
  0
LWPOLYLINE
  5
E5
100
AcDbEntity
  8
0
 62
   254
100
AcDbPolyline
 90
        2
 70
     0
 39
0.003
 10
2.009799
 20
0.96076
 40
0.003
 41
0.003
 10
2.66322
 20
1.34111
 40
0.003
 41
0.003
  0
LWPOLYLINE
  5
E6
100
AcDbEntity
  8
0
 62
   254
100
AcDbPolyline
 90
        2
 70
     0
 39
0.003
 10
2.66322
 20
1.34111
 40
0.003
 41
0.003
 10
2.64539
 20
1.378858
 40
0.003
 41
0.003
  0
LWPOLYLINE
  5
E7
100
AcDbEntity
  8
0
 62
   254
100
AcDbPolyline
 90
        2
 70
     0
 39
0.003
 10
2.64539
 20
1.378858
 40
0.003
 41
0.003
 10
1.991969
 20
0.998508
 40
0.003
 41
0.003
  0
LWPOLYLINE
  5
E8
100
AcDbEntity
  8
0
 62
   254
100
AcDbPolyline
 90
        2
 70
     0
 39
0.003
 10
1.991969
 20
0.998508
 40
0.003
 41
0.003
 10
2.009799
 20
0.96076
 40
0.003
 41
0.003
  0
LWPOLYLINE
  5
E9
100
AcDbEntity
  8
0
 62
   254
100
AcDbPolyline
 90
        2
 70
     0
 39
0.003
 10
1.991969
 20
0.998508
 40
0.003
 41
0.003
 10
2.64539
 20
1.378858
 40
0.003
 41
0.003
  0
LWPOLYLINE
  5
EA
100
AcDbEntity
  8
0
 62
   254
100
AcDbPolyline
 90
        2
 70
     0
 39
0.003
 10
2.64539
 20
1.378858
 40
0.003
 41
0.003
 10
2.625488
 20
1.415472
 40
0.003
 41
0.003
  0
LWPOLYLINE
  5
EB
100
AcDbEntity
  8
0
 62
   254
100
AcDbPolyline
 90
        2
 70
     0
 39
0.003
 10
2.625488
 20
1.415472
 40
0.003
 41
0.003
 10
1.972067
 20
1.035122
 40
0.003
 41
0.003
  0
LWPOLYLINE
  5
EC
100
AcDbEntity
  8
0
 62
   254
100
AcDbPolyline
 90
        2
 70
     0
 39
0.003
 10
1.972067
 20
1.035122
 40
0.003
 41
0.003
 10
1.991969
 20
0.998508
 40
0.003
 41
0.003
  0
LWPOLYLINE
  5
ED
100
AcDbEntity
  8
0
 62
     9
100
AcDbPolyline
 90
        2
 70
     0
 39
0.003
 10
1.972067
 20
1.035122
 40
0.003
 41
0.003
 10
2.625488
 20
1.415472
 40
0.003
 41
0.003
  0
LWPOLYLINE
  5
EE
100
AcDbEntity
  8
0
 62
     9
100
AcDbPolyline
 90
        2
 70
     0
 39
0.003
 10
2.625488
 20
1.415472
 40
0.003
 41
0.003
 10
2.603591
 20
1.45098
 40
0.003
 41
0.003
  0
LWPOLYLINE
  5
EF
100
AcDbEntity
  8
0
 62
     9
100
AcDbPolyline
 90
        2
 70
     0
 39
0.003
 10
2.603591
 20
1.45098
 40
0.003
 41
0.003
 10
1.950169
 20
1.07063
 40
0.003
 41
0.003
  0
LWPOLYLINE
  5
F0
100
AcDbEntity
  8
0
 62
     9
100
AcDbPolyline
 90
        2
 70
     0
 39
0.003
 10
1.950169
 20
1.07063
 40
0.003
 41
0.003
 10
1.972067
 20
1.035122
 40
0.003
 41
0.003
  0
LWPOLYLINE
  5
F1
100
AcDbEntity
  8
0
 62
     9
100
AcDbPolyline
 90
        2
 70
     0
 39
0.003
 10
1.950169
 20
1.07063
 40
0.003
 41
0.003
 10
2.603591
 20
1.45098
 40
0.003
 41
0.003
  0
LWPOLYLINE
  5
F2
100
AcDbEntity
  8
0
 62
     9
100
AcDbPolyline
 90
        2
 70
     0
 39
0.003
 10
2.603591
 20
1.45098
 40
0.003
 41
0.003
 10
2.57976
 20
1.48539
 40
0.003
 41
0.003
  0
LWPOLYLINE
  5
F3
100
AcDbEntity
  8
0
 62
     9
100
AcDbPolyline
 90
        2
 70
     0
 39
0.003
 10
2.57976
 20
1.48539
 40
0.003
 41
0.003
 10
1.926339
 20
1.105039
 40
0.003
 41
0.003
  0
LWPOLYLINE
  5
F4
100
AcDbEntity
  8
0
 62
     9
100
AcDbPolyline
 90
        2
 70
     0
 39
0.003
 10
1.926339
 20
1.105039
 40
0.003
 41
0.003
 10
1.950169
 20
1.07063
 40
0.003
 41
0.003
  0
LWPOLYLINE
  5
F5
100
AcDbEntity
  8
0
 62
     9
100
AcDbPolyline
 90
        2
 70
     0
 39
0.003
 10
1.926339
 20
1.105039
 40
0.003
 41
0.003
 10
2.57976
 20
1.48539
 40
0.003
 41
0.003
  0
LWPOLYLINE
  5
F6
100
AcDbEntity
  8
0
 62
     9
100
AcDbPolyline
 90
        2
 70
     0
 39
0.003
 10
2.57976
 20
1.48539
 40
0.003
 41
0.003
 10
2.554067
 20
1.518713
 40
0.003
 41
0.003
  0
LWPOLYLINE
  5
F7
100
AcDbEntity
  8
0
 62
     9
100
AcDbPolyline
 90
        2
 70
     0
 39
0.003
 10
2.554067
 20
1.518713
 40
0.003
 41
0.003
 10
1.900646
 20
1.138362
 40
0.003
 41
0.003
  0
LWPOLYLINE
  5
F8
100
AcDbEntity
  8
0
 62
     9
100
AcDbPolyline
 90
        2
 70
     0
 39
0.003
 10
1.900646
 20
1.138362
 40
0.003
 41
0.003
 10
1.926339
 20
1.105039
 40
0.003
 41
0.003
  0
LWPOLYLINE
  5
F9
100
AcDbEntity
  8
0
 62
     9
100
AcDbPolyline
 90
        2
 70
     0
 39
0.003
 10
1.900646
 20
1.138362
 40
0.003
 41
0.003
 10
2.554067
 20
1.518713
 40
0.003
 41
0.003
  0
LWPOLYLINE
  5
FA
100
AcDbEntity
  8
0
 62
     9
100
AcDbPolyline
 90
        2
 70
     0
 39
0.003
 10
2.554067
 20
1.518713
 40
0.003
 41
0.003
 10
2.526563
 20
1.550957
 40
0.003
 41
0.003
  0
LWPOLYLINE
  5
FB
100
AcDbEntity
  8
0
 62
     9
100
AcDbPolyline
 90
        2
 70
     0
 39
0.003
 10
2.526563
 20
1.550957
 40
0.003
 41
0.003
 10
1.873142
 20
1.170606
 40
0.003
 41
0.003
  0
LWPOLYLINE
  5
FC
100
AcDbEntity
  8
0
 62
     9
100
AcDbPolyline
 90
        2
 70
     0
 39
0.003
 10
1.873142
 20
1.170606
 40
0.003
 41
0.003
 10
1.900646
 20
1.138362
 40
0.003
 41
0.003
  0
LWPOLYLINE
  5
FD
100
AcDbEntity
  8
0
 62
     9
100
AcDbPolyline
 90
        2
 70
     0
 39
0.003
 10
1.873142
 20
1.170606
 40
0.003
 41
0.003
 10
2.526563
 20
1.550957
 40
0.003
 41
0.003
  0
LWPOLYLINE
  5
FE
100
AcDbEntity
  8
0
 62
     9
100
AcDbPolyline
 90
        2
 70
     0
 39
0.003
 10
2.526563
 20
1.550957
 40
0.003
 41
0.003
 10
2.497331
 20
1.58215
 40
0.003
 41
0.003
  0
LWPOLYLINE
  5
FF
100
AcDbEntity
  8
0
 62
     9
100
AcDbPolyline
 90
        2
 70
     0
 39
0.003
 10
2.497331
 20
1.58215
 40
0.003
 41
0.003
 10
1.843909
 20
1.201799
 40
0.003
 41
0.003
  0
LWPOLYLINE
  5
100
100
AcDbEntity
  8
0
 62
     9
100
AcDbPolyline
 90
        2
 70
     0
 39
0.003
 10
1.843909
 20
1.201799
 40
0.003
 41
0.003
 10
1.873142
 20
1.170606
 40
0.003
 41
0.003
  0
LWPOLYLINE
  5
101
100
AcDbEntity
  8
0
 62
     9
100
AcDbPolyline
 90
        2
 70
     0
 39
0.003
 10
1.843909
 20
1.201799
 40
0.003
 41
0.003
 10
2.497331
 20
1.58215
 40
0.003
 41
0.003
  0
LWPOLYLINE
  5
102
100
AcDbEntity
  8
0
 62
     9
100
AcDbPolyline
 90
        2
 70
     0
 39
0.003
 10
2.497331
 20
1.58215
 40
0.003
 41
0.003
 10
2.466421
 20
1.612287
 40
0.003
 41
0.003
  0
LWPOLYLINE
  5
103
100
AcDbEntity
  8
0
 62
     9
100
AcDbPolyline
 90
        2
 70
     0
 39
0.003
 10
2.466421
 20
1.612287
 40
0.003
 41
0.003
 10
1.813
 20
1.231937
 40
0.003
 41
0.003
  0
LWPOLYLINE
  5
104
100
AcDbEntity
  8
0
 62
     9
100
AcDbPolyline
 90
        2
 70
     0
 39
0.003
 10
1.813
 20
1.231937
 40
0.003
 41
0.003
 10
1.843909
 20
1.201799
 40
0.003
 41
0.003
  0
LWPOLYLINE
  5
105
100
AcDbEntity
  8
0
 62
     9
100
AcDbPolyline
 90
        2
 70
     0
 39
0.003
 10
1.813
 20
1.231937
 40
0.003
 41
0.003
 10
2.466421
 20
1.612287
 40
0.003
 41
0.003
  0
LWPOLYLINE
  5
106
100
AcDbEntity
  8
0
 62
     9
100
AcDbPolyline
 90
        2
 70
     0
 39
0.003
 10
2.466421
 20
1.612287
 40
0.003
 41
0.003
 10
2.433906
 20
1.641394
 40
0.003
 41
0.003
  0
LWPOLYLINE
  5
107
100
AcDbEntity
  8
0
 62
     9
100
AcDbPolyline
 90
        2
 70
     0
 39
0.003
 10
2.433906
 20
1.641394
 40
0.003
 41
0.003
 10
1.780484
 20
1.261043
 40
0.003
 41
0.003
  0
LWPOLYLINE
  5
108
100
AcDbEntity
  8
0
 62
     9
100
AcDbPolyline
 90
        2
 70
     0
 39
0.003
 10
1.780484
 20
1.261043
 40
0.003
 41
0.003
 10
1.813
 20
1.231937
 40
0.003
 41
0.003
  0
LWPOLYLINE
  5
109
100
AcDbEntity
  8
0
 62
     9
100
AcDbPolyline
 90
        2
 70
     0
 39
0.003
 10
1.780484
 20
1.261043
 40
0.003
 41
0.003
 10
2.433906
 20
1.641394
 40
0.003
 41
0.003
  0
LWPOLYLINE
  5
10A
100
AcDbEntity
  8
0
 62
     9
100
AcDbPolyline
 90
        2
 70
     0
 39
0.003
 10
2.433906
 20
1.641394
 40
0.003
 41
0.003
 10
2.399835
 20
1.669469
 40
0.003
 41
0.003
  0
LWPOLYLINE
  5
10B
100
AcDbEntity
  8
0
 62
     9
100
AcDbPolyline
 90
        2
 70
     0
 39
0.003
 10
2.399835
 20
1.669469
 40
0.003
 41
0.003
 10
1.746413
 20
1.289118
 40
0.003
 41
0.003
  0
LWPOLYLINE
  5
10C
100
AcDbEntity
  8
0
 62
     9
100
AcDbPolyline
 90
        2
 70
     0
 39
0.003
 10
1.746413
 20
1.289118
 40
0.003
 41
0.003
 10
1.780484
 20
1.261043
 40
0.003
 41
0.003
  0
LWPOLYLINE
  5
10D
100
AcDbEntity
  8
0
 62
     9
100
AcDbPolyline
 90
        2
 70
     0
 39
0.003
 10
1.746413
 20
1.289118
 40
0.003
 41
0.003
 10
2.399835
 20
1.669469
 40
0.003
 41
0.003
  0
LWPOLYLINE
  5
10E
100
AcDbEntity
  8
0
 62
     9
100
AcDbPolyline
 90
        2
 70
     0
 39
0.003
 10
2.399835
 20
1.669469
 40
0.003
 41
0.003
 10
2.364295
 20
1.696535
 40
0.003
 41
0.003
  0
LWPOLYLINE
  5
10F
100
AcDbEntity
  8
0
 62
     9
100
AcDbPolyline
 90
        2
 70
     0
 39
0.003
 10
2.364295
 20
1.696535
 40
0.003
 41
0.003
 10
1.710874
 20
1.316185
 40
0.003
 41
0.003
  0
LWPOLYLINE
  5
110
100
AcDbEntity
  8
0
 62
     9
100
AcDbPolyline
 90
        2
 70
     0
 39
0.003
 10
1.710874
 20
1.316185
 40
0.003
 41
0.003
 10
1.746413
 20
1.289118
 40
0.003
 41
0.003
  0
LWPOLYLINE
  5
111
100
AcDbEntity
  8
0
 62
     9
100
AcDbPolyline
 90
        2
 70
     0
 39
0.003
 10
1.710874
 20
1.316185
 40
0.003
 41
0.003
 10
2.364295
 20
1.696535
 40
0.003
 41
0.003
  0
LWPOLYLINE
  5
112
100
AcDbEntity
  8
0
 62
     9
100
AcDbPolyline
 90
        2
 70
     0
 39
0.003
 10
2.364295
 20
1.696535
 40
0.003
 41
0.003
 10
2.327339
 20
1.722602
 40
0.003
 41
0.003
  0
LWPOLYLINE
  5
113
100
AcDbEntity
  8
0
 62
     9
100
AcDbPolyline
 90
        2
 70
     0
 39
0.003
 10
2.327339
 20
1.722602
 40
0.003
 41
0.003
 10
1.673917
 20
1.342252
 40
0.003
 41
0.003
  0
LWPOLYLINE
  5
114
100
AcDbEntity
  8
0
 62
     9
100
AcDbPolyline
 90
        2
 70
     0
 39
0.003
 10
1.673917
 20
1.342252
 40
0.003
 41
0.003
 10
1.710874
 20
1.316185
 40
0.003
 41
0.003
  0
LWPOLYLINE
  5
115
100
AcDbEntity
  8
0
 62
     9
100
AcDbPolyline
 90
        2
 70
     0
 39
0.003
 10
1.673917
 20
1.342252
 40
0.003
 41
0.003
 10
2.327339
 20
1.722602
 40
0.003
 41
0.003
  0
LWPOLYLINE
  5
116
100
AcDbEntity
  8
0
 62
     9
100
AcDbPolyline
 90
        2
 70
     0
 39
0.003
 10
2.327339
 20
1.722602
 40
0.003
 41
0.003
 10
2.289039
 20
1.747685
 40
0.003
 41
0.003
  0
LWPOLYLINE
  5
117
100
AcDbEntity
  8
0
 62
     9
100
AcDbPolyline
 90
        2
 70
     0
 39
0.003
 10
2.289039
 20
1.747685
 40
0.003
 41
0.003
 10
1.635618
 20
1.367335
 40
0.003
 41
0.003
  0
LWPOLYLINE
  5
118
100
AcDbEntity
  8
0
 62
     9
100
AcDbPolyline
 90
        2
 70
     0
 39
0.003
 10
1.635618
 20
1.367335
 40
0.003
 41
0.003
 10
1.673917
 20
1.342252
 40
0.003
 41
0.003
  0
LWPOLYLINE
  5
119
100
AcDbEntity
  8
0
 62
     9
100
AcDbPolyline
 90
        2
 70
     0
 39
0.003
 10
1.635618
 20
1.367335
 40
0.003
 41
0.003
 10
2.289039
 20
1.747685
 40
0.003
 41
0.003
  0
LWPOLYLINE
  5
11A
100
AcDbEntity
  8
0
 62
     9
100
AcDbPolyline
 90
        2
 70
     0
 39
0.003
 10
2.289039
 20
1.747685
 40
0.003
 41
0.003
 10
2.249449
 20
1.771787
 40
0.003
 41
0.003
  0
LWPOLYLINE
  5
11B
100
AcDbEntity
  8
0
 62
     9
100
AcDbPolyline
 90
        2
 70
     0
 39
0.003
 10
2.249449
 20
1.771787
 40
0.003
 41
0.003
 10
1.596028
 20
1.391437
 40
0.003
 41
0.003
  0
LWPOLYLINE
  5
11C
100
AcDbEntity
  8
0
 62
     9
100
AcDbPolyline
 90
        2
 70
     0
 39
0.003
 10
1.596028
 20
1.391437
 40
0.003
 41
0.003
 10
1.635618
 20
1.367335
 40
0.003
 41
0.003
  0
LWPOLYLINE
  5
11D
100
AcDbEntity
  8
0
 62
     9
100
AcDbPolyline
 90
        2
 70
     0
 39
0.003
 10
1.596028
 20
1.391437
 40
0.003
 41
0.003
 10
2.249449
 20
1.771787
 40
0.003
 41
0.003
  0
LWPOLYLINE
  5
11E
100
AcDbEntity
  8
0
 62
     9
100
AcDbPolyline
 90
        2
 70
     0
 39
0.003
 10
2.249449
 20
1.771787
 40
0.003
 41
0.003
 10
2.208642
 20
1.794933
 40
0.003
 41
0.003
  0
LWPOLYLINE
  5
11F
100
AcDbEntity
  8
0
 62
     9
100
AcDbPolyline
 90
        2
 70
     0
 39
0.003
 10
2.208642
 20
1.794933
 40
0.003
 41
0.003
 10
1.55522
 20
1.414583
 40
0.003
 41
0.003
  0
LWPOLYLINE
  5
120
100
AcDbEntity
  8
0
 62
     9
100
AcDbPolyline
 90
        2
 70
     0
 39
0.003
 10
1.55522
 20
1.414583
 40
0.003
 41
0.003
 10
1.596028
 20
1.391437
 40
0.003
 41
0.003
  0
LWPOLYLINE
  5
121
100
AcDbEntity
  8
0
 62
     9
100
AcDbPolyline
 90
        2
 70
     0
 39
0.003
 10
1.55522
 20
1.414583
 40
0.003
 41
0.003
 10
2.208642
 20
1.794933
 40
0.003
 41
0.003
  0
LWPOLYLINE
  5
122
100
AcDbEntity
  8
0
 62
     9
100
AcDbPolyline
 90
        2
 70
     0
 39
0.003
 10
2.208642
 20
1.794933
 40
0.003
 41
0.003
 10
2.166681
 20
1.81713
 40
0.003
 41
0.003
  0
LWPOLYLINE
  5
123
100
AcDbEntity
  8
0
 62
     9
100
AcDbPolyline
 90
        2
 70
     0
 39
0.003
 10
2.166681
 20
1.81713
 40
0.003
 41
0.003
 10
1.51326
 20
1.43678
 40
0.003
 41
0.003
  0
LWPOLYLINE
  5
124
100
AcDbEntity
  8
0
 62
     9
100
AcDbPolyline
 90
        2
 70
     0
 39
0.003
 10
1.51326
 20
1.43678
 40
0.003
 41
0.003
 10
1.55522
 20
1.414583
 40
0.003
 41
0.003
  0
LWPOLYLINE
  5
125
100
AcDbEntity
  8
0
 62
     9
100
AcDbPolyline
 90
        2
 70
     0
 39
0.003
 10
1.51326
 20
1.43678
 40
0.003
 41
0.003
 10
2.166681
 20
1.81713
 40
0.003
 41
0.003
  0
LWPOLYLINE
  5
126
100
AcDbEntity
  8
0
 62
     9
100
AcDbPolyline
 90
        2
 70
     0
 39
0.003
 10
2.166681
 20
1.81713
 40
0.003
 41
0.003
 10
2.123638
 20
1.838394
 40
0.003
 41
0.003
  0
LWPOLYLINE
  5
127
100
AcDbEntity
  8
0
 62
     9
100
AcDbPolyline
 90
        2
 70
     0
 39
0.003
 10
2.123638
 20
1.838394
 40
0.003
 41
0.003
 10
1.470217
 20
1.458043
 40
0.003
 41
0.003
  0
LWPOLYLINE
  5
128
100
AcDbEntity
  8
0
 62
     9
100
AcDbPolyline
 90
        2
 70
     0
 39
0.003
 10
1.470217
 20
1.458043
 40
0.003
 41
0.003
 10
1.51326
 20
1.43678
 40
0.003
 41
0.003
  0
LWPOLYLINE
  5
129
100
AcDbEntity
  8
0
 62
     9
100
AcDbPolyline
 90
        2
 70
     0
 39
0.003
 10
1.470217
 20
1.458043
 40
0.003
 41
0.003
 10
2.123638
 20
1.838394
 40
0.003
 41
0.003
  0
LWPOLYLINE
  5
12A
100
AcDbEntity
  8
0
 62
     9
100
AcDbPolyline
 90
        2
 70
     0
 39
0.003
 10
2.123638
 20
1.838394
 40
0.003
 41
0.003
 10
2.079563
 20
1.858724
 40
0.003
 41
0.003
  0
LWPOLYLINE
  5
12B
100
AcDbEntity
  8
0
 62
     9
100
AcDbPolyline
 90
        2
 70
     0
 39
0.003
 10
2.079563
 20
1.858724
 40
0.003
 41
0.003
 10
1.426142
 20
1.478374
 40
0.003
 41
0.003
  0
LWPOLYLINE
  5
12C
100
AcDbEntity
  8
0
 62
     9
100
AcDbPolyline
 90
        2
 70
     0
 39
0.003
 10
1.426142
 20
1.478374
 40
0.003
 41
0.003
 10
1.470217
 20
1.458043
 40
0.003
 41
0.003
  0
LWPOLYLINE
  5
12D
100
AcDbEntity
  8
0
 62
     9
100
AcDbPolyline
 90
        2
 70
     0
 39
0.003
 10
1.426142
 20
1.478374
 40
0.003
 41
0.003
 10
2.079563
 20
1.858724
 40
0.003
 41
0.003
  0
LWPOLYLINE
  5
12E
100
AcDbEntity
  8
0
 62
     9
100
AcDbPolyline
 90
        2
 70
     0
 39
0.003
 10
2.079563
 20
1.858724
 40
0.003
 41
0.003
 10
2.034531
 20
1.87815
 40
0.003
 41
0.003
  0
LWPOLYLINE
  5
12F
100
AcDbEntity
  8
0
 62
     9
100
AcDbPolyline
 90
        2
 70
     0
 39
0.003
 10
2.034531
 20
1.87815
 40
0.003
 41
0.003
 10
1.38111
 20
1.497799
 40
0.003
 41
0.003
  0
LWPOLYLINE
  5
130
100
AcDbEntity
  8
0
 62
     9
100
AcDbPolyline
 90
        2
 70
     0
 39
0.003
 10
1.38111
 20
1.497799
 40
0.003
 41
0.003
 10
1.426142
 20
1.478374
 40
0.003
 41
0.003
  0
LWPOLYLINE
  5
131
100
AcDbEntity
  8
0
 62
     9
100
AcDbPolyline
 90
        2
 70
     0
 39
0.003
 10
1.38111
 20
1.497799
 40
0.003
 41
0.003
 10
2.034531
 20
1.87815
 40
0.003
 41
0.003
  0
LWPOLYLINE
  5
132
100
AcDbEntity
  8
0
 62
     9
100
AcDbPolyline
 90
        2
 70
     0
 39
0.003
 10
2.034531
 20
1.87815
 40
0.003
 41
0.003
 10
1.988602
 20
1.896673
 40
0.003
 41
0.003
  0
LWPOLYLINE
  5
133
100
AcDbEntity
  8
0
 62
     9
100
AcDbPolyline
 90
        2
 70
     0
 39
0.003
 10
1.988602
 20
1.896673
 40
0.003
 41
0.003
 10
1.335181
 20
1.516323
 40
0.003
 41
0.003
  0
LWPOLYLINE
  5
134
100
AcDbEntity
  8
0
 62
     9
100
AcDbPolyline
 90
        2
 70
     0
 39
0.003
 10
1.335181
 20
1.516323
 40
0.003
 41
0.003
 10
1.38111
 20
1.497799
 40
0.003
 41
0.003
  0
LWPOLYLINE
  5
135
100
AcDbEntity
  8
0
 62
     9
100
AcDbPolyline
 90
        2
 70
     0
 39
0.003
 10
1.335181
 20
1.516323
 40
0.003
 41
0.003
 10
1.988602
 20
1.896673
 40
0.003
 41
0.003
  0
LWPOLYLINE
  5
136
100
AcDbEntity
  8
0
 62
     9
100
AcDbPolyline
 90
        2
 70
     0
 39
0.003
 10
1.988602
 20
1.896673
 40
0.003
 41
0.003
 10
1.941854
 20
1.914311
 40
0.003
 41
0.003
  0
LWPOLYLINE
  5
137
100
AcDbEntity
  8
0
 62
     9
100
AcDbPolyline
 90
        2
 70
     0
 39
0.003
 10
1.941854
 20
1.914311
 40
0.003
 41
0.003
 10
1.288433
 20
1.533961
 40
0.003
 41
0.003
  0
LWPOLYLINE
  5
138
100
AcDbEntity
  8
0
 62
     9
100
AcDbPolyline
 90
        2
 70
     0
 39
0.003
 10
1.288433
 20
1.533961
 40
0.003
 41
0.003
 10
1.335181
 20
1.516323
 40
0.003
 41
0.003
  0
LWPOLYLINE
  5
139
100
AcDbEntity
  8
0
 62
     9
100
AcDbPolyline
 90
        2
 70
     0
 39
0.003
 10
1.288433
 20
1.533961
 40
0.003
 41
0.003
 10
1.941854
 20
1.914311
 40
0.003
 41
0.003
  0
LWPOLYLINE
  5
13A
100
AcDbEntity
  8
0
 62
     9
100
AcDbPolyline
 90
        2
 70
     0
 39
0.003
 10
1.941854
 20
1.914311
 40
0.003
 41
0.003
 10
1.894331
 20
1.931071
 40
0.003
 41
0.003
  0
LWPOLYLINE
  5
13B
100
AcDbEntity
  8
0
 62
     9
100
AcDbPolyline
 90
        2
 70
     0
 39
0.003
 10
1.894331
 20
1.931071
 40
0.003
 41
0.003
 10
1.240909
 20
1.55072
 40
0.003
 41
0.003
  0
LWPOLYLINE
  5
13C
100
AcDbEntity
  8
0
 62
     9
100
AcDbPolyline
 90
        2
 70
     0
 39
0.003
 10
1.240909
 20
1.55072
 40
0.003
 41
0.003
 10
1.288433
 20
1.533961
 40
0.003
 41
0.003
  0
LWPOLYLINE
  5
13D
100
AcDbEntity
  8
0
 62
     9
100
AcDbPolyline
 90
        2
 70
     0
 39
0.003
 10
1.240909
 20
1.55072
 40
0.003
 41
0.003
 10
1.894331
 20
1.931071
 40
0.003
 41
0.003
  0
LWPOLYLINE
  5
13E
100
AcDbEntity
  8
0
 62
     9
100
AcDbPolyline
 90
        2
 70
     0
 39
0.003
 10
1.894331
 20
1.931071
 40
0.003
 41
0.003
 10
1.846114
 20
1.946972
 40
0.003
 41
0.003
  0
LWPOLYLINE
  5
13F
100
AcDbEntity
  8
0
 62
     9
100
AcDbPolyline
 90
        2
 70
     0
 39
0.003
 10
1.846114
 20
1.946972
 40
0.003
 41
0.003
 10
1.192693
 20
1.566622
 40
0.003
 41
0.003
  0
LWPOLYLINE
  5
140
100
AcDbEntity
  8
0
 62
     9
100
AcDbPolyline
 90
        2
 70
     0
 39
0.003
 10
1.192693
 20
1.566622
 40
0.003
 41
0.003
 10
1.240909
 20
1.55072
 40
0.003
 41
0.003
  0
LWPOLYLINE
  5
141
100
AcDbEntity
  8
0
 62
     9
100
AcDbPolyline
 90
        2
 70
     0
 39
0.003
 10
1.192693
 20
1.566622
 40
0.003
 41
0.003
 10
1.846114
 20
1.946972
 40
0.003
 41
0.003
  0
LWPOLYLINE
  5
142
100
AcDbEntity
  8
0
 62
     9
100
AcDbPolyline
 90
        2
 70
     0
 39
0.003
 10
1.846114
 20
1.946972
 40
0.003
 41
0.003
 10
1.797264
 20
1.962024
 40
0.003
 41
0.003
  0
LWPOLYLINE
  5
143
100
AcDbEntity
  8
0
 62
     9
100
AcDbPolyline
 90
        2
 70
     0
 39
0.003
 10
1.797264
 20
1.962024
 40
0.003
 41
0.003
 10
1.143843
 20
1.581673
 40
0.003
 41
0.003
  0
LWPOLYLINE
  5
144
100
AcDbEntity
  8
0
 62
     9
100
AcDbPolyline
 90
        2
 70
     0
 39
0.003
 10
1.143843
 20
1.581673
 40
0.003
 41
0.003
 10
1.192693
 20
1.566622
 40
0.003
 41
0.003
  0
LWPOLYLINE
  5
145
100
AcDbEntity
  8
0
 62
     9
100
AcDbPolyline
 90
        2
 70
     0
 39
0.003
 10
1.143843
 20
1.581673
 40
0.003
 41
0.003
 10
1.797264
 20
1.962024
 40
0.003
 41
0.003
  0
LWPOLYLINE
  5
146
100
AcDbEntity
  8
0
 62
     9
100
AcDbPolyline
 90
        2
 70
     0
 39
0.003
 10
1.797264
 20
1.962024
 40
0.003
 41
0.003
 10
1.747846
 20
1.976244
 40
0.003
 41
0.003
  0
LWPOLYLINE
  5
147
100
AcDbEntity
  8
0
 62
     9
100
AcDbPolyline
 90
        2
 70
     0
 39
0.003
 10
1.747846
 20
1.976244
 40
0.003
 41
0.003
 10
1.094425
 20
1.595894
 40
0.003
 41
0.003
  0
LWPOLYLINE
  5
148
100
AcDbEntity
  8
0
 62
     9
100
AcDbPolyline
 90
        2
 70
     0
 39
0.003
 10
1.094425
 20
1.595894
 40
0.003
 41
0.003
 10
1.143843
 20
1.581673
 40
0.003
 41
0.003
  0
LWPOLYLINE
  5
149
100
AcDbEntity
  8
0
 62
     0
100
AcDbPolyline
 90
        2
 70
     0
 39
0.003
 10
2.071437
 20
0.664075
 40
0.003
 41
0.003
 10
2.724858
 20
1.044425
 40
0.003
 41
0.003
  0
LWPOLYLINE
  5
14A
100
AcDbEntity
  8
0
 62
     0
100
AcDbPolyline
 90
        2
 70
     0
 39
0.003
 10
2.724858
 20
1.044425
 40
0.003
 41
0.003
 10
2.723276
 20
1.090374
 40
0.003
 41
0.003
  0
LWPOLYLINE
  5
14B
100
AcDbEntity
  8
0
 62
     0
100
AcDbPolyline
 90
        2
 70
     0
 39
0.003
 10
2.723276
 20
1.090374
 40
0.003
 41
0.003
 10
2.719181
 20
1.135118
 40
0.003
 41
0.003
  0
LWPOLYLINE
  5
14C
100
AcDbEntity
  8
0
 62
     0
100
AcDbPolyline
 90
        2
 70
     0
 39
0.003
 10
2.719181
 20
1.135118
 40
0.003
 41
0.003
 10
2.71263
 20
1.178661
 40
0.003
 41
0.003
  0
LWPOLYLINE
  5
14D
100
AcDbEntity
  8
0
 62
     0
100
AcDbPolyline
 90
        2
 70
     0
 39
0.003
 10
2.71263
 20
1.178661
 40
0.003
 41
0.003
 10
2.703701
 20
1.221024
 40
0.003
 41
0.003
  0
LWPOLYLINE
  5
14E
100
AcDbEntity
  8
0
 62
     0
100
AcDbPolyline
 90
        2
 70
     0
 39
0.003
 10
2.703701
 20
1.221024
 40
0.003
 41
0.003
 10
2.692441
 20
1.262209
 40
0.003
 41
0.003
  0
LWPOLYLINE
  5
14F
100
AcDbEntity
  8
0
 62
     0
100
AcDbPolyline
 90
        2
 70
     0
 39
0.003
 10
2.692441
 20
1.262209
 40
0.003
 41
0.003
 10
2.678929
 20
1.302236
 40
0.003
 41
0.003
  0
LWPOLYLINE
  5
150
100
AcDbEntity
  8
0
 62
     0
100
AcDbPolyline
 90
        2
 70
     0
 39
0.003
 10
2.678929
 20
1.302236
 40
0.003
 41
0.003
 10
2.66322
 20
1.34111
 40
0.003
 41
0.003
  0
LWPOLYLINE
  5
151
100
AcDbEntity
  8
0
 62
     0
100
AcDbPolyline
 90
        2
 70
     0
 39
0.003
 10
2.66322
 20
1.34111
 40
0.003
 41
0.003
 10
2.64539
 20
1.378858
 40
0.003
 41
0.003
  0
LWPOLYLINE
  5
152
100
AcDbEntity
  8
0
 62
     0
100
AcDbPolyline
 90
        2
 70
     0
 39
0.003
 10
2.64539
 20
1.378858
 40
0.003
 41
0.003
 10
2.625488
 20
1.415472
 40
0.003
 41
0.003
  0
LWPOLYLINE
  5
153
100
AcDbEntity
  8
0
 62
     0
100
AcDbPolyline
 90
        2
 70
     0
 39
0.003
 10
2.625488
 20
1.415472
 40
0.003
 41
0.003
 10
2.603591
 20
1.45098
 40
0.003
 41
0.003
  0
LWPOLYLINE
  5
154
100
AcDbEntity
  8
0
 62
     0
100
AcDbPolyline
 90
        2
 70
     0
 39
0.003
 10
2.603591
 20
1.45098
 40
0.003
 41
0.003
 10
2.57976
 20
1.48539
 40
0.003
 41
0.003
  0
LWPOLYLINE
  5
155
100
AcDbEntity
  8
0
 62
     0
100
AcDbPolyline
 90
        2
 70
     0
 39
0.003
 10
2.57976
 20
1.48539
 40
0.003
 41
0.003
 10
2.554067
 20
1.518713
 40
0.003
 41
0.003
  0
LWPOLYLINE
  5
156
100
AcDbEntity
  8
0
 62
     0
100
AcDbPolyline
 90
        2
 70
     0
 39
0.003
 10
2.554067
 20
1.518713
 40
0.003
 41
0.003
 10
2.526563
 20
1.550957
 40
0.003
 41
0.003
  0
LWPOLYLINE
  5
157
100
AcDbEntity
  8
0
 62
     0
100
AcDbPolyline
 90
        2
 70
     0
 39
0.003
 10
2.526563
 20
1.550957
 40
0.003
 41
0.003
 10
2.497331
 20
1.58215
 40
0.003
 41
0.003
  0
LWPOLYLINE
  5
158
100
AcDbEntity
  8
0
 62
     0
100
AcDbPolyline
 90
        2
 70
     0
 39
0.003
 10
2.497331
 20
1.58215
 40
0.003
 41
0.003
 10
2.466421
 20
1.612287
 40
0.003
 41
0.003
  0
LWPOLYLINE
  5
159
100
AcDbEntity
  8
0
 62
     0
100
AcDbPolyline
 90
        2
 70
     0
 39
0.003
 10
2.466421
 20
1.612287
 40
0.003
 41
0.003
 10
2.433906
 20
1.641394
 40
0.003
 41
0.003
  0
LWPOLYLINE
  5
15A
100
AcDbEntity
  8
0
 62
     0
100
AcDbPolyline
 90
        2
 70
     0
 39
0.003
 10
2.433906
 20
1.641394
 40
0.003
 41
0.003
 10
2.399835
 20
1.669469
 40
0.003
 41
0.003
  0
LWPOLYLINE
  5
15B
100
AcDbEntity
  8
0
 62
     0
100
AcDbPolyline
 90
        2
 70
     0
 39
0.003
 10
2.399835
 20
1.669469
 40
0.003
 41
0.003
 10
2.364295
 20
1.696535
 40
0.003
 41
0.003
  0
LWPOLYLINE
  5
15C
100
AcDbEntity
  8
0
 62
     0
100
AcDbPolyline
 90
        2
 70
     0
 39
0.003
 10
2.364295
 20
1.696535
 40
0.003
 41
0.003
 10
2.327339
 20
1.722602
 40
0.003
 41
0.003
  0
LWPOLYLINE
  5
15D
100
AcDbEntity
  8
0
 62
     0
100
AcDbPolyline
 90
        2
 70
     0
 39
0.003
 10
2.327339
 20
1.722602
 40
0.003
 41
0.003
 10
2.289039
 20
1.747685
 40
0.003
 41
0.003
  0
LWPOLYLINE
  5
15E
100
AcDbEntity
  8
0
 62
     0
100
AcDbPolyline
 90
        2
 70
     0
 39
0.003
 10
2.289039
 20
1.747685
 40
0.003
 41
0.003
 10
2.249449
 20
1.771787
 40
0.003
 41
0.003
  0
LWPOLYLINE
  5
15F
100
AcDbEntity
  8
0
 62
     0
100
AcDbPolyline
 90
        2
 70
     0
 39
0.003
 10
2.249449
 20
1.771787
 40
0.003
 41
0.003
 10
2.208642
 20
1.794933
 40
0.003
 41
0.003
  0
LWPOLYLINE
  5
160
100
AcDbEntity
  8
0
 62
     0
100
AcDbPolyline
 90
        2
 70
     0
 39
0.003
 10
2.208642
 20
1.794933
 40
0.003
 41
0.003
 10
2.166681
 20
1.81713
 40
0.003
 41
0.003
  0
LWPOLYLINE
  5
161
100
AcDbEntity
  8
0
 62
     0
100
AcDbPolyline
 90
        2
 70
     0
 39
0.003
 10
2.166681
 20
1.81713
 40
0.003
 41
0.003
 10
2.123638
 20
1.838394
 40
0.003
 41
0.003
  0
LWPOLYLINE
  5
162
100
AcDbEntity
  8
0
 62
     0
100
AcDbPolyline
 90
        2
 70
     0
 39
0.003
 10
2.123638
 20
1.838394
 40
0.003
 41
0.003
 10
2.079563
 20
1.858724
 40
0.003
 41
0.003
  0
LWPOLYLINE
  5
163
100
AcDbEntity
  8
0
 62
     0
100
AcDbPolyline
 90
        2
 70
     0
 39
0.003
 10
2.079563
 20
1.858724
 40
0.003
 41
0.003
 10
2.034531
 20
1.87815
 40
0.003
 41
0.003
  0
LWPOLYLINE
  5
164
100
AcDbEntity
  8
0
 62
     0
100
AcDbPolyline
 90
        2
 70
     0
 39
0.003
 10
2.034531
 20
1.87815
 40
0.003
 41
0.003
 10
1.988602
 20
1.896673
 40
0.003
 41
0.003
  0
LWPOLYLINE
  5
165
100
AcDbEntity
  8
0
 62
     0
100
AcDbPolyline
 90
        2
 70
     0
 39
0.003
 10
1.988602
 20
1.896673
 40
0.003
 41
0.003
 10
1.941854
 20
1.914311
 40
0.003
 41
0.003
  0
LWPOLYLINE
  5
166
100
AcDbEntity
  8
0
 62
     0
100
AcDbPolyline
 90
        2
 70
     0
 39
0.003
 10
1.941854
 20
1.914311
 40
0.003
 41
0.003
 10
1.894331
 20
1.931071
 40
0.003
 41
0.003
  0
LWPOLYLINE
  5
167
100
AcDbEntity
  8
0
 62
     0
100
AcDbPolyline
 90
        2
 70
     0
 39
0.003
 10
1.894331
 20
1.931071
 40
0.003
 41
0.003
 10
1.846114
 20
1.946972
 40
0.003
 41
0.003
  0
LWPOLYLINE
  5
168
100
AcDbEntity
  8
0
 62
     0
100
AcDbPolyline
 90
        2
 70
     0
 39
0.003
 10
1.846114
 20
1.946972
 40
0.003
 41
0.003
 10
1.797264
 20
1.962024
 40
0.003
 41
0.003
  0
LWPOLYLINE
  5
169
100
AcDbEntity
  8
0
 62
     0
100
AcDbPolyline
 90
        2
 70
     0
 39
0.003
 10
1.797264
 20
1.962024
 40
0.003
 41
0.003
 10
1.747846
 20
1.976244
 40
0.003
 41
0.003
  0
LWPOLYLINE
  5
16A
100
AcDbEntity
  8
0
 62
     0
100
AcDbPolyline
 90
        2
 70
     0
 39
0.003
 10
1.747846
 20
1.976244
 40
0.003
 41
0.003
 10
1.094425
 20
1.595894
 40
0.003
 41
0.003
  0
LWPOLYLINE
  5
16B
100
AcDbEntity
  8
0
 62
     0
100
AcDbPolyline
 90
        2
 70
     0
 39
0.003
 10
1.094425
 20
1.595894
 40
0.003
 41
0.003
 10
1.143843
 20
1.581673
 40
0.003
 41
0.003
  0
LWPOLYLINE
  5
16C
100
AcDbEntity
  8
0
 62
     0
100
AcDbPolyline
 90
        2
 70
     0
 39
0.003
 10
1.143843
 20
1.581673
 40
0.003
 41
0.003
 10
1.192693
 20
1.566622
 40
0.003
 41
0.003
  0
LWPOLYLINE
  5
16D
100
AcDbEntity
  8
0
 62
     0
100
AcDbPolyline
 90
        2
 70
     0
 39
0.003
 10
1.192693
 20
1.566622
 40
0.003
 41
0.003
 10
1.240909
 20
1.55072
 40
0.003
 41
0.003
  0
LWPOLYLINE
  5
16E
100
AcDbEntity
  8
0
 62
     0
100
AcDbPolyline
 90
        2
 70
     0
 39
0.003
 10
1.240909
 20
1.55072
 40
0.003
 41
0.003
 10
1.288433
 20
1.533961
 40
0.003
 41
0.003
  0
LWPOLYLINE
  5
16F
100
AcDbEntity
  8
0
 62
     0
100
AcDbPolyline
 90
        2
 70
     0
 39
0.003
 10
1.288433
 20
1.533961
 40
0.003
 41
0.003
 10
1.335181
 20
1.516323
 40
0.003
 41
0.003
  0
LWPOLYLINE
  5
170
100
AcDbEntity
  8
0
 62
     0
100
AcDbPolyline
 90
        2
 70
     0
 39
0.003
 10
1.335181
 20
1.516323
 40
0.003
 41
0.003
 10
1.38111
 20
1.497799
 40
0.003
 41
0.003
  0
LWPOLYLINE
  5
171
100
AcDbEntity
  8
0
 62
     0
100
AcDbPolyline
 90
        2
 70
     0
 39
0.003
 10
1.38111
 20
1.497799
 40
0.003
 41
0.003
 10
1.426142
 20
1.478374
 40
0.003
 41
0.003
  0
LWPOLYLINE
  5
172
100
AcDbEntity
  8
0
 62
     0
100
AcDbPolyline
 90
        2
 70
     0
 39
0.003
 10
1.426142
 20
1.478374
 40
0.003
 41
0.003
 10
1.470217
 20
1.458043
 40
0.003
 41
0.003
  0
LWPOLYLINE
  5
173
100
AcDbEntity
  8
0
 62
     0
100
AcDbPolyline
 90
        2
 70
     0
 39
0.003
 10
1.470217
 20
1.458043
 40
0.003
 41
0.003
 10
1.51326
 20
1.43678
 40
0.003
 41
0.003
  0
LWPOLYLINE
  5
174
100
AcDbEntity
  8
0
 62
     0
100
AcDbPolyline
 90
        2
 70
     0
 39
0.003
 10
1.51326
 20
1.43678
 40
0.003
 41
0.003
 10
1.55522
 20
1.414583
 40
0.003
 41
0.003
  0
LWPOLYLINE
  5
175
100
AcDbEntity
  8
0
 62
     0
100
AcDbPolyline
 90
        2
 70
     0
 39
0.003
 10
1.55522
 20
1.414583
 40
0.003
 41
0.003
 10
1.596028
 20
1.391437
 40
0.003
 41
0.003
  0
LWPOLYLINE
  5
176
100
AcDbEntity
  8
0
 62
     0
100
AcDbPolyline
 90
        2
 70
     0
 39
0.003
 10
1.596028
 20
1.391437
 40
0.003
 41
0.003
 10
1.635618
 20
1.367335
 40
0.003
 41
0.003
  0
LWPOLYLINE
  5
177
100
AcDbEntity
  8
0
 62
     0
100
AcDbPolyline
 90
        2
 70
     0
 39
0.003
 10
1.635618
 20
1.367335
 40
0.003
 41
0.003
 10
1.673917
 20
1.342252
 40
0.003
 41
0.003
  0
LWPOLYLINE
  5
178
100
AcDbEntity
  8
0
 62
     0
100
AcDbPolyline
 90
        2
 70
     0
 39
0.003
 10
1.673917
 20
1.342252
 40
0.003
 41
0.003
 10
1.710874
 20
1.316185
 40
0.003
 41
0.003
  0
LWPOLYLINE
  5
179
100
AcDbEntity
  8
0
 62
     0
100
AcDbPolyline
 90
        2
 70
     0
 39
0.003
 10
1.710874
 20
1.316185
 40
0.003
 41
0.003
 10
1.746413
 20
1.289118
 40
0.003
 41
0.003
  0
LWPOLYLINE
  5
17A
100
AcDbEntity
  8
0
 62
     0
100
AcDbPolyline
 90
        2
 70
     0
 39
0.003
 10
1.746413
 20
1.289118
 40
0.003
 41
0.003
 10
1.780484
 20
1.261043
 40
0.003
 41
0.003
  0
LWPOLYLINE
  5
17B
100
AcDbEntity
  8
0
 62
     0
100
AcDbPolyline
 90
        2
 70
     0
 39
0.003
 10
1.780484
 20
1.261043
 40
0.003
 41
0.003
 10
1.813
 20
1.231937
 40
0.003
 41
0.003
  0
LWPOLYLINE
  5
17C
100
AcDbEntity
  8
0
 62
     0
100
AcDbPolyline
 90
        2
 70
     0
 39
0.003
 10
1.813
 20
1.231937
 40
0.003
 41
0.003
 10
1.843909
 20
1.201799
 40
0.003
 41
0.003
  0
LWPOLYLINE
  5
17D
100
AcDbEntity
  8
0
 62
     0
100
AcDbPolyline
 90
        2
 70
     0
 39
0.003
 10
1.843909
 20
1.201799
 40
0.003
 41
0.003
 10
1.873142
 20
1.170606
 40
0.003
 41
0.003
  0
LWPOLYLINE
  5
17E
100
AcDbEntity
  8
0
 62
     0
100
AcDbPolyline
 90
        2
 70
     0
 39
0.003
 10
1.873142
 20
1.170606
 40
0.003
 41
0.003
 10
1.900646
 20
1.138362
 40
0.003
 41
0.003
  0
LWPOLYLINE
  5
17F
100
AcDbEntity
  8
0
 62
     0
100
AcDbPolyline
 90
        2
 70
     0
 39
0.003
 10
1.900646
 20
1.138362
 40
0.003
 41
0.003
 10
1.926339
 20
1.105039
 40
0.003
 41
0.003
  0
LWPOLYLINE
  5
180
100
AcDbEntity
  8
0
 62
     0
100
AcDbPolyline
 90
        2
 70
     0
 39
0.003
 10
1.926339
 20
1.105039
 40
0.003
 41
0.003
 10
1.950169
 20
1.07063
 40
0.003
 41
0.003
  0
LWPOLYLINE
  5
181
100
AcDbEntity
  8
0
 62
     0
100
AcDbPolyline
 90
        2
 70
     0
 39
0.003
 10
1.950169
 20
1.07063
 40
0.003
 41
0.003
 10
1.972067
 20
1.035122
 40
0.003
 41
0.003
  0
LWPOLYLINE
  5
182
100
AcDbEntity
  8
0
 62
     0
100
AcDbPolyline
 90
        2
 70
     0
 39
0.003
 10
1.972067
 20
1.035122
 40
0.003
 41
0.003
 10
1.991969
 20
0.998508
 40
0.003
 41
0.003
  0
LWPOLYLINE
  5
183
100
AcDbEntity
  8
0
 62
     0
100
AcDbPolyline
 90
        2
 70
     0
 39
0.003
 10
1.991969
 20
0.998508
 40
0.003
 41
0.003
 10
2.009799
 20
0.96076
 40
0.003
 41
0.003
  0
LWPOLYLINE
  5
184
100
AcDbEntity
  8
0
 62
     0
100
AcDbPolyline
 90
        2
 70
     0
 39
0.003
 10
2.009799
 20
0.96076
 40
0.003
 41
0.003
 10
2.025508
 20
0.921886
 40
0.003
 41
0.003
  0
LWPOLYLINE
  5
185
100
AcDbEntity
  8
0
 62
     0
100
AcDbPolyline
 90
        2
 70
     0
 39
0.003
 10
2.025508
 20
0.921886
 40
0.003
 41
0.003
 10
2.03902
 20
0.881858
 40
0.003
 41
0.003
  0
LWPOLYLINE
  5
186
100
AcDbEntity
  8
0
 62
     0
100
AcDbPolyline
 90
        2
 70
     0
 39
0.003
 10
2.03902
 20
0.881858
 40
0.003
 41
0.003
 10
2.05028
 20
0.840673
 40
0.003
 41
0.003
  0
LWPOLYLINE
  5
187
100
AcDbEntity
  8
0
 62
     0
100
AcDbPolyline
 90
        2
 70
     0
 39
0.003
 10
2.05028
 20
0.840673
 40
0.003
 41
0.003
 10
2.059209
 20
0.798311
 40
0.003
 41
0.003
  0
LWPOLYLINE
  5
188
100
AcDbEntity
  8
0
 62
     0
100
AcDbPolyline
 90
        2
 70
     0
 39
0.003
 10
2.059209
 20
0.798311
 40
0.003
 41
0.003
 10
2.06576
 20
0.754768
 40
0.003
 41
0.003
  0
LWPOLYLINE
  5
189
100
AcDbEntity
  8
0
 62
     0
100
AcDbPolyline
 90
        2
 70
     0
 39
0.003
 10
2.06576
 20
0.754768
 40
0.003
 41
0.003
 10
2.069854
 20
0.710024
 40
0.003
 41
0.003
  0
LWPOLYLINE
  5
18A
100
AcDbEntity
  8
0
 62
     0
100
AcDbPolyline
 90
        2
 70
     0
 39
0.003
 10
2.069854
 20
0.710024
 40
0.003
 41
0.003
 10
2.071437
 20
0.664075
 40
0.003
 41
0.003
  0
LWPOLYLINE
  5
18B
100
AcDbEntity
  8
0
 62
     9
100
AcDbPolyline
 90
        2
 70
     0
 39
0.003
 10
1.094425
 20
1.595894
 40
0.003
 41
0.003
 10
1.747846
 20
1.976244
 40
0.003
 41
0.003
  0
LWPOLYLINE
  5
18C
100
AcDbEntity
  8
0
 62
     9
100
AcDbPolyline
 90
        2
 70
     0
 39
0.003
 10
1.747846
 20
1.976244
 40
0.003
 41
0.003
 10
0.462197
 20
2.296925
 40
0.003
 41
0.003
  0
LWPOLYLINE
  5
18D
100
AcDbEntity
  8
0
 62
     9
100
AcDbPolyline
 90
        2
 70
     0
 39
0.003
 10
0.462197
 20
2.296925
 40
0.003
 41
0.003
 10
-0.191224
 20
1.916575
 40
0.003
 41
0.003
  0
LWPOLYLINE
  5
18E
100
AcDbEntity
  8
0
 62
     9
100
AcDbPolyline
 90
        2
 70
     0
 39
0.003
 10
-0.191224
 20
1.916575
 40
0.003
 41
0.003
 10
1.094425
 20
1.595894
 40
0.003
 41
0.003
  0
LWPOLYLINE
  5
18F
100
AcDbEntity
  8
0
 62
     0
100
AcDbPolyline
 90
        2
 70
     0
 39
0.003
 10
1.094425
 20
1.595894
 40
0.003
 41
0.003
 10
1.747846
 20
1.976244
 40
0.003
 41
0.003
  0
LWPOLYLINE
  5
190
100
AcDbEntity
  8
0
 62
     0
100
AcDbPolyline
 90
        2
 70
     0
 39
0.003
 10
1.747846
 20
1.976244
 40
0.003
 41
0.003
 10
0.462197
 20
2.296925
 40
0.003
 41
0.003
  0
LWPOLYLINE
  5
191
100
AcDbEntity
  8
0
 62
     0
100
AcDbPolyline
 90
        2
 70
     0
 39
0.003
 10
0.462197
 20
2.296925
 40
0.003
 41
0.003
 10
-0.191224
 20
1.916575
 40
0.003
 41
0.003
  0
LWPOLYLINE
  5
192
100
AcDbEntity
  8
0
 62
     0
100
AcDbPolyline
 90
        2
 70
     0
 39
0.003
 10
-0.191224
 20
1.916575
 40
0.003
 41
0.003
 10
1.094425
 20
1.595894
 40
0.003
 41
0.003
  0
LWPOLYLINE
  5
193
100
AcDbEntity
  8
0
 62
     8
100
AcDbPolyline
 90
        2
 70
     0
 39
0.003
 10
-0.191224
 20
1.916575
 40
0.003
 41
0.003
 10
0.462197
 20
2.296925
 40
0.003
 41
0.003
  0
LWPOLYLINE
  5
194
100
AcDbEntity
  8
0
 62
     8
100
AcDbPolyline
 90
        2
 70
     0
 39
0.003
 10
0.462197
 20
2.296925
 40
0.003
 41
0.003
 10
-0.823461
 20
1.976244
 40
0.003
 41
0.003
  0
LWPOLYLINE
  5
195
100
AcDbEntity
  8
0
 62
     8
100
AcDbPolyline
 90
        2
 70
     0
 39
0.003
 10
-0.823461
 20
1.976244
 40
0.003
 41
0.003
 10
-1.476882
 20
1.595894
 40
0.003
 41
0.003
  0
LWPOLYLINE
  5
196
100
AcDbEntity
  8
0
 62
     8
100
AcDbPolyline
 90
        2
 70
     0
 39
0.003
 10
-1.476882
 20
1.595894
 40
0.003
 41
0.003
 10
-0.191224
 20
1.916575
 40
0.003
 41
0.003
  0
LWPOLYLINE
  5
197
100
AcDbEntity
  8
0
 62
     0
100
AcDbPolyline
 90
        2
 70
     0
 39
0.003
 10
-0.191224
 20
1.916575
 40
0.003
 41
0.003
 10
0.462197
 20
2.296925
 40
0.003
 41
0.003
  0
LWPOLYLINE
  5
198
100
AcDbEntity
  8
0
 62
     0
100
AcDbPolyline
 90
        2
 70
     0
 39
0.003
 10
0.462197
 20
2.296925
 40
0.003
 41
0.003
 10
-0.823461
 20
1.976244
 40
0.003
 41
0.003
  0
LWPOLYLINE
  5
199
100
AcDbEntity
  8
0
 62
     0
100
AcDbPolyline
 90
        2
 70
     0
 39
0.003
 10
-0.823461
 20
1.976244
 40
0.003
 41
0.003
 10
-1.476882
 20
1.595894
 40
0.003
 41
0.003
  0
LWPOLYLINE
  5
19A
100
AcDbEntity
  8
0
 62
     0
100
AcDbPolyline
 90
        2
 70
     0
 39
0.003
 10
-1.476882
 20
1.595894
 40
0.003
 41
0.003
 10
-0.191224
 20
1.916575
 40
0.003
 41
0.003
  0
LWPOLYLINE
  5
19B
100
AcDbEntity
  8
0
 62
   127
100
AcDbPolyline
 90
        2
 70
     0
 39
0.003
 10
-1.476882
 20
1.595894
 40
0.003
 41
0.003
 10
-0.823461
 20
1.976244
 40
0.003
 41
0.003
  0
LWPOLYLINE
  5
19C
100
AcDbEntity
  8
0
 62
   127
100
AcDbPolyline
 90
        2
 70
     0
 39
0.003
 10
-0.823461
 20
1.976244
 40
0.003
 41
0.003
 10
-0.872878
 20
1.962024
 40
0.003
 41
0.003
  0
LWPOLYLINE
  5
19D
100
AcDbEntity
  8
0
 62
   127
100
AcDbPolyline
 90
        2
 70
     0
 39
0.003
 10
-0.872878
 20
1.962024
 40
0.003
 41
0.003
 10
-1.526299
 20
1.581673
 40
0.003
 41
0.003
  0
LWPOLYLINE
  5
19E
100
AcDbEntity
  8
0
 62
   127
100
AcDbPolyline
 90
        2
 70
     0
 39
0.003
 10
-1.526299
 20
1.581673
 40
0.003
 41
0.003
 10
-1.476882
 20
1.595894
 40
0.003
 41
0.003
  0
LWPOLYLINE
  5
19F
100
AcDbEntity
  8
0
 62
   127
100
AcDbPolyline
 90
        2
 70
     0
 39
0.003
 10
-1.526299
 20
1.581673
 40
0.003
 41
0.003
 10
-0.872878
 20
1.962024
 40
0.003
 41
0.003
  0
LWPOLYLINE
  5
1A0
100
AcDbEntity
  8
0
 62
   127
100
AcDbPolyline
 90
        2
 70
     0
 39
0.003
 10
-0.872878
 20
1.962024
 40
0.003
 41
0.003
 10
-0.921728
 20
1.946972
 40
0.003
 41
0.003
  0
LWPOLYLINE
  5
1A1
100
AcDbEntity
  8
0
 62
   127
100
AcDbPolyline
 90
        2
 70
     0
 39
0.003
 10
-0.921728
 20
1.946972
 40
0.003
 41
0.003
 10
-1.57515
 20
1.566622
 40
0.003
 41
0.003
  0
LWPOLYLINE
  5
1A2
100
AcDbEntity
  8
0
 62
   127
100
AcDbPolyline
 90
        2
 70
     0
 39
0.003
 10
-1.57515
 20
1.566622
 40
0.003
 41
0.003
 10
-1.526299
 20
1.581673
 40
0.003
 41
0.003
  0
LWPOLYLINE
  5
1A3
100
AcDbEntity
  8
0
 62
   127
100
AcDbPolyline
 90
        2
 70
     0
 39
0.003
 10
-1.57515
 20
1.566622
 40
0.003
 41
0.003
 10
-0.921728
 20
1.946972
 40
0.003
 41
0.003
  0
LWPOLYLINE
  5
1A4
100
AcDbEntity
  8
0
 62
   127
100
AcDbPolyline
 90
        2
 70
     0
 39
0.003
 10
-0.921728
 20
1.946972
 40
0.003
 41
0.003
 10
-0.969945
 20
1.931071
 40
0.003
 41
0.003
  0
LWPOLYLINE
  5
1A5
100
AcDbEntity
  8
0
 62
   127
100
AcDbPolyline
 90
        2
 70
     0
 39
0.003
 10
-0.969945
 20
1.931071
 40
0.003
 41
0.003
 10
-1.623366
 20
1.55072
 40
0.003
 41
0.003
  0
LWPOLYLINE
  5
1A6
100
AcDbEntity
  8
0
 62
   127
100
AcDbPolyline
 90
        2
 70
     0
 39
0.003
 10
-1.623366
 20
1.55072
 40
0.003
 41
0.003
 10
-1.57515
 20
1.566622
 40
0.003
 41
0.003
  0
LWPOLYLINE
  5
1A7
100
AcDbEntity
  8
0
 62
   127
100
AcDbPolyline
 90
        2
 70
     0
 39
0.003
 10
-1.623366
 20
1.55072
 40
0.003
 41
0.003
 10
-0.969945
 20
1.931071
 40
0.003
 41
0.003
  0
LWPOLYLINE
  5
1A8
100
AcDbEntity
  8
0
 62
   127
100
AcDbPolyline
 90
        2
 70
     0
 39
0.003
 10
-0.969945
 20
1.931071
 40
0.003
 41
0.003
 10
-1.017469
 20
1.914311
 40
0.003
 41
0.003
  0
LWPOLYLINE
  5
1A9
100
AcDbEntity
  8
0
 62
   127
100
AcDbPolyline
 90
        2
 70
     0
 39
0.003
 10
-1.017469
 20
1.914311
 40
0.003
 41
0.003
 10
-1.67089
 20
1.533961
 40
0.003
 41
0.003
  0
LWPOLYLINE
  5
1AA
100
AcDbEntity
  8
0
 62
   127
100
AcDbPolyline
 90
        2
 70
     0
 39
0.003
 10
-1.67089
 20
1.533961
 40
0.003
 41
0.003
 10
-1.623366
 20
1.55072
 40
0.003
 41
0.003
  0
LWPOLYLINE
  5
1AB
100
AcDbEntity
  8
0
 62
   251
100
AcDbPolyline
 90
        2
 70
     0
 39
0.003
 10
-1.67089
 20
1.533961
 40
0.003
 41
0.003
 10
-1.017469
 20
1.914311
 40
0.003
 41
0.003
  0
LWPOLYLINE
  5
1AC
100
AcDbEntity
  8
0
 62
   251
100
AcDbPolyline
 90
        2
 70
     0
 39
0.003
 10
-1.017469
 20
1.914311
 40
0.003
 41
0.003
 10
-1.064217
 20
1.896673
 40
0.003
 41
0.003
  0
LWPOLYLINE
  5
1AD
100
AcDbEntity
  8
0
 62
   251
100
AcDbPolyline
 90
        2
 70
     0
 39
0.003
 10
-1.064217
 20
1.896673
 40
0.003
 41
0.003
 10
-1.717638
 20
1.516323
 40
0.003
 41
0.003
  0
LWPOLYLINE
  5
1AE
100
AcDbEntity
  8
0
 62
   251
100
AcDbPolyline
 90
        2
 70
     0
 39
0.003
 10
-1.717638
 20
1.516323
 40
0.003
 41
0.003
 10
-1.67089
 20
1.533961
 40
0.003
 41
0.003
  0
LWPOLYLINE
  5
1AF
100
AcDbEntity
  8
0
 62
   251
100
AcDbPolyline
 90
        2
 70
     0
 39
0.003
 10
-1.717638
 20
1.516323
 40
0.003
 41
0.003
 10
-1.064217
 20
1.896673
 40
0.003
 41
0.003
  0
LWPOLYLINE
  5
1B0
100
AcDbEntity
  8
0
 62
   251
100
AcDbPolyline
 90
        2
 70
     0
 39
0.003
 10
-1.064217
 20
1.896673
 40
0.003
 41
0.003
 10
-1.110146
 20
1.87815
 40
0.003
 41
0.003
  0
LWPOLYLINE
  5
1B1
100
AcDbEntity
  8
0
 62
   251
100
AcDbPolyline
 90
        2
 70
     0
 39
0.003
 10
-1.110146
 20
1.87815
 40
0.003
 41
0.003
 10
-1.763567
 20
1.497799
 40
0.003
 41
0.003
  0
LWPOLYLINE
  5
1B2
100
AcDbEntity
  8
0
 62
   251
100
AcDbPolyline
 90
        2
 70
     0
 39
0.003
 10
-1.763567
 20
1.497799
 40
0.003
 41
0.003
 10
-1.717638
 20
1.516323
 40
0.003
 41
0.003
  0
LWPOLYLINE
  5
1B3
100
AcDbEntity
  8
0
 62
   251
100
AcDbPolyline
 90
        2
 70
     0
 39
0.003
 10
-1.763567
 20
1.497799
 40
0.003
 41
0.003
 10
-1.110146
 20
1.87815
 40
0.003
 41
0.003
  0
LWPOLYLINE
  5
1B4
100
AcDbEntity
  8
0
 62
   251
100
AcDbPolyline
 90
        2
 70
     0
 39
0.003
 10
-1.110146
 20
1.87815
 40
0.003
 41
0.003
 10
-1.155177
 20
1.858724
 40
0.003
 41
0.003
  0
LWPOLYLINE
  5
1B5
100
AcDbEntity
  8
0
 62
   251
100
AcDbPolyline
 90
        2
 70
     0
 39
0.003
 10
-1.155177
 20
1.858724
 40
0.003
 41
0.003
 10
-1.808598
 20
1.478374
 40
0.003
 41
0.003
  0
LWPOLYLINE
  5
1B6
100
AcDbEntity
  8
0
 62
   251
100
AcDbPolyline
 90
        2
 70
     0
 39
0.003
 10
-1.808598
 20
1.478374
 40
0.003
 41
0.003
 10
-1.763567
 20
1.497799
 40
0.003
 41
0.003
  0
LWPOLYLINE
  5
1B7
100
AcDbEntity
  8
0
 62
   251
100
AcDbPolyline
 90
        2
 70
     0
 39
0.003
 10
-1.808598
 20
1.478374
 40
0.003
 41
0.003
 10
-1.155177
 20
1.858724
 40
0.003
 41
0.003
  0
LWPOLYLINE
  5
1B8
100
AcDbEntity
  8
0
 62
   251
100
AcDbPolyline
 90
        2
 70
     0
 39
0.003
 10
-1.155177
 20
1.858724
 40
0.003
 41
0.003
 10
-1.199252
 20
1.838394
 40
0.003
 41
0.003
  0
LWPOLYLINE
  5
1B9
100
AcDbEntity
  8
0
 62
   251
100
AcDbPolyline
 90
        2
 70
     0
 39
0.003
 10
-1.199252
 20
1.838394
 40
0.003
 41
0.003
 10
-1.852673
 20
1.458043
 40
0.003
 41
0.003
  0
LWPOLYLINE
  5
1BA
100
AcDbEntity
  8
0
 62
   251
100
AcDbPolyline
 90
        2
 70
     0
 39
0.003
 10
-1.852673
 20
1.458043
 40
0.003
 41
0.003
 10
-1.808598
 20
1.478374
 40
0.003
 41
0.003
  0
LWPOLYLINE
  5
1BB
100
AcDbEntity
  8
0
 62
   139
100
AcDbPolyline
 90
        2
 70
     0
 39
0.003
 10
-1.852673
 20
1.458043
 40
0.003
 41
0.003
 10
-1.199252
 20
1.838394
 40
0.003
 41
0.003
  0
LWPOLYLINE
  5
1BC
100
AcDbEntity
  8
0
 62
   139
100
AcDbPolyline
 90
        2
 70
     0
 39
0.003
 10
-1.199252
 20
1.838394
 40
0.003
 41
0.003
 10
-1.242295
 20
1.81713
 40
0.003
 41
0.003
  0
LWPOLYLINE
  5
1BD
100
AcDbEntity
  8
0
 62
   139
100
AcDbPolyline
 90
        2
 70
     0
 39
0.003
 10
-1.242295
 20
1.81713
 40
0.003
 41
0.003
 10
-1.895717
 20
1.43678
 40
0.003
 41
0.003
  0
LWPOLYLINE
  5
1BE
100
AcDbEntity
  8
0
 62
   139
100
AcDbPolyline
 90
        2
 70
     0
 39
0.003
 10
-1.895717
 20
1.43678
 40
0.003
 41
0.003
 10
-1.852673
 20
1.458043
 40
0.003
 41
0.003
  0
LWPOLYLINE
  5
1BF
100
AcDbEntity
  8
0
 62
     0
100
AcDbPolyline
 90
        2
 70
     0
 39
0.003
 10
-1.476882
 20
1.595894
 40
0.003
 41
0.003
 10
-0.823461
 20
1.976244
 40
0.003
 41
0.003
  0
LWPOLYLINE
  5
1C0
100
AcDbEntity
  8
0
 62
     0
100
AcDbPolyline
 90
        2
 70
     0
 39
0.003
 10
-0.823461
 20
1.976244
 40
0.003
 41
0.003
 10
-0.872878
 20
1.962024
 40
0.003
 41
0.003
  0
LWPOLYLINE
  5
1C1
100
AcDbEntity
  8
0
 62
     0
100
AcDbPolyline
 90
        2
 70
     0
 39
0.003
 10
-0.872878
 20
1.962024
 40
0.003
 41
0.003
 10
-0.921728
 20
1.946972
 40
0.003
 41
0.003
  0
LWPOLYLINE
  5
1C2
100
AcDbEntity
  8
0
 62
     0
100
AcDbPolyline
 90
        2
 70
     0
 39
0.003
 10
-0.921728
 20
1.946972
 40
0.003
 41
0.003
 10
-0.969945
 20
1.931071
 40
0.003
 41
0.003
  0
LWPOLYLINE
  5
1C3
100
AcDbEntity
  8
0
 62
     0
100
AcDbPolyline
 90
        2
 70
     0
 39
0.003
 10
-0.969945
 20
1.931071
 40
0.003
 41
0.003
 10
-1.017469
 20
1.914311
 40
0.003
 41
0.003
  0
LWPOLYLINE
  5
1C4
100
AcDbEntity
  8
0
 62
     0
100
AcDbPolyline
 90
        2
 70
     0
 39
0.003
 10
-1.017469
 20
1.914311
 40
0.003
 41
0.003
 10
-1.064217
 20
1.896673
 40
0.003
 41
0.003
  0
LWPOLYLINE
  5
1C5
100
AcDbEntity
  8
0
 62
     0
100
AcDbPolyline
 90
        2
 70
     0
 39
0.003
 10
-1.064217
 20
1.896673
 40
0.003
 41
0.003
 10
-1.110146
 20
1.87815
 40
0.003
 41
0.003
  0
LWPOLYLINE
  5
1C6
100
AcDbEntity
  8
0
 62
     0
100
AcDbPolyline
 90
        2
 70
     0
 39
0.003
 10
-1.110146
 20
1.87815
 40
0.003
 41
0.003
 10
-1.155177
 20
1.858724
 40
0.003
 41
0.003
  0
LWPOLYLINE
  5
1C7
100
AcDbEntity
  8
0
 62
     0
100
AcDbPolyline
 90
        2
 70
     0
 39
0.003
 10
-1.155177
 20
1.858724
 40
0.003
 41
0.003
 10
-1.199252
 20
1.838394
 40
0.003
 41
0.003
  0
LWPOLYLINE
  5
1C8
100
AcDbEntity
  8
0
 62
     0
100
AcDbPolyline
 90
        2
 70
     0
 39
0.003
 10
-1.199252
 20
1.838394
 40
0.003
 41
0.003
 10
-1.242295
 20
1.81713
 40
0.003
 41
0.003
  0
LWPOLYLINE
  5
1C9
100
AcDbEntity
  8
0
 62
     0
100
AcDbPolyline
 90
        2
 70
     0
 39
0.003
 10
-1.242295
 20
1.81713
 40
0.003
 41
0.003
 10
-1.895717
 20
1.43678
 40
0.003
 41
0.003
  0
LWPOLYLINE
  5
1CA
100
AcDbEntity
  8
0
 62
     0
100
AcDbPolyline
 90
        2
 70
     0
 39
0.003
 10
-1.895717
 20
1.43678
 40
0.003
 41
0.003
 10
-1.852673
 20
1.458043
 40
0.003
 41
0.003
  0
LWPOLYLINE
  5
1CB
100
AcDbEntity
  8
0
 62
     0
100
AcDbPolyline
 90
        2
 70
     0
 39
0.003
 10
-1.852673
 20
1.458043
 40
0.003
 41
0.003
 10
-1.808598
 20
1.478374
 40
0.003
 41
0.003
  0
LWPOLYLINE
  5
1CC
100
AcDbEntity
  8
0
 62
     0
100
AcDbPolyline
 90
        2
 70
     0
 39
0.003
 10
-1.808598
 20
1.478374
 40
0.003
 41
0.003
 10
-1.763567
 20
1.497799
 40
0.003
 41
0.003
  0
LWPOLYLINE
  5
1CD
100
AcDbEntity
  8
0
 62
     0
100
AcDbPolyline
 90
        2
 70
     0
 39
0.003
 10
-1.763567
 20
1.497799
 40
0.003
 41
0.003
 10
-1.717638
 20
1.516323
 40
0.003
 41
0.003
  0
LWPOLYLINE
  5
1CE
100
AcDbEntity
  8
0
 62
     0
100
AcDbPolyline
 90
        2
 70
     0
 39
0.003
 10
-1.717638
 20
1.516323
 40
0.003
 41
0.003
 10
-1.67089
 20
1.533961
 40
0.003
 41
0.003
  0
LWPOLYLINE
  5
1CF
100
AcDbEntity
  8
0
 62
     0
100
AcDbPolyline
 90
        2
 70
     0
 39
0.003
 10
-1.67089
 20
1.533961
 40
0.003
 41
0.003
 10
-1.623366
 20
1.55072
 40
0.003
 41
0.003
  0
LWPOLYLINE
  5
1D0
100
AcDbEntity
  8
0
 62
     0
100
AcDbPolyline
 90
        2
 70
     0
 39
0.003
 10
-1.623366
 20
1.55072
 40
0.003
 41
0.003
 10
-1.57515
 20
1.566622
 40
0.003
 41
0.003
  0
LWPOLYLINE
  5
1D1
100
AcDbEntity
  8
0
 62
     0
100
AcDbPolyline
 90
        2
 70
     0
 39
0.003
 10
-1.57515
 20
1.566622
 40
0.003
 41
0.003
 10
-1.526299
 20
1.581673
 40
0.003
 41
0.003
  0
LWPOLYLINE
  5
1D2
100
AcDbEntity
  8
0
 62
     0
100
AcDbPolyline
 90
        2
 70
     0
 39
0.003
 10
-1.526299
 20
1.581673
 40
0.003
 41
0.003
 10
-1.476882
 20
1.595894
 40
0.003
 41
0.003
  0
LWPOLYLINE
  5
1D3
100
AcDbEntity
  8
0
 62
   139
100
AcDbPolyline
 90
        2
 70
     0
 39
0.003
 10
-2.280902
 20
0.475441
 40
0.003
 41
0.003
 10
-1.62748
 20
0.855791
 40
0.003
 41
0.003
  0
LWPOLYLINE
  5
1D4
100
AcDbEntity
  8
0
 62
   139
100
AcDbPolyline
 90
        2
 70
     0
 39
0.003
 10
-1.62748
 20
0.855791
 40
0.003
 41
0.003
 10
-1.647929
 20
0.844984
 40
0.003
 41
0.003
  0
LWPOLYLINE
  5
1D5
100
AcDbEntity
  8
0
 62
   139
100
AcDbPolyline
 90
        2
 70
     0
 39
0.003
 10
-1.647929
 20
0.844984
 40
0.003
 41
0.003
 10
-2.30135
 20
0.464634
 40
0.003
 41
0.003
  0
LWPOLYLINE
  5
1D6
100
AcDbEntity
  8
0
 62
   139
100
AcDbPolyline
 90
        2
 70
     0
 39
0.003
 10
-2.30135
 20
0.464634
 40
0.003
 41
0.003
 10
-2.280902
 20
0.475441
 40
0.003
 41
0.003
  0
LWPOLYLINE
  5
1D7
100
AcDbEntity
  8
0
 62
   251
100
AcDbPolyline
 90
        2
 70
     0
 39
0.003
 10
-2.30135
 20
0.464634
 40
0.003
 41
0.003
 10
-1.647929
 20
0.844984
 40
0.003
 41
0.003
  0
LWPOLYLINE
  5
1D8
100
AcDbEntity
  8
0
 62
   251
100
AcDbPolyline
 90
        2
 70
     0
 39
0.003
 10
-1.647929
 20
0.844984
 40
0.003
 41
0.003
 10
-1.669921
 20
0.83476
 40
0.003
 41
0.003
  0
LWPOLYLINE
  5
1D9
100
AcDbEntity
  8
0
 62
   251
100
AcDbPolyline
 90
        2
 70
     0
 39
0.003
 10
-1.669921
 20
0.83476
 40
0.003
 41
0.003
 10
-2.323343
 20
0.454409
 40
0.003
 41
0.003
  0
LWPOLYLINE
  5
1DA
100
AcDbEntity
  8
0
 62
   251
100
AcDbPolyline
 90
        2
 70
     0
 39
0.003
 10
-2.323343
 20
0.454409
 40
0.003
 41
0.003
 10
-2.30135
 20
0.464634
 40
0.003
 41
0.003
  0
LWPOLYLINE
  5
1DB
100
AcDbEntity
  8
0
 62
   251
100
AcDbPolyline
 90
        2
 70
     0
 39
0.003
 10
-2.323343
 20
0.454409
 40
0.003
 41
0.003
 10
-1.669921
 20
0.83476
 40
0.003
 41
0.003
  0
LWPOLYLINE
  5
1DC
100
AcDbEntity
  8
0
 62
   251
100
AcDbPolyline
 90
        2
 70
     0
 39
0.003
 10
-1.669921
 20
0.83476
 40
0.003
 41
0.003
 10
-1.693327
 20
0.82522
 40
0.003
 41
0.003
  0
LWPOLYLINE
  5
1DD
100
AcDbEntity
  8
0
 62
   251
100
AcDbPolyline
 90
        2
 70
     0
 39
0.003
 10
-1.693327
 20
0.82522
 40
0.003
 41
0.003
 10
-2.346748
 20
0.44487
 40
0.003
 41
0.003
  0
LWPOLYLINE
  5
1DE
100
AcDbEntity
  8
0
 62
   251
100
AcDbPolyline
 90
        2
 70
     0
 39
0.003
 10
-2.346748
 20
0.44487
 40
0.003
 41
0.003
 10
-2.323343
 20
0.454409
 40
0.003
 41
0.003
  0
LWPOLYLINE
  5
1DF
100
AcDbEntity
  8
0
 62
   127
100
AcDbPolyline
 90
        2
 70
     0
 39
0.003
 10
-2.346748
 20
0.44487
 40
0.003
 41
0.003
 10
-1.693327
 20
0.82522
 40
0.003
 41
0.003
  0
LWPOLYLINE
  5
1E0
100
AcDbEntity
  8
0
 62
   127
100
AcDbPolyline
 90
        2
 70
     0
 39
0.003
 10
-1.693327
 20
0.82522
 40
0.003
 41
0.003
 10
-1.717984
 20
0.816461
 40
0.003
 41
0.003
  0
LWPOLYLINE
  5
1E1
100
AcDbEntity
  8
0
 62
   127
100
AcDbPolyline
 90
        2
 70
     0
 39
0.003
 10
-1.717984
 20
0.816461
 40
0.003
 41
0.003
 10
-2.371406
 20
0.43611
 40
0.003
 41
0.003
  0
LWPOLYLINE
  5
1E2
100
AcDbEntity
  8
0
 62
   127
100
AcDbPolyline
 90
        2
 70
     0
 39
0.003
 10
-2.371406
 20
0.43611
 40
0.003
 41
0.003
 10
-2.346748
 20
0.44487
 40
0.003
 41
0.003
  0
LWPOLYLINE
  5
1E3
100
AcDbEntity
  8
0
 62
   127
100
AcDbPolyline
 90
        2
 70
     0
 39
0.003
 10
-2.371406
 20
0.43611
 40
0.003
 41
0.003
 10
-1.717984
 20
0.816461
 40
0.003
 41
0.003
  0
LWPOLYLINE
  5
1E4
100
AcDbEntity
  8
0
 62
   127
100
AcDbPolyline
 90
        2
 70
     0
 39
0.003
 10
-1.717984
 20
0.816461
 40
0.003
 41
0.003
 10
-1.74378
 20
0.808583
 40
0.003
 41
0.003
  0
LWPOLYLINE
  5
1E5
100
AcDbEntity
  8
0
 62
   127
100
AcDbPolyline
 90
        2
 70
     0
 39
0.003
 10
-1.74378
 20
0.808583
 40
0.003
 41
0.003
 10
-2.397201
 20
0.428232
 40
0.003
 41
0.003
  0
LWPOLYLINE
  5
1E6
100
AcDbEntity
  8
0
 62
   127
100
AcDbPolyline
 90
        2
 70
     0
 39
0.003
 10
-2.397201
 20
0.428232
 40
0.003
 41
0.003
 10
-2.371406
 20
0.43611
 40
0.003
 41
0.003
  0
LWPOLYLINE
  5
1E7
100
AcDbEntity
  8
0
 62
     8
100
AcDbPolyline
 90
        2
 70
     0
 39
0.003
 10
-2.397201
 20
0.428232
 40
0.003
 41
0.003
 10
-1.74378
 20
0.808583
 40
0.003
 41
0.003
  0
LWPOLYLINE
  5
1E8
100
AcDbEntity
  8
0
 62
     8
100
AcDbPolyline
 90
        2
 70
     0
 39
0.003
 10
-1.74378
 20
0.808583
 40
0.003
 41
0.003
 10
-1.770559
 20
0.801685
 40
0.003
 41
0.003
  0
LWPOLYLINE
  5
1E9
100
AcDbEntity
  8
0
 62
     8
100
AcDbPolyline
 90
        2
 70
     0
 39
0.003
 10
-1.770559
 20
0.801685
 40
0.003
 41
0.003
 10
-2.42398
 20
0.421335
 40
0.003
 41
0.003
  0
LWPOLYLINE
  5
1EA
100
AcDbEntity
  8
0
 62
     8
100
AcDbPolyline
 90
        2
 70
     0
 39
0.003
 10
-2.42398
 20
0.421335
 40
0.003
 41
0.003
 10
-2.397201
 20
0.428232
 40
0.003
 41
0.003
  0
LWPOLYLINE
  5
1EB
100
AcDbEntity
  8
0
 62
   252
100
AcDbPolyline
 90
        2
 70
     0
 39
0.003
 10
-2.42398
 20
0.421335
 40
0.003
 41
0.003
 10
-1.770559
 20
0.801685
 40
0.003
 41
0.003
  0
LWPOLYLINE
  5
1EC
100
AcDbEntity
  8
0
 62
   252
100
AcDbPolyline
 90
        2
 70
     0
 39
0.003
 10
-1.770559
 20
0.801685
 40
0.003
 41
0.003
 10
-1.798197
 20
0.795866
 40
0.003
 41
0.003
  0
LWPOLYLINE
  5
1ED
100
AcDbEntity
  8
0
 62
   252
100
AcDbPolyline
 90
        2
 70
     0
 39
0.003
 10
-1.798197
 20
0.795866
 40
0.003
 41
0.003
 10
-2.451618
 20
0.415516
 40
0.003
 41
0.003
  0
LWPOLYLINE
  5
1EE
100
AcDbEntity
  8
0
 62
   252
100
AcDbPolyline
 90
        2
 70
     0
 39
0.003
 10
-2.451618
 20
0.415516
 40
0.003
 41
0.003
 10
-2.42398
 20
0.421335
 40
0.003
 41
0.003
  0
LWPOLYLINE
  5
1EF
100
AcDbEntity
  8
0
 62
   252
100
AcDbPolyline
 90
        2
 70
     0
 39
0.003
 10
-2.451618
 20
0.415516
 40
0.003
 41
0.003
 10
-1.798197
 20
0.795866
 40
0.003
 41
0.003
  0
LWPOLYLINE
  5
1F0
100
AcDbEntity
  8
0
 62
   252
100
AcDbPolyline
 90
        2
 70
     0
 39
0.003
 10
-1.798197
 20
0.795866
 40
0.003
 41
0.003
 10
-1.826539
 20
0.791217
 40
0.003
 41
0.003
  0
LWPOLYLINE
  5
1F1
100
AcDbEntity
  8
0
 62
   252
100
AcDbPolyline
 90
        2
 70
     0
 39
0.003
 10
-1.826539
 20
0.791217
 40
0.003
 41
0.003
 10
-2.479961
 20
0.410866
 40
0.003
 41
0.003
  0
LWPOLYLINE
  5
1F2
100
AcDbEntity
  8
0
 62
   252
100
AcDbPolyline
 90
        2
 70
     0
 39
0.003
 10
-2.479961
 20
0.410866
 40
0.003
 41
0.003
 10
-2.451618
 20
0.415516
 40
0.003
 41
0.003
  0
LWPOLYLINE
  5
1F3
100
AcDbEntity
  8
0
 62
   253
100
AcDbPolyline
 90
        2
 70
     0
 39
0.003
 10
-2.479961
 20
0.410866
 40
0.003
 41
0.003
 10
-1.826539
 20
0.791217
 40
0.003
 41
0.003
  0
LWPOLYLINE
  5
1F4
100
AcDbEntity
  8
0
 62
   253
100
AcDbPolyline
 90
        2
 70
     0
 39
0.003
 10
-1.826539
 20
0.791217
 40
0.003
 41
0.003
 10
-1.855457
 20
0.78785
 40
0.003
 41
0.003
  0
LWPOLYLINE
  5
1F5
100
AcDbEntity
  8
0
 62
   253
100
AcDbPolyline
 90
        2
 70
     0
 39
0.003
 10
-1.855457
 20
0.78785
 40
0.003
 41
0.003
 10
-2.508878
 20
0.4075
 40
0.003
 41
0.003
  0
LWPOLYLINE
  5
1F6
100
AcDbEntity
  8
0
 62
   253
100
AcDbPolyline
 90
        2
 70
     0
 39
0.003
 10
-2.508878
 20
0.4075
 40
0.003
 41
0.003
 10
-2.479961
 20
0.410866
 40
0.003
 41
0.003
  0
LWPOLYLINE
  5
1F7
100
AcDbEntity
  8
0
 62
   253
100
AcDbPolyline
 90
        2
 70
     0
 39
0.003
 10
-2.508878
 20
0.4075
 40
0.003
 41
0.003
 10
-1.855457
 20
0.78785
 40
0.003
 41
0.003
  0
LWPOLYLINE
  5
1F8
100
AcDbEntity
  8
0
 62
   253
100
AcDbPolyline
 90
        2
 70
     0
 39
0.003
 10
-1.855457
 20
0.78785
 40
0.003
 41
0.003
 10
-1.884807
 20
0.785854
 40
0.003
 41
0.003
  0
LWPOLYLINE
  5
1F9
100
AcDbEntity
  8
0
 62
   253
100
AcDbPolyline
 90
        2
 70
     0
 39
0.003
 10
-1.884807
 20
0.785854
 40
0.003
 41
0.003
 10
-2.538228
 20
0.405504
 40
0.003
 41
0.003
  0
LWPOLYLINE
  5
1FA
100
AcDbEntity
  8
0
 62
   253
100
AcDbPolyline
 90
        2
 70
     0
 39
0.003
 10
-2.538228
 20
0.405504
 40
0.003
 41
0.003
 10
-2.508878
 20
0.4075
 40
0.003
 41
0.003
  0
LWPOLYLINE
  5
1FB
100
AcDbEntity
  8
0
 62
   253
100
AcDbPolyline
 90
        2
 70
     0
 39
0.003
 10
-2.538228
 20
0.405504
 40
0.003
 41
0.003
 10
-1.884807
 20
0.785854
 40
0.003
 41
0.003
  0
LWPOLYLINE
  5
1FC
100
AcDbEntity
  8
0
 62
   253
100
AcDbPolyline
 90
        2
 70
     0
 39
0.003
 10
-1.884807
 20
0.785854
 40
0.003
 41
0.003
 10
-1.914461
 20
0.785331
 40
0.003
 41
0.003
  0
LWPOLYLINE
  5
1FD
100
AcDbEntity
  8
0
 62
   253
100
AcDbPolyline
 90
        2
 70
     0
 39
0.003
 10
-1.914461
 20
0.785331
 40
0.003
 41
0.003
 10
-2.567882
 20
0.40498
 40
0.003
 41
0.003
  0
LWPOLYLINE
  5
1FE
100
AcDbEntity
  8
0
 62
   253
100
AcDbPolyline
 90
        2
 70
     0
 39
0.003
 10
-2.567882
 20
0.40498
 40
0.003
 41
0.003
 10
-2.538228
 20
0.405504
 40
0.003
 41
0.003
  0
LWPOLYLINE
  5
1FF
100
AcDbEntity
  8
0
 62
     0
100
AcDbPolyline
 90
        2
 70
     0
 39
0.003
 10
-2.280902
 20
0.475441
 40
0.003
 41
0.003
 10
-1.62748
 20
0.855791
 40
0.003
 41
0.003
  0
LWPOLYLINE
  5
200
100
AcDbEntity
  8
0
 62
     0
100
AcDbPolyline
 90
        2
 70
     0
 39
0.003
 10
-1.62748
 20
0.855791
 40
0.003
 41
0.003
 10
-1.647929
 20
0.844984
 40
0.003
 41
0.003
  0
LWPOLYLINE
  5
201
100
AcDbEntity
  8
0
 62
     0
100
AcDbPolyline
 90
        2
 70
     0
 39
0.003
 10
-1.647929
 20
0.844984
 40
0.003
 41
0.003
 10
-1.669921
 20
0.83476
 40
0.003
 41
0.003
  0
LWPOLYLINE
  5
202
100
AcDbEntity
  8
0
 62
     0
100
AcDbPolyline
 90
        2
 70
     0
 39
0.003
 10
-1.669921
 20
0.83476
 40
0.003
 41
0.003
 10
-1.693327
 20
0.82522
 40
0.003
 41
0.003
  0
LWPOLYLINE
  5
203
100
AcDbEntity
  8
0
 62
     0
100
AcDbPolyline
 90
        2
 70
     0
 39
0.003
 10
-1.693327
 20
0.82522
 40
0.003
 41
0.003
 10
-1.717984
 20
0.816461
 40
0.003
 41
0.003
  0
LWPOLYLINE
  5
204
100
AcDbEntity
  8
0
 62
     0
100
AcDbPolyline
 90
        2
 70
     0
 39
0.003
 10
-1.717984
 20
0.816461
 40
0.003
 41
0.003
 10
-1.74378
 20
0.808583
 40
0.003
 41
0.003
  0
LWPOLYLINE
  5
205
100
AcDbEntity
  8
0
 62
     0
100
AcDbPolyline
 90
        2
 70
     0
 39
0.003
 10
-1.74378
 20
0.808583
 40
0.003
 41
0.003
 10
-1.770559
 20
0.801685
 40
0.003
 41
0.003
  0
LWPOLYLINE
  5
206
100
AcDbEntity
  8
0
 62
     0
100
AcDbPolyline
 90
        2
 70
     0
 39
0.003
 10
-1.770559
 20
0.801685
 40
0.003
 41
0.003
 10
-1.798197
 20
0.795866
 40
0.003
 41
0.003
  0
LWPOLYLINE
  5
207
100
AcDbEntity
  8
0
 62
     0
100
AcDbPolyline
 90
        2
 70
     0
 39
0.003
 10
-1.798197
 20
0.795866
 40
0.003
 41
0.003
 10
-1.826539
 20
0.791217
 40
0.003
 41
0.003
  0
LWPOLYLINE
  5
208
100
AcDbEntity
  8
0
 62
     0
100
AcDbPolyline
 90
        2
 70
     0
 39
0.003
 10
-1.826539
 20
0.791217
 40
0.003
 41
0.003
 10
-1.855457
 20
0.78785
 40
0.003
 41
0.003
  0
LWPOLYLINE
  5
209
100
AcDbEntity
  8
0
 62
     0
100
AcDbPolyline
 90
        2
 70
     0
 39
0.003
 10
-1.855457
 20
0.78785
 40
0.003
 41
0.003
 10
-1.884807
 20
0.785854
 40
0.003
 41
0.003
  0
LWPOLYLINE
  5
20A
100
AcDbEntity
  8
0
 62
     0
100
AcDbPolyline
 90
        2
 70
     0
 39
0.003
 10
-1.884807
 20
0.785854
 40
0.003
 41
0.003
 10
-1.914461
 20
0.785331
 40
0.003
 41
0.003
  0
LWPOLYLINE
  5
20B
100
AcDbEntity
  8
0
 62
     0
100
AcDbPolyline
 90
        2
 70
     0
 39
0.003
 10
-1.914461
 20
0.785331
 40
0.003
 41
0.003
 10
-2.567882
 20
0.40498
 40
0.003
 41
0.003
  0
LWPOLYLINE
  5
20C
100
AcDbEntity
  8
0
 62
     0
100
AcDbPolyline
 90
        2
 70
     0
 39
0.003
 10
-2.567882
 20
0.40498
 40
0.003
 41
0.003
 10
-2.538228
 20
0.405504
 40
0.003
 41
0.003
  0
LWPOLYLINE
  5
20D
100
AcDbEntity
  8
0
 62
     0
100
AcDbPolyline
 90
        2
 70
     0
 39
0.003
 10
-2.538228
 20
0.405504
 40
0.003
 41
0.003
 10
-2.508878
 20
0.4075
 40
0.003
 41
0.003
  0
LWPOLYLINE
  5
20E
100
AcDbEntity
  8
0
 62
     0
100
AcDbPolyline
 90
        2
 70
     0
 39
0.003
 10
-2.508878
 20
0.4075
 40
0.003
 41
0.003
 10
-2.479961
 20
0.410866
 40
0.003
 41
0.003
  0
LWPOLYLINE
  5
20F
100
AcDbEntity
  8
0
 62
     0
100
AcDbPolyline
 90
        2
 70
     0
 39
0.003
 10
-2.479961
 20
0.410866
 40
0.003
 41
0.003
 10
-2.451618
 20
0.415516
 40
0.003
 41
0.003
  0
LWPOLYLINE
  5
210
100
AcDbEntity
  8
0
 62
     0
100
AcDbPolyline
 90
        2
 70
     0
 39
0.003
 10
-2.451618
 20
0.415516
 40
0.003
 41
0.003
 10
-2.42398
 20
0.421335
 40
0.003
 41
0.003
  0
LWPOLYLINE
  5
211
100
AcDbEntity
  8
0
 62
     0
100
AcDbPolyline
 90
        2
 70
     0
 39
0.003
 10
-2.42398
 20
0.421335
 40
0.003
 41
0.003
 10
-2.397201
 20
0.428232
 40
0.003
 41
0.003
  0
LWPOLYLINE
  5
212
100
AcDbEntity
  8
0
 62
     0
100
AcDbPolyline
 90
        2
 70
     0
 39
0.003
 10
-2.397201
 20
0.428232
 40
0.003
 41
0.003
 10
-2.371406
 20
0.43611
 40
0.003
 41
0.003
  0
LWPOLYLINE
  5
213
100
AcDbEntity
  8
0
 62
     0
100
AcDbPolyline
 90
        2
 70
     0
 39
0.003
 10
-2.371406
 20
0.43611
 40
0.003
 41
0.003
 10
-2.346748
 20
0.44487
 40
0.003
 41
0.003
  0
LWPOLYLINE
  5
214
100
AcDbEntity
  8
0
 62
     0
100
AcDbPolyline
 90
        2
 70
     0
 39
0.003
 10
-2.346748
 20
0.44487
 40
0.003
 41
0.003
 10
-2.323343
 20
0.454409
 40
0.003
 41
0.003
  0
LWPOLYLINE
  5
215
100
AcDbEntity
  8
0
 62
     0
100
AcDbPolyline
 90
        2
 70
     0
 39
0.003
 10
-2.323343
 20
0.454409
 40
0.003
 41
0.003
 10
-2.30135
 20
0.464634
 40
0.003
 41
0.003
  0
LWPOLYLINE
  5
216
100
AcDbEntity
  8
0
 62
     0
100
AcDbPolyline
 90
        2
 70
     0
 39
0.003
 10
-2.30135
 20
0.464634
 40
0.003
 41
0.003
 10
-2.280902
 20
0.475441
 40
0.003
 41
0.003
  0
LWPOLYLINE
  5
217
100
AcDbEntity
  8
0
 62
   254
100
AcDbPolyline
 90
        2
 70
     0
 39
0.003
 10
2.185425
 20
0.166567
 40
0.003
 41
0.003
 10
2.838846
 20
0.546917
 40
0.003
 41
0.003
  0
LWPOLYLINE
  5
218
100
AcDbEntity
  8
0
 62
   254
100
AcDbPolyline
 90
        2
 70
     0
 39
0.003
 10
2.838846
 20
0.546917
 40
0.003
 41
0.003
 10
2.838846
 20
0.785331
 40
0.003
 41
0.003
  0
LWPOLYLINE
  5
219
100
AcDbEntity
  8
0
 62
   254
100
AcDbPolyline
 90
        2
 70
     0
 39
0.003
 10
2.838846
 20
0.785331
 40
0.003
 41
0.003
 10
2.185425
 20
0.40498
 40
0.003
 41
0.003
  0
LWPOLYLINE
  5
21A
100
AcDbEntity
  8
0
 62
   254
100
AcDbPolyline
 90
        2
 70
     0
 39
0.003
 10
2.185425
 20
0.40498
 40
0.003
 41
0.003
 10
2.185425
 20
0.166567
 40
0.003
 41
0.003
  0
LWPOLYLINE
  5
21B
100
AcDbEntity
  8
0
 62
     0
100
AcDbPolyline
 90
        2
 70
     0
 39
0.003
 10
2.185425
 20
0.166567
 40
0.003
 41
0.003
 10
2.838846
 20
0.546917
 40
0.003
 41
0.003
  0
LWPOLYLINE
  5
21C
100
AcDbEntity
  8
0
 62
     0
100
AcDbPolyline
 90
        2
 70
     0
 39
0.003
 10
2.838846
 20
0.546917
 40
0.003
 41
0.003
 10
2.838846
 20
0.785331
 40
0.003
 41
0.003
  0
LWPOLYLINE
  5
21D
100
AcDbEntity
  8
0
 62
     0
100
AcDbPolyline
 90
        2
 70
     0
 39
0.003
 10
2.838846
 20
0.785331
 40
0.003
 41
0.003
 10
2.185425
 20
0.40498
 40
0.003
 41
0.003
  0
LWPOLYLINE
  5
21E
100
AcDbEntity
  8
0
 62
     0
100
AcDbPolyline
 90
        2
 70
     0
 39
0.003
 10
2.185425
 20
0.40498
 40
0.003
 41
0.003
 10
2.185425
 20
0.166567
 40
0.003
 41
0.003
  0
LWPOLYLINE
  5
21F
100
AcDbEntity
  8
0
 62
   253
100
AcDbPolyline
 90
        2
 70
     0
 39
0.003
 10
2.185425
 20
0.40498
 40
0.003
 41
0.003
 10
2.838846
 20
0.785331
 40
0.003
 41
0.003
  0
LWPOLYLINE
  5
220
100
AcDbEntity
  8
0
 62
   253
100
AcDbPolyline
 90
        2
 70
     0
 39
0.003
 10
2.838846
 20
0.785331
 40
0.003
 41
0.003
 10
2.809193
 20
0.785854
 40
0.003
 41
0.003
  0
LWPOLYLINE
  5
221
100
AcDbEntity
  8
0
 62
   253
100
AcDbPolyline
 90
        2
 70
     0
 39
0.003
 10
2.809193
 20
0.785854
 40
0.003
 41
0.003
 10
2.155772
 20
0.405504
 40
0.003
 41
0.003
  0
LWPOLYLINE
  5
222
100
AcDbEntity
  8
0
 62
   253
100
AcDbPolyline
 90
        2
 70
     0
 39
0.003
 10
2.155772
 20
0.405504
 40
0.003
 41
0.003
 10
2.185425
 20
0.40498
 40
0.003
 41
0.003
  0
LWPOLYLINE
  5
223
100
AcDbEntity
  8
0
 62
   253
100
AcDbPolyline
 90
        2
 70
     0
 39
0.003
 10
2.155772
 20
0.405504
 40
0.003
 41
0.003
 10
2.809193
 20
0.785854
 40
0.003
 41
0.003
  0
LWPOLYLINE
  5
224
100
AcDbEntity
  8
0
 62
   253
100
AcDbPolyline
 90
        2
 70
     0
 39
0.003
 10
2.809193
 20
0.785854
 40
0.003
 41
0.003
 10
2.779843
 20
0.78785
 40
0.003
 41
0.003
  0
LWPOLYLINE
  5
225
100
AcDbEntity
  8
0
 62
   253
100
AcDbPolyline
 90
        2
 70
     0
 39
0.003
 10
2.779843
 20
0.78785
 40
0.003
 41
0.003
 10
2.126421
 20
0.4075
 40
0.003
 41
0.003
  0
LWPOLYLINE
  5
226
100
AcDbEntity
  8
0
 62
   253
100
AcDbPolyline
 90
        2
 70
     0
 39
0.003
 10
2.126421
 20
0.4075
 40
0.003
 41
0.003
 10
2.155772
 20
0.405504
 40
0.003
 41
0.003
  0
LWPOLYLINE
  5
227
100
AcDbEntity
  8
0
 62
     9
100
AcDbPolyline
 90
        2
 70
     0
 39
0.003
 10
2.126421
 20
0.4075
 40
0.003
 41
0.003
 10
2.779843
 20
0.78785
 40
0.003
 41
0.003
  0
LWPOLYLINE
  5
228
100
AcDbEntity
  8
0
 62
     9
100
AcDbPolyline
 90
        2
 70
     0
 39
0.003
 10
2.779843
 20
0.78785
 40
0.003
 41
0.003
 10
2.750925
 20
0.791217
 40
0.003
 41
0.003
  0
LWPOLYLINE
  5
229
100
AcDbEntity
  8
0
 62
     9
100
AcDbPolyline
 90
        2
 70
     0
 39
0.003
 10
2.750925
 20
0.791217
 40
0.003
 41
0.003
 10
2.097504
 20
0.410866
 40
0.003
 41
0.003
  0
LWPOLYLINE
  5
22A
100
AcDbEntity
  8
0
 62
     9
100
AcDbPolyline
 90
        2
 70
     0
 39
0.003
 10
2.097504
 20
0.410866
 40
0.003
 41
0.003
 10
2.126421
 20
0.4075
 40
0.003
 41
0.003
  0
LWPOLYLINE
  5
22B
100
AcDbEntity
  8
0
 62
     9
100
AcDbPolyline
 90
        2
 70
     0
 39
0.003
 10
2.097504
 20
0.410866
 40
0.003
 41
0.003
 10
2.750925
 20
0.791217
 40
0.003
 41
0.003
  0
LWPOLYLINE
  5
22C
100
AcDbEntity
  8
0
 62
     9
100
AcDbPolyline
 90
        2
 70
     0
 39
0.003
 10
2.750925
 20
0.791217
 40
0.003
 41
0.003
 10
2.722583
 20
0.795866
 40
0.003
 41
0.003
  0
LWPOLYLINE
  5
22D
100
AcDbEntity
  8
0
 62
     9
100
AcDbPolyline
 90
        2
 70
     0
 39
0.003
 10
2.722583
 20
0.795866
 40
0.003
 41
0.003
 10
2.069161
 20
0.415516
 40
0.003
 41
0.003
  0
LWPOLYLINE
  5
22E
100
AcDbEntity
  8
0
 62
     9
100
AcDbPolyline
 90
        2
 70
     0
 39
0.003
 10
2.069161
 20
0.415516
 40
0.003
 41
0.003
 10
2.097504
 20
0.410866
 40
0.003
 41
0.003
  0
LWPOLYLINE
  5
22F
100
AcDbEntity
  8
0
 62
     9
100
AcDbPolyline
 90
        2
 70
     0
 39
0.003
 10
2.069161
 20
0.415516
 40
0.003
 41
0.003
 10
2.722583
 20
0.795866
 40
0.003
 41
0.003
  0
LWPOLYLINE
  5
230
100
AcDbEntity
  8
0
 62
     9
100
AcDbPolyline
 90
        2
 70
     0
 39
0.003
 10
2.722583
 20
0.795866
 40
0.003
 41
0.003
 10
2.694945
 20
0.801685
 40
0.003
 41
0.003
  0
LWPOLYLINE
  5
231
100
AcDbEntity
  8
0
 62
     9
100
AcDbPolyline
 90
        2
 70
     0
 39
0.003
 10
2.694945
 20
0.801685
 40
0.003
 41
0.003
 10
2.041524
 20
0.421335
 40
0.003
 41
0.003
  0
LWPOLYLINE
  5
232
100
AcDbEntity
  8
0
 62
     9
100
AcDbPolyline
 90
        2
 70
     0
 39
0.003
 10
2.041524
 20
0.421335
 40
0.003
 41
0.003
 10
2.069161
 20
0.415516
 40
0.003
 41
0.003
  0
LWPOLYLINE
  5
233
100
AcDbEntity
  8
0
 62
     9
100
AcDbPolyline
 90
        2
 70
     0
 39
0.003
 10
2.041524
 20
0.421335
 40
0.003
 41
0.003
 10
2.694945
 20
0.801685
 40
0.003
 41
0.003
  0
LWPOLYLINE
  5
234
100
AcDbEntity
  8
0
 62
     9
100
AcDbPolyline
 90
        2
 70
     0
 39
0.003
 10
2.694945
 20
0.801685
 40
0.003
 41
0.003
 10
2.668165
 20
0.808583
 40
0.003
 41
0.003
  0
LWPOLYLINE
  5
235
100
AcDbEntity
  8
0
 62
     9
100
AcDbPolyline
 90
        2
 70
     0
 39
0.003
 10
2.668165
 20
0.808583
 40
0.003
 41
0.003
 10
2.014744
 20
0.428232
 40
0.003
 41
0.003
  0
LWPOLYLINE
  5
236
100
AcDbEntity
  8
0
 62
     9
100
AcDbPolyline
 90
        2
 70
     0
 39
0.003
 10
2.014744
 20
0.428232
 40
0.003
 41
0.003
 10
2.041524
 20
0.421335
 40
0.003
 41
0.003
  0
LWPOLYLINE
  5
237
100
AcDbEntity
  8
0
 62
     9
100
AcDbPolyline
 90
        2
 70
     0
 39
0.003
 10
2.014744
 20
0.428232
 40
0.003
 41
0.003
 10
2.668165
 20
0.808583
 40
0.003
 41
0.003
  0
LWPOLYLINE
  5
238
100
AcDbEntity
  8
0
 62
     9
100
AcDbPolyline
 90
        2
 70
     0
 39
0.003
 10
2.668165
 20
0.808583
 40
0.003
 41
0.003
 10
2.64237
 20
0.816461
 40
0.003
 41
0.003
  0
LWPOLYLINE
  5
239
100
AcDbEntity
  8
0
 62
     9
100
AcDbPolyline
 90
        2
 70
     0
 39
0.003
 10
2.64237
 20
0.816461
 40
0.003
 41
0.003
 10
1.988949
 20
0.43611
 40
0.003
 41
0.003
  0
LWPOLYLINE
  5
23A
100
AcDbEntity
  8
0
 62
     9
100
AcDbPolyline
 90
        2
 70
     0
 39
0.003
 10
1.988949
 20
0.43611
 40
0.003
 41
0.003
 10
2.014744
 20
0.428232
 40
0.003
 41
0.003
  0
LWPOLYLINE
  5
23B
100
AcDbEntity
  8
0
 62
     9
100
AcDbPolyline
 90
        2
 70
     0
 39
0.003
 10
1.988949
 20
0.43611
 40
0.003
 41
0.003
 10
2.64237
 20
0.816461
 40
0.003
 41
0.003
  0
LWPOLYLINE
  5
23C
100
AcDbEntity
  8
0
 62
     9
100
AcDbPolyline
 90
        2
 70
     0
 39
0.003
 10
2.64237
 20
0.816461
 40
0.003
 41
0.003
 10
2.617713
 20
0.82522
 40
0.003
 41
0.003
  0
LWPOLYLINE
  5
23D
100
AcDbEntity
  8
0
 62
     9
100
AcDbPolyline
 90
        2
 70
     0
 39
0.003
 10
2.617713
 20
0.82522
 40
0.003
 41
0.003
 10
1.964291
 20
0.44487
 40
0.003
 41
0.003
  0
LWPOLYLINE
  5
23E
100
AcDbEntity
  8
0
 62
     9
100
AcDbPolyline
 90
        2
 70
     0
 39
0.003
 10
1.964291
 20
0.44487
 40
0.003
 41
0.003
 10
1.988949
 20
0.43611
 40
0.003
 41
0.003
  0
LWPOLYLINE
  5
23F
100
AcDbEntity
  8
0
 62
     9
100
AcDbPolyline
 90
        2
 70
     0
 39
0.003
 10
1.964291
 20
0.44487
 40
0.003
 41
0.003
 10
2.617713
 20
0.82522
 40
0.003
 41
0.003
  0
LWPOLYLINE
  5
240
100
AcDbEntity
  8
0
 62
     9
100
AcDbPolyline
 90
        2
 70
     0
 39
0.003
 10
2.617713
 20
0.82522
 40
0.003
 41
0.003
 10
2.594307
 20
0.83476
 40
0.003
 41
0.003
  0
LWPOLYLINE
  5
241
100
AcDbEntity
  8
0
 62
     9
100
AcDbPolyline
 90
        2
 70
     0
 39
0.003
 10
2.594307
 20
0.83476
 40
0.003
 41
0.003
 10
1.940886
 20
0.454409
 40
0.003
 41
0.003
  0
LWPOLYLINE
  5
242
100
AcDbEntity
  8
0
 62
     9
100
AcDbPolyline
 90
        2
 70
     0
 39
0.003
 10
1.940886
 20
0.454409
 40
0.003
 41
0.003
 10
1.964291
 20
0.44487
 40
0.003
 41
0.003
  0
LWPOLYLINE
  5
243
100
AcDbEntity
  8
0
 62
     9
100
AcDbPolyline
 90
        2
 70
     0
 39
0.003
 10
1.940886
 20
0.454409
 40
0.003
 41
0.003
 10
2.594307
 20
0.83476
 40
0.003
 41
0.003
  0
LWPOLYLINE
  5
244
100
AcDbEntity
  8
0
 62
     9
100
AcDbPolyline
 90
        2
 70
     0
 39
0.003
 10
2.594307
 20
0.83476
 40
0.003
 41
0.003
 10
2.572315
 20
0.844984
 40
0.003
 41
0.003
  0
LWPOLYLINE
  5
245
100
AcDbEntity
  8
0
 62
     9
100
AcDbPolyline
 90
        2
 70
     0
 39
0.003
 10
2.572315
 20
0.844984
 40
0.003
 41
0.003
 10
1.918894
 20
0.464634
 40
0.003
 41
0.003
  0
LWPOLYLINE
  5
246
100
AcDbEntity
  8
0
 62
     9
100
AcDbPolyline
 90
        2
 70
     0
 39
0.003
 10
1.918894
 20
0.464634
 40
0.003
 41
0.003
 10
1.940886
 20
0.454409
 40
0.003
 41
0.003
  0
LWPOLYLINE
  5
247
100
AcDbEntity
  8
0
 62
     9
100
AcDbPolyline
 90
        2
 70
     0
 39
0.003
 10
1.918894
 20
0.464634
 40
0.003
 41
0.003
 10
2.572315
 20
0.844984
 40
0.003
 41
0.003
  0
LWPOLYLINE
  5
248
100
AcDbEntity
  8
0
 62
     9
100
AcDbPolyline
 90
        2
 70
     0
 39
0.003
 10
2.572315
 20
0.844984
 40
0.003
 41
0.003
 10
2.551866
 20
0.855791
 40
0.003
 41
0.003
  0
LWPOLYLINE
  5
249
100
AcDbEntity
  8
0
 62
     9
100
AcDbPolyline
 90
        2
 70
     0
 39
0.003
 10
2.551866
 20
0.855791
 40
0.003
 41
0.003
 10
1.898445
 20
0.475441
 40
0.003
 41
0.003
  0
LWPOLYLINE
  5
24A
100
AcDbEntity
  8
0
 62
     9
100
AcDbPolyline
 90
        2
 70
     0
 39
0.003
 10
1.898445
 20
0.475441
 40
0.003
 41
0.003
 10
1.918894
 20
0.464634
 40
0.003
 41
0.003
  0
LWPOLYLINE
  5
24B
100
AcDbEntity
  8
0
 62
     9
100
AcDbPolyline
 90
        2
 70
     0
 39
0.003
 10
1.898445
 20
0.475441
 40
0.003
 41
0.003
 10
2.551866
 20
0.855791
 40
0.003
 41
0.003
  0
LWPOLYLINE
  5
24C
100
AcDbEntity
  8
0
 62
     9
100
AcDbPolyline
 90
        2
 70
     0
 39
0.003
 10
2.551866
 20
0.855791
 40
0.003
 41
0.003
 10
2.533102
 20
0.867098
 40
0.003
 41
0.003
  0
LWPOLYLINE
  5
24D
100
AcDbEntity
  8
0
 62
     9
100
AcDbPolyline
 90
        2
 70
     0
 39
0.003
 10
2.533102
 20
0.867098
 40
0.003
 41
0.003
 10
1.879681
 20
0.486748
 40
0.003
 41
0.003
  0
LWPOLYLINE
  5
24E
100
AcDbEntity
  8
0
 62
     9
100
AcDbPolyline
 90
        2
 70
     0
 39
0.003
 10
1.879681
 20
0.486748
 40
0.003
 41
0.003
 10
1.898445
 20
0.475441
 40
0.003
 41
0.003
  0
LWPOLYLINE
  5
24F
100
AcDbEntity
  8
0
 62
     9
100
AcDbPolyline
 90
        2
 70
     0
 39
0.003
 10
1.879681
 20
0.486748
 40
0.003
 41
0.003
 10
2.533102
 20
0.867098
 40
0.003
 41
0.003
  0
LWPOLYLINE
  5
250
100
AcDbEntity
  8
0
 62
     9
100
AcDbPolyline
 90
        2
 70
     0
 39
0.003
 10
2.533102
 20
0.867098
 40
0.003
 41
0.003
 10
2.516154
 20
0.878783
 40
0.003
 41
0.003
  0
LWPOLYLINE
  5
251
100
AcDbEntity
  8
0
 62
     9
100
AcDbPolyline
 90
        2
 70
     0
 39
0.003
 10
2.516154
 20
0.878783
 40
0.003
 41
0.003
 10
1.862732
 20
0.498433
 40
0.003
 41
0.003
  0
LWPOLYLINE
  5
252
100
AcDbEntity
  8
0
 62
     9
100
AcDbPolyline
 90
        2
 70
     0
 39
0.003
 10
1.862732
 20
0.498433
 40
0.003
 41
0.003
 10
1.879681
 20
0.486748
 40
0.003
 41
0.003
  0
LWPOLYLINE
  5
253
100
AcDbEntity
  8
0
 62
     9
100
AcDbPolyline
 90
        2
 70
     0
 39
0.003
 10
1.862732
 20
0.498433
 40
0.003
 41
0.003
 10
2.516154
 20
0.878783
 40
0.003
 41
0.003
  0
LWPOLYLINE
  5
254
100
AcDbEntity
  8
0
 62
     9
100
AcDbPolyline
 90
        2
 70
     0
 39
0.003
 10
2.516154
 20
0.878783
 40
0.003
 41
0.003
 10
2.501177
 20
0.890768
 40
0.003
 41
0.003
  0
LWPOLYLINE
  5
255
100
AcDbEntity
  8
0
 62
     9
100
AcDbPolyline
 90
        2
 70
     0
 39
0.003
 10
2.501177
 20
0.890768
 40
0.003
 41
0.003
 10
1.847756
 20
0.510417
 40
0.003
 41
0.003
  0
LWPOLYLINE
  5
256
100
AcDbEntity
  8
0
 62
     9
100
AcDbPolyline
 90
        2
 70
     0
 39
0.003
 10
1.847756
 20
0.510417
 40
0.003
 41
0.003
 10
1.862732
 20
0.498433
 40
0.003
 41
0.003
  0
LWPOLYLINE
  5
257
100
AcDbEntity
  8
0
 62
     9
100
AcDbPolyline
 90
        2
 70
     0
 39
0.003
 10
1.847756
 20
0.510417
 40
0.003
 41
0.003
 10
2.501177
 20
0.890768
 40
0.003
 41
0.003
  0
LWPOLYLINE
  5
258
100
AcDbEntity
  8
0
 62
     9
100
AcDbPolyline
 90
        2
 70
     0
 39
0.003
 10
2.501177
 20
0.890768
 40
0.003
 41
0.003
 10
2.488291
 20
0.902941
 40
0.003
 41
0.003
  0
LWPOLYLINE
  5
259
100
AcDbEntity
  8
0
 62
     9
100
AcDbPolyline
 90
        2
 70
     0
 39
0.003
 10
2.488291
 20
0.902941
 40
0.003
 41
0.003
 10
1.83487
 20
0.522591
 40
0.003
 41
0.003
  0
LWPOLYLINE
  5
25A
100
AcDbEntity
  8
0
 62
     9
100
AcDbPolyline
 90
        2
 70
     0
 39
0.003
 10
1.83487
 20
0.522591
 40
0.003
 41
0.003
 10
1.847756
 20
0.510417
 40
0.003
 41
0.003
  0
LWPOLYLINE
  5
25B
100
AcDbEntity
  8
0
 62
     9
100
AcDbPolyline
 90
        2
 70
     0
 39
0.003
 10
1.83487
 20
0.522591
 40
0.003
 41
0.003
 10
2.488291
 20
0.902941
 40
0.003
 41
0.003
  0
LWPOLYLINE
  5
25C
100
AcDbEntity
  8
0
 62
     9
100
AcDbPolyline
 90
        2
 70
     0
 39
0.003
 10
2.488291
 20
0.902941
 40
0.003
 41
0.003
 10
2.47765
 20
0.91522
 40
0.003
 41
0.003
  0
LWPOLYLINE
  5
25D
100
AcDbEntity
  8
0
 62
     9
100
AcDbPolyline
 90
        2
 70
     0
 39
0.003
 10
2.47765
 20
0.91522
 40
0.003
 41
0.003
 10
1.824228
 20
0.53487
 40
0.003
 41
0.003
  0
LWPOLYLINE
  5
25E
100
AcDbEntity
  8
0
 62
     9
100
AcDbPolyline
 90
        2
 70
     0
 39
0.003
 10
1.824228
 20
0.53487
 40
0.003
 41
0.003
 10
1.83487
 20
0.522591
 40
0.003
 41
0.003
  0
LWPOLYLINE
  5
25F
100
AcDbEntity
  8
0
 62
     9
100
AcDbPolyline
 90
        2
 70
     0
 39
0.003
 10
1.824228
 20
0.53487
 40
0.003
 41
0.003
 10
2.47765
 20
0.91522
 40
0.003
 41
0.003
  0
LWPOLYLINE
  5
260
100
AcDbEntity
  8
0
 62
     9
100
AcDbPolyline
 90
        2
 70
     0
 39
0.003
 10
2.47765
 20
0.91522
 40
0.003
 41
0.003
 10
2.469374
 20
0.927484
 40
0.003
 41
0.003
  0
LWPOLYLINE
  5
261
100
AcDbEntity
  8
0
 62
     9
100
AcDbPolyline
 90
        2
 70
     0
 39
0.003
 10
2.469374
 20
0.927484
 40
0.003
 41
0.003
 10
1.815953
 20
0.547134
 40
0.003
 41
0.003
  0
LWPOLYLINE
  5
262
100
AcDbEntity
  8
0
 62
     9
100
AcDbPolyline
 90
        2
 70
     0
 39
0.003
 10
1.815953
 20
0.547134
 40
0.003
 41
0.003
 10
1.824228
 20
0.53487
 40
0.003
 41
0.003
  0
LWPOLYLINE
  5
263
100
AcDbEntity
  8
0
 62
   254
100
AcDbPolyline
 90
        2
 70
     0
 39
0.003
 10
1.815953
 20
0.547134
 40
0.003
 41
0.003
 10
2.469374
 20
0.927484
 40
0.003
 41
0.003
  0
LWPOLYLINE
  5
264
100
AcDbEntity
  8
0
 62
   254
100
AcDbPolyline
 90
        2
 70
     0
 39
0.003
 10
2.469374
 20
0.927484
 40
0.003
 41
0.003
 10
2.463622
 20
0.939654
 40
0.003
 41
0.003
  0
LWPOLYLINE
  5
265
100
AcDbEntity
  8
0
 62
   254
100
AcDbPolyline
 90
        2
 70
     0
 39
0.003
 10
2.463622
 20
0.939654
 40
0.003
 41
0.003
 10
1.810201
 20
0.559303
 40
0.003
 41
0.003
  0
LWPOLYLINE
  5
266
100
AcDbEntity
  8
0
 62
   254
100
AcDbPolyline
 90
        2
 70
     0
 39
0.003
 10
1.810201
 20
0.559303
 40
0.003
 41
0.003
 10
1.815953
 20
0.547134
 40
0.003
 41
0.003
  0
LWPOLYLINE
  5
267
100
AcDbEntity
  8
0
 62
   254
100
AcDbPolyline
 90
        2
 70
     0
 39
0.003
 10
1.810201
 20
0.559303
 40
0.003
 41
0.003
 10
2.463622
 20
0.939654
 40
0.003
 41
0.003
  0
LWPOLYLINE
  5
268
100
AcDbEntity
  8
0
 62
   254
100
AcDbPolyline
 90
        2
 70
     0
 39
0.003
 10
2.463622
 20
0.939654
 40
0.003
 41
0.003
 10
2.46052
 20
0.951618
 40
0.003
 41
0.003
  0
LWPOLYLINE
  5
269
100
AcDbEntity
  8
0
 62
   254
100
AcDbPolyline
 90
        2
 70
     0
 39
0.003
 10
2.46052
 20
0.951618
 40
0.003
 41
0.003
 10
1.807098
 20
0.571268
 40
0.003
 41
0.003
  0
LWPOLYLINE
  5
26A
100
AcDbEntity
  8
0
 62
   254
100
AcDbPolyline
 90
        2
 70
     0
 39
0.003
 10
1.807098
 20
0.571268
 40
0.003
 41
0.003
 10
1.810201
 20
0.559303
 40
0.003
 41
0.003
  0
LWPOLYLINE
  5
26B
100
AcDbEntity
  8
0
 62
   254
100
AcDbPolyline
 90
        2
 70
     0
 39
0.003
 10
1.807098
 20
0.571268
 40
0.003
 41
0.003
 10
2.46052
 20
0.951618
 40
0.003
 41
0.003
  0
LWPOLYLINE
  5
26C
100
AcDbEntity
  8
0
 62
   254
100
AcDbPolyline
 90
        2
 70
     0
 39
0.003
 10
2.46052
 20
0.951618
 40
0.003
 41
0.003
 10
2.460213
 20
0.963295
 40
0.003
 41
0.003
  0
LWPOLYLINE
  5
26D
100
AcDbEntity
  8
0
 62
   254
100
AcDbPolyline
 90
        2
 70
     0
 39
0.003
 10
2.460213
 20
0.963295
 40
0.003
 41
0.003
 10
1.806791
 20
0.582945
 40
0.003
 41
0.003
  0
LWPOLYLINE
  5
26E
100
AcDbEntity
  8
0
 62
   254
100
AcDbPolyline
 90
        2
 70
     0
 39
0.003
 10
1.806791
 20
0.582945
 40
0.003
 41
0.003
 10
1.807098
 20
0.571268
 40
0.003
 41
0.003
  0
LWPOLYLINE
  5
26F
100
AcDbEntity
  8
0
 62
     9
100
AcDbPolyline
 90
        2
 70
     0
 39
0.003
 10
1.806791
 20
0.582945
 40
0.003
 41
0.003
 10
2.460213
 20
0.963295
 40
0.003
 41
0.003
  0
LWPOLYLINE
  5
270
100
AcDbEntity
  8
0
 62
     9
100
AcDbPolyline
 90
        2
 70
     0
 39
0.003
 10
2.460213
 20
0.963295
 40
0.003
 41
0.003
 10
2.462835
 20
0.974567
 40
0.003
 41
0.003
  0
LWPOLYLINE
  5
271
100
AcDbEntity
  8
0
 62
     9
100
AcDbPolyline
 90
        2
 70
     0
 39
0.003
 10
2.462835
 20
0.974567
 40
0.003
 41
0.003
 10
1.809413
 20
0.594217
 40
0.003
 41
0.003
  0
LWPOLYLINE
  5
272
100
AcDbEntity
  8
0
 62
     9
100
AcDbPolyline
 90
        2
 70
     0
 39
0.003
 10
1.809413
 20
0.594217
 40
0.003
 41
0.003
 10
1.806791
 20
0.582945
 40
0.003
 41
0.003
  0
LWPOLYLINE
  5
273
100
AcDbEntity
  8
0
 62
     9
100
AcDbPolyline
 90
        2
 70
     0
 39
0.003
 10
1.809413
 20
0.594217
 40
0.003
 41
0.003
 10
2.462835
 20
0.974567
 40
0.003
 41
0.003
  0
LWPOLYLINE
  5
274
100
AcDbEntity
  8
0
 62
     9
100
AcDbPolyline
 90
        2
 70
     0
 39
0.003
 10
2.462835
 20
0.974567
 40
0.003
 41
0.003
 10
2.468531
 20
0.985346
 40
0.003
 41
0.003
  0
LWPOLYLINE
  5
275
100
AcDbEntity
  8
0
 62
     9
100
AcDbPolyline
 90
        2
 70
     0
 39
0.003
 10
2.468531
 20
0.985346
 40
0.003
 41
0.003
 10
1.81511
 20
0.604996
 40
0.003
 41
0.003
  0
LWPOLYLINE
  5
276
100
AcDbEntity
  8
0
 62
     9
100
AcDbPolyline
 90
        2
 70
     0
 39
0.003
 10
1.81511
 20
0.604996
 40
0.003
 41
0.003
 10
1.809413
 20
0.594217
 40
0.003
 41
0.003
  0
LWPOLYLINE
  5
277
100
AcDbEntity
  8
0
 62
     9
100
AcDbPolyline
 90
        2
 70
     0
 39
0.003
 10
1.81511
 20
0.604996
 40
0.003
 41
0.003
 10
2.468531
 20
0.985346
 40
0.003
 41
0.003
  0
LWPOLYLINE
  5
278
100
AcDbEntity
  8
0
 62
     9
100
AcDbPolyline
 90
        2
 70
     0
 39
0.003
 10
2.468531
 20
0.985346
 40
0.003
 41
0.003
 10
2.477429
 20
0.995535
 40
0.003
 41
0.003
  0
LWPOLYLINE
  5
279
100
AcDbEntity
  8
0
 62
     9
100
AcDbPolyline
 90
        2
 70
     0
 39
0.003
 10
2.477429
 20
0.995535
 40
0.003
 41
0.003
 10
1.824008
 20
0.615185
 40
0.003
 41
0.003
  0
LWPOLYLINE
  5
27A
100
AcDbEntity
  8
0
 62
     9
100
AcDbPolyline
 90
        2
 70
     0
 39
0.003
 10
1.824008
 20
0.615185
 40
0.003
 41
0.003
 10
1.81511
 20
0.604996
 40
0.003
 41
0.003
  0
LWPOLYLINE
  5
27B
100
AcDbEntity
  8
0
 62
     9
100
AcDbPolyline
 90
        2
 70
     0
 39
0.003
 10
1.824008
 20
0.615185
 40
0.003
 41
0.003
 10
2.477429
 20
0.995535
 40
0.003
 41
0.003
  0
LWPOLYLINE
  5
27C
100
AcDbEntity
  8
0
 62
     9
100
AcDbPolyline
 90
        2
 70
     0
 39
0.003
 10
2.477429
 20
0.995535
 40
0.003
 41
0.003
 10
2.489685
 20
1.005043
 40
0.003
 41
0.003
  0
LWPOLYLINE
  5
27D
100
AcDbEntity
  8
0
 62
     9
100
AcDbPolyline
 90
        2
 70
     0
 39
0.003
 10
2.489685
 20
1.005043
 40
0.003
 41
0.003
 10
1.836264
 20
0.624693
 40
0.003
 41
0.003
  0
LWPOLYLINE
  5
27E
100
AcDbEntity
  8
0
 62
     9
100
AcDbPolyline
 90
        2
 70
     0
 39
0.003
 10
1.836264
 20
0.624693
 40
0.003
 41
0.003
 10
1.824008
 20
0.615185
 40
0.003
 41
0.003
  0
LWPOLYLINE
  5
27F
100
AcDbEntity
  8
0
 62
     0
100
AcDbPolyline
 90
        2
 70
     0
 39
0.003
 10
2.185425
 20
0.40498
 40
0.003
 41
0.003
 10
2.838846
 20
0.785331
 40
0.003
 41
0.003
  0
LWPOLYLINE
  5
280
100
AcDbEntity
  8
0
 62
     0
100
AcDbPolyline
 90
        2
 70
     0
 39
0.003
 10
2.838846
 20
0.785331
 40
0.003
 41
0.003
 10
2.809193
 20
0.785854
 40
0.003
 41
0.003
  0
LWPOLYLINE
  5
281
100
AcDbEntity
  8
0
 62
     0
100
AcDbPolyline
 90
        2
 70
     0
 39
0.003
 10
2.809193
 20
0.785854
 40
0.003
 41
0.003
 10
2.779843
 20
0.78785
 40
0.003
 41
0.003
  0
LWPOLYLINE
  5
282
100
AcDbEntity
  8
0
 62
     0
100
AcDbPolyline
 90
        2
 70
     0
 39
0.003
 10
2.779843
 20
0.78785
 40
0.003
 41
0.003
 10
2.750925
 20
0.791217
 40
0.003
 41
0.003
  0
LWPOLYLINE
  5
283
100
AcDbEntity
  8
0
 62
     0
100
AcDbPolyline
 90
        2
 70
     0
 39
0.003
 10
2.750925
 20
0.791217
 40
0.003
 41
0.003
 10
2.722583
 20
0.795866
 40
0.003
 41
0.003
  0
LWPOLYLINE
  5
284
100
AcDbEntity
  8
0
 62
     0
100
AcDbPolyline
 90
        2
 70
     0
 39
0.003
 10
2.722583
 20
0.795866
 40
0.003
 41
0.003
 10
2.694945
 20
0.801685
 40
0.003
 41
0.003
  0
LWPOLYLINE
  5
285
100
AcDbEntity
  8
0
 62
     0
100
AcDbPolyline
 90
        2
 70
     0
 39
0.003
 10
2.694945
 20
0.801685
 40
0.003
 41
0.003
 10
2.668165
 20
0.808583
 40
0.003
 41
0.003
  0
LWPOLYLINE
  5
286
100
AcDbEntity
  8
0
 62
     0
100
AcDbPolyline
 90
        2
 70
     0
 39
0.003
 10
2.668165
 20
0.808583
 40
0.003
 41
0.003
 10
2.64237
 20
0.816461
 40
0.003
 41
0.003
  0
LWPOLYLINE
  5
287
100
AcDbEntity
  8
0
 62
     0
100
AcDbPolyline
 90
        2
 70
     0
 39
0.003
 10
2.64237
 20
0.816461
 40
0.003
 41
0.003
 10
2.617713
 20
0.82522
 40
0.003
 41
0.003
  0
LWPOLYLINE
  5
288
100
AcDbEntity
  8
0
 62
     0
100
AcDbPolyline
 90
        2
 70
     0
 39
0.003
 10
2.617713
 20
0.82522
 40
0.003
 41
0.003
 10
2.594307
 20
0.83476
 40
0.003
 41
0.003
  0
LWPOLYLINE
  5
289
100
AcDbEntity
  8
0
 62
     0
100
AcDbPolyline
 90
        2
 70
     0
 39
0.003
 10
2.594307
 20
0.83476
 40
0.003
 41
0.003
 10
2.572315
 20
0.844984
 40
0.003
 41
0.003
  0
LWPOLYLINE
  5
28A
100
AcDbEntity
  8
0
 62
     0
100
AcDbPolyline
 90
        2
 70
     0
 39
0.003
 10
2.572315
 20
0.844984
 40
0.003
 41
0.003
 10
2.551866
 20
0.855791
 40
0.003
 41
0.003
  0
LWPOLYLINE
  5
28B
100
AcDbEntity
  8
0
 62
     0
100
AcDbPolyline
 90
        2
 70
     0
 39
0.003
 10
2.551866
 20
0.855791
 40
0.003
 41
0.003
 10
2.533102
 20
0.867098
 40
0.003
 41
0.003
  0
LWPOLYLINE
  5
28C
100
AcDbEntity
  8
0
 62
     0
100
AcDbPolyline
 90
        2
 70
     0
 39
0.003
 10
2.533102
 20
0.867098
 40
0.003
 41
0.003
 10
2.516154
 20
0.878783
 40
0.003
 41
0.003
  0
LWPOLYLINE
  5
28D
100
AcDbEntity
  8
0
 62
     0
100
AcDbPolyline
 90
        2
 70
     0
 39
0.003
 10
2.516154
 20
0.878783
 40
0.003
 41
0.003
 10
2.501177
 20
0.890768
 40
0.003
 41
0.003
  0
LWPOLYLINE
  5
28E
100
AcDbEntity
  8
0
 62
     0
100
AcDbPolyline
 90
        2
 70
     0
 39
0.003
 10
2.501177
 20
0.890768
 40
0.003
 41
0.003
 10
2.488291
 20
0.902941
 40
0.003
 41
0.003
  0
LWPOLYLINE
  5
28F
100
AcDbEntity
  8
0
 62
     0
100
AcDbPolyline
 90
        2
 70
     0
 39
0.003
 10
2.488291
 20
0.902941
 40
0.003
 41
0.003
 10
2.47765
 20
0.91522
 40
0.003
 41
0.003
  0
LWPOLYLINE
  5
290
100
AcDbEntity
  8
0
 62
     0
100
AcDbPolyline
 90
        2
 70
     0
 39
0.003
 10
2.47765
 20
0.91522
 40
0.003
 41
0.003
 10
2.469374
 20
0.927484
 40
0.003
 41
0.003
  0
LWPOLYLINE
  5
291
100
AcDbEntity
  8
0
 62
     0
100
AcDbPolyline
 90
        2
 70
     0
 39
0.003
 10
2.469374
 20
0.927484
 40
0.003
 41
0.003
 10
2.463622
 20
0.939654
 40
0.003
 41
0.003
  0
LWPOLYLINE
  5
292
100
AcDbEntity
  8
0
 62
     0
100
AcDbPolyline
 90
        2
 70
     0
 39
0.003
 10
2.463622
 20
0.939654
 40
0.003
 41
0.003
 10
2.46052
 20
0.951618
 40
0.003
 41
0.003
  0
LWPOLYLINE
  5
293
100
AcDbEntity
  8
0
 62
     0
100
AcDbPolyline
 90
        2
 70
     0
 39
0.003
 10
2.46052
 20
0.951618
 40
0.003
 41
0.003
 10
2.460213
 20
0.963295
 40
0.003
 41
0.003
  0
LWPOLYLINE
  5
294
100
AcDbEntity
  8
0
 62
     0
100
AcDbPolyline
 90
        2
 70
     0
 39
0.003
 10
2.460213
 20
0.963295
 40
0.003
 41
0.003
 10
2.462835
 20
0.974567
 40
0.003
 41
0.003
  0
LWPOLYLINE
  5
295
100
AcDbEntity
  8
0
 62
     0
100
AcDbPolyline
 90
        2
 70
     0
 39
0.003
 10
2.462835
 20
0.974567
 40
0.003
 41
0.003
 10
2.468531
 20
0.985346
 40
0.003
 41
0.003
  0
LWPOLYLINE
  5
296
100
AcDbEntity
  8
0
 62
     0
100
AcDbPolyline
 90
        2
 70
     0
 39
0.003
 10
2.468531
 20
0.985346
 40
0.003
 41
0.003
 10
2.477429
 20
0.995535
 40
0.003
 41
0.003
  0
LWPOLYLINE
  5
297
100
AcDbEntity
  8
0
 62
     0
100
AcDbPolyline
 90
        2
 70
     0
 39
0.003
 10
2.477429
 20
0.995535
 40
0.003
 41
0.003
 10
2.489685
 20
1.005043
 40
0.003
 41
0.003
  0
LWPOLYLINE
  5
298
100
AcDbEntity
  8
0
 62
     0
100
AcDbPolyline
 90
        2
 70
     0
 39
0.003
 10
2.489685
 20
1.005043
 40
0.003
 41
0.003
 10
1.836264
 20
0.624693
 40
0.003
 41
0.003
  0
LWPOLYLINE
  5
299
100
AcDbEntity
  8
0
 62
     0
100
AcDbPolyline
 90
        2
 70
     0
 39
0.003
 10
1.836264
 20
0.624693
 40
0.003
 41
0.003
 10
1.824008
 20
0.615185
 40
0.003
 41
0.003
  0
LWPOLYLINE
  5
29A
100
AcDbEntity
  8
0
 62
     0
100
AcDbPolyline
 90
        2
 70
     0
 39
0.003
 10
1.824008
 20
0.615185
 40
0.003
 41
0.003
 10
1.81511
 20
0.604996
 40
0.003
 41
0.003
  0
LWPOLYLINE
  5
29B
100
AcDbEntity
  8
0
 62
     0
100
AcDbPolyline
 90
        2
 70
     0
 39
0.003
 10
1.81511
 20
0.604996
 40
0.003
 41
0.003
 10
1.809413
 20
0.594217
 40
0.003
 41
0.003
  0
LWPOLYLINE
  5
29C
100
AcDbEntity
  8
0
 62
     0
100
AcDbPolyline
 90
        2
 70
     0
 39
0.003
 10
1.809413
 20
0.594217
 40
0.003
 41
0.003
 10
1.806791
 20
0.582945
 40
0.003
 41
0.003
  0
LWPOLYLINE
  5
29D
100
AcDbEntity
  8
0
 62
     0
100
AcDbPolyline
 90
        2
 70
     0
 39
0.003
 10
1.806791
 20
0.582945
 40
0.003
 41
0.003
 10
1.807098
 20
0.571268
 40
0.003
 41
0.003
  0
LWPOLYLINE
  5
29E
100
AcDbEntity
  8
0
 62
     0
100
AcDbPolyline
 90
        2
 70
     0
 39
0.003
 10
1.807098
 20
0.571268
 40
0.003
 41
0.003
 10
1.810201
 20
0.559303
 40
0.003
 41
0.003
  0
LWPOLYLINE
  5
29F
100
AcDbEntity
  8
0
 62
     0
100
AcDbPolyline
 90
        2
 70
     0
 39
0.003
 10
1.810201
 20
0.559303
 40
0.003
 41
0.003
 10
1.815953
 20
0.547134
 40
0.003
 41
0.003
  0
LWPOLYLINE
  5
2A0
100
AcDbEntity
  8
0
 62
     0
100
AcDbPolyline
 90
        2
 70
     0
 39
0.003
 10
1.815953
 20
0.547134
 40
0.003
 41
0.003
 10
1.824228
 20
0.53487
 40
0.003
 41
0.003
  0
LWPOLYLINE
  5
2A1
100
AcDbEntity
  8
0
 62
     0
100
AcDbPolyline
 90
        2
 70
     0
 39
0.003
 10
1.824228
 20
0.53487
 40
0.003
 41
0.003
 10
1.83487
 20
0.522591
 40
0.003
 41
0.003
  0
LWPOLYLINE
  5
2A2
100
AcDbEntity
  8
0
 62
     0
100
AcDbPolyline
 90
        2
 70
     0
 39
0.003
 10
1.83487
 20
0.522591
 40
0.003
 41
0.003
 10
1.847756
 20
0.510417
 40
0.003
 41
0.003
  0
LWPOLYLINE
  5
2A3
100
AcDbEntity
  8
0
 62
     0
100
AcDbPolyline
 90
        2
 70
     0
 39
0.003
 10
1.847756
 20
0.510417
 40
0.003
 41
0.003
 10
1.862732
 20
0.498433
 40
0.003
 41
0.003
  0
LWPOLYLINE
  5
2A4
100
AcDbEntity
  8
0
 62
     0
100
AcDbPolyline
 90
        2
 70
     0
 39
0.003
 10
1.862732
 20
0.498433
 40
0.003
 41
0.003
 10
1.879681
 20
0.486748
 40
0.003
 41
0.003
  0
LWPOLYLINE
  5
2A5
100
AcDbEntity
  8
0
 62
     0
100
AcDbPolyline
 90
        2
 70
     0
 39
0.003
 10
1.879681
 20
0.486748
 40
0.003
 41
0.003
 10
1.898445
 20
0.475441
 40
0.003
 41
0.003
  0
LWPOLYLINE
  5
2A6
100
AcDbEntity
  8
0
 62
     0
100
AcDbPolyline
 90
        2
 70
     0
 39
0.003
 10
1.898445
 20
0.475441
 40
0.003
 41
0.003
 10
1.918894
 20
0.464634
 40
0.003
 41
0.003
  0
LWPOLYLINE
  5
2A7
100
AcDbEntity
  8
0
 62
     0
100
AcDbPolyline
 90
        2
 70
     0
 39
0.003
 10
1.918894
 20
0.464634
 40
0.003
 41
0.003
 10
1.940886
 20
0.454409
 40
0.003
 41
0.003
  0
LWPOLYLINE
  5
2A8
100
AcDbEntity
  8
0
 62
     0
100
AcDbPolyline
 90
        2
 70
     0
 39
0.003
 10
1.940886
 20
0.454409
 40
0.003
 41
0.003
 10
1.964291
 20
0.44487
 40
0.003
 41
0.003
  0
LWPOLYLINE
  5
2A9
100
AcDbEntity
  8
0
 62
     0
100
AcDbPolyline
 90
        2
 70
     0
 39
0.003
 10
1.964291
 20
0.44487
 40
0.003
 41
0.003
 10
1.988949
 20
0.43611
 40
0.003
 41
0.003
  0
LWPOLYLINE
  5
2AA
100
AcDbEntity
  8
0
 62
     0
100
AcDbPolyline
 90
        2
 70
     0
 39
0.003
 10
1.988949
 20
0.43611
 40
0.003
 41
0.003
 10
2.014744
 20
0.428232
 40
0.003
 41
0.003
  0
LWPOLYLINE
  5
2AB
100
AcDbEntity
  8
0
 62
     0
100
AcDbPolyline
 90
        2
 70
     0
 39
0.003
 10
2.014744
 20
0.428232
 40
0.003
 41
0.003
 10
2.041524
 20
0.421335
 40
0.003
 41
0.003
  0
LWPOLYLINE
  5
2AC
100
AcDbEntity
  8
0
 62
     0
100
AcDbPolyline
 90
        2
 70
     0
 39
0.003
 10
2.041524
 20
0.421335
 40
0.003
 41
0.003
 10
2.069161
 20
0.415516
 40
0.003
 41
0.003
  0
LWPOLYLINE
  5
2AD
100
AcDbEntity
  8
0
 62
     0
100
AcDbPolyline
 90
        2
 70
     0
 39
0.003
 10
2.069161
 20
0.415516
 40
0.003
 41
0.003
 10
2.097504
 20
0.410866
 40
0.003
 41
0.003
  0
LWPOLYLINE
  5
2AE
100
AcDbEntity
  8
0
 62
     0
100
AcDbPolyline
 90
        2
 70
     0
 39
0.003
 10
2.097504
 20
0.410866
 40
0.003
 41
0.003
 10
2.126421
 20
0.4075
 40
0.003
 41
0.003
  0
LWPOLYLINE
  5
2AF
100
AcDbEntity
  8
0
 62
     0
100
AcDbPolyline
 90
        2
 70
     0
 39
0.003
 10
2.126421
 20
0.4075
 40
0.003
 41
0.003
 10
2.155772
 20
0.405504
 40
0.003
 41
0.003
  0
LWPOLYLINE
  5
2B0
100
AcDbEntity
  8
0
 62
     0
100
AcDbPolyline
 90
        2
 70
     0
 39
0.003
 10
2.155772
 20
0.405504
 40
0.003
 41
0.003
 10
2.185425
 20
0.40498
 40
0.003
 41
0.003
  0
LWPOLYLINE
  5
2B1
100
AcDbEntity
  8
0
 62
   254
100
AcDbPolyline
 90
        2
 70
     0
 39
0.003
 10
2.071437
 20
0.664075
 40
0.003
 41
0.003
 10
2.724858
 20
1.044425
 40
0.003
 41
0.003
  0
LWPOLYLINE
  5
2B2
100
AcDbEntity
  8
0
 62
   254
100
AcDbPolyline
 90
        2
 70
     0
 39
0.003
 10
2.724858
 20
1.044425
 40
0.003
 41
0.003
 10
2.723276
 20
1.090374
 40
0.003
 41
0.003
  0
LWPOLYLINE
  5
2B3
100
AcDbEntity
  8
0
 62
   254
100
AcDbPolyline
 90
        2
 70
     0
 39
0.003
 10
2.723276
 20
1.090374
 40
0.003
 41
0.003
 10
2.069854
 20
0.710024
 40
0.003
 41
0.003
  0
LWPOLYLINE
  5
2B4
100
AcDbEntity
  8
0
 62
   254
100
AcDbPolyline
 90
        2
 70
     0
 39
0.003
 10
2.069854
 20
0.710024
 40
0.003
 41
0.003
 10
2.071437
 20
0.664075
 40
0.003
 41
0.003
  0
LWPOLYLINE
  5
2B5
100
AcDbEntity
  8
0
 62
   254
100
AcDbPolyline
 90
        2
 70
     0
 39
0.003
 10
2.069854
 20
0.710024
 40
0.003
 41
0.003
 10
2.723276
 20
1.090374
 40
0.003
 41
0.003
  0
LWPOLYLINE
  5
2B6
100
AcDbEntity
  8
0
 62
   254
100
AcDbPolyline
 90
        2
 70
     0
 39
0.003
 10
2.723276
 20
1.090374
 40
0.003
 41
0.003
 10
2.719181
 20
1.135118
 40
0.003
 41
0.003
  0
LWPOLYLINE
  5
2B7
100
AcDbEntity
  8
0
 62
   254
100
AcDbPolyline
 90
        2
 70
     0
 39
0.003
 10
2.719181
 20
1.135118
 40
0.003
 41
0.003
 10
2.06576
 20
0.754768
 40
0.003
 41
0.003
  0
LWPOLYLINE
  5
2B8
100
AcDbEntity
  8
0
 62
   254
100
AcDbPolyline
 90
        2
 70
     0
 39
0.003
 10
2.06576
 20
0.754768
 40
0.003
 41
0.003
 10
2.069854
 20
0.710024
 40
0.003
 41
0.003
  0
LWPOLYLINE
  5
2B9
100
AcDbEntity
  8
0
 62
   254
100
AcDbPolyline
 90
        2
 70
     0
 39
0.003
 10
2.06576
 20
0.754768
 40
0.003
 41
0.003
 10
2.719181
 20
1.135118
 40
0.003
 41
0.003
  0
LWPOLYLINE
  5
2BA
100
AcDbEntity
  8
0
 62
   254
100
AcDbPolyline
 90
        2
 70
     0
 39
0.003
 10
2.719181
 20
1.135118
 40
0.003
 41
0.003
 10
2.71263
 20
1.178661
 40
0.003
 41
0.003
  0
LWPOLYLINE
  5
2BB
100
AcDbEntity
  8
0
 62
   254
100
AcDbPolyline
 90
        2
 70
     0
 39
0.003
 10
2.71263
 20
1.178661
 40
0.003
 41
0.003
 10
2.059209
 20
0.798311
 40
0.003
 41
0.003
  0
LWPOLYLINE
  5
2BC
100
AcDbEntity
  8
0
 62
   254
100
AcDbPolyline
 90
        2
 70
     0
 39
0.003
 10
2.059209
 20
0.798311
 40
0.003
 41
0.003
 10
2.06576
 20
0.754768
 40
0.003
 41
0.003
  0
LWPOLYLINE
  5
2BD
100
AcDbEntity
  8
0
 62
   254
100
AcDbPolyline
 90
        2
 70
     0
 39
0.003
 10
2.059209
 20
0.798311
 40
0.003
 41
0.003
 10
2.71263
 20
1.178661
 40
0.003
 41
0.003
  0
LWPOLYLINE
  5
2BE
100
AcDbEntity
  8
0
 62
   254
100
AcDbPolyline
 90
        2
 70
     0
 39
0.003
 10
2.71263
 20
1.178661
 40
0.003
 41
0.003
 10
2.703701
 20
1.221024
 40
0.003
 41
0.003
  0
LWPOLYLINE
  5
2BF
100
AcDbEntity
  8
0
 62
   254
100
AcDbPolyline
 90
        2
 70
     0
 39
0.003
 10
2.703701
 20
1.221024
 40
0.003
 41
0.003
 10
2.05028
 20
0.840673
 40
0.003
 41
0.003
  0
LWPOLYLINE
  5
2C0
100
AcDbEntity
  8
0
 62
   254
100
AcDbPolyline
 90
        2
 70
     0
 39
0.003
 10
2.05028
 20
0.840673
 40
0.003
 41
0.003
 10
2.059209
 20
0.798311
 40
0.003
 41
0.003
  0
LWPOLYLINE
  5
2C1
100
AcDbEntity
  8
0
 62
   254
100
AcDbPolyline
 90
        2
 70
     0
 39
0.003
 10
2.05028
 20
0.840673
 40
0.003
 41
0.003
 10
2.703701
 20
1.221024
 40
0.003
 41
0.003
  0
LWPOLYLINE
  5
2C2
100
AcDbEntity
  8
0
 62
   254
100
AcDbPolyline
 90
        2
 70
     0
 39
0.003
 10
2.703701
 20
1.221024
 40
0.003
 41
0.003
 10
2.692441
 20
1.262209
 40
0.003
 41
0.003
  0
LWPOLYLINE
  5
2C3
100
AcDbEntity
  8
0
 62
   254
100
AcDbPolyline
 90
        2
 70
     0
 39
0.003
 10
2.692441
 20
1.262209
 40
0.003
 41
0.003
 10
2.03902
 20
0.881858
 40
0.003
 41
0.003
  0
LWPOLYLINE
  5
2C4
100
AcDbEntity
  8
0
 62
   254
100
AcDbPolyline
 90
        2
 70
     0
 39
0.003
 10
2.03902
 20
0.881858
 40
0.003
 41
0.003
 10
2.05028
 20
0.840673
 40
0.003
 41
0.003
  0
LWPOLYLINE
  5
2C5
100
AcDbEntity
  8
0
 62
   254
100
AcDbPolyline
 90
        2
 70
     0
 39
0.003
 10
2.03902
 20
0.881858
 40
0.003
 41
0.003
 10
2.692441
 20
1.262209
 40
0.003
 41
0.003
  0
LWPOLYLINE
  5
2C6
100
AcDbEntity
  8
0
 62
   254
100
AcDbPolyline
 90
        2
 70
     0
 39
0.003
 10
2.692441
 20
1.262209
 40
0.003
 41
0.003
 10
2.678929
 20
1.302236
 40
0.003
 41
0.003
  0
LWPOLYLINE
  5
2C7
100
AcDbEntity
  8
0
 62
   254
100
AcDbPolyline
 90
        2
 70
     0
 39
0.003
 10
2.678929
 20
1.302236
 40
0.003
 41
0.003
 10
2.025508
 20
0.921886
 40
0.003
 41
0.003
  0
LWPOLYLINE
  5
2C8
100
AcDbEntity
  8
0
 62
   254
100
AcDbPolyline
 90
        2
 70
     0
 39
0.003
 10
2.025508
 20
0.921886
 40
0.003
 41
0.003
 10
2.03902
 20
0.881858
 40
0.003
 41
0.003
  0
LWPOLYLINE
  5
2C9
100
AcDbEntity
  8
0
 62
   254
100
AcDbPolyline
 90
        2
 70
     0
 39
0.003
 10
2.025508
 20
0.921886
 40
0.003
 41
0.003
 10
2.678929
 20
1.302236
 40
0.003
 41
0.003
  0
LWPOLYLINE
  5
2CA
100
AcDbEntity
  8
0
 62
   254
100
AcDbPolyline
 90
        2
 70
     0
 39
0.003
 10
2.678929
 20
1.302236
 40
0.003
 41
0.003
 10
2.66322
 20
1.34111
 40
0.003
 41
0.003
  0
LWPOLYLINE
  5
2CB
100
AcDbEntity
  8
0
 62
   254
100
AcDbPolyline
 90
        2
 70
     0
 39
0.003
 10
2.66322
 20
1.34111
 40
0.003
 41
0.003
 10
2.009799
 20
0.96076
 40
0.003
 41
0.003
  0
LWPOLYLINE
  5
2CC
100
AcDbEntity
  8
0
 62
   254
100
AcDbPolyline
 90
        2
 70
     0
 39
0.003
 10
2.009799
 20
0.96076
 40
0.003
 41
0.003
 10
2.025508
 20
0.921886
 40
0.003
 41
0.003
  0
LWPOLYLINE
  5
2CD
100
AcDbEntity
  8
0
 62
   254
100
AcDbPolyline
 90
        2
 70
     0
 39
0.003
 10
2.009799
 20
0.96076
 40
0.003
 41
0.003
 10
2.66322
 20
1.34111
 40
0.003
 41
0.003
  0
LWPOLYLINE
  5
2CE
100
AcDbEntity
  8
0
 62
   254
100
AcDbPolyline
 90
        2
 70
     0
 39
0.003
 10
2.66322
 20
1.34111
 40
0.003
 41
0.003
 10
2.64539
 20
1.378858
 40
0.003
 41
0.003
  0
LWPOLYLINE
  5
2CF
100
AcDbEntity
  8
0
 62
   254
100
AcDbPolyline
 90
        2
 70
     0
 39
0.003
 10
2.64539
 20
1.378858
 40
0.003
 41
0.003
 10
1.991969
 20
0.998508
 40
0.003
 41
0.003
  0
LWPOLYLINE
  5
2D0
100
AcDbEntity
  8
0
 62
   254
100
AcDbPolyline
 90
        2
 70
     0
 39
0.003
 10
1.991969
 20
0.998508
 40
0.003
 41
0.003
 10
2.009799
 20
0.96076
 40
0.003
 41
0.003
  0
LWPOLYLINE
  5
2D1
100
AcDbEntity
  8
0
 62
   254
100
AcDbPolyline
 90
        2
 70
     0
 39
0.003
 10
1.991969
 20
0.998508
 40
0.003
 41
0.003
 10
2.64539
 20
1.378858
 40
0.003
 41
0.003
  0
LWPOLYLINE
  5
2D2
100
AcDbEntity
  8
0
 62
   254
100
AcDbPolyline
 90
        2
 70
     0
 39
0.003
 10
2.64539
 20
1.378858
 40
0.003
 41
0.003
 10
2.625488
 20
1.415472
 40
0.003
 41
0.003
  0
LWPOLYLINE
  5
2D3
100
AcDbEntity
  8
0
 62
   254
100
AcDbPolyline
 90
        2
 70
     0
 39
0.003
 10
2.625488
 20
1.415472
 40
0.003
 41
0.003
 10
1.972067
 20
1.035122
 40
0.003
 41
0.003
  0
LWPOLYLINE
  5
2D4
100
AcDbEntity
  8
0
 62
   254
100
AcDbPolyline
 90
        2
 70
     0
 39
0.003
 10
1.972067
 20
1.035122
 40
0.003
 41
0.003
 10
1.991969
 20
0.998508
 40
0.003
 41
0.003
  0
LWPOLYLINE
  5
2D5
100
AcDbEntity
  8
0
 62
     9
100
AcDbPolyline
 90
        2
 70
     0
 39
0.003
 10
1.972067
 20
1.035122
 40
0.003
 41
0.003
 10
2.625488
 20
1.415472
 40
0.003
 41
0.003
  0
LWPOLYLINE
  5
2D6
100
AcDbEntity
  8
0
 62
     9
100
AcDbPolyline
 90
        2
 70
     0
 39
0.003
 10
2.625488
 20
1.415472
 40
0.003
 41
0.003
 10
2.603591
 20
1.45098
 40
0.003
 41
0.003
  0
LWPOLYLINE
  5
2D7
100
AcDbEntity
  8
0
 62
     9
100
AcDbPolyline
 90
        2
 70
     0
 39
0.003
 10
2.603591
 20
1.45098
 40
0.003
 41
0.003
 10
1.950169
 20
1.07063
 40
0.003
 41
0.003
  0
LWPOLYLINE
  5
2D8
100
AcDbEntity
  8
0
 62
     9
100
AcDbPolyline
 90
        2
 70
     0
 39
0.003
 10
1.950169
 20
1.07063
 40
0.003
 41
0.003
 10
1.972067
 20
1.035122
 40
0.003
 41
0.003
  0
LWPOLYLINE
  5
2D9
100
AcDbEntity
  8
0
 62
     9
100
AcDbPolyline
 90
        2
 70
     0
 39
0.003
 10
1.950169
 20
1.07063
 40
0.003
 41
0.003
 10
2.603591
 20
1.45098
 40
0.003
 41
0.003
  0
LWPOLYLINE
  5
2DA
100
AcDbEntity
  8
0
 62
     9
100
AcDbPolyline
 90
        2
 70
     0
 39
0.003
 10
2.603591
 20
1.45098
 40
0.003
 41
0.003
 10
2.57976
 20
1.48539
 40
0.003
 41
0.003
  0
LWPOLYLINE
  5
2DB
100
AcDbEntity
  8
0
 62
     9
100
AcDbPolyline
 90
        2
 70
     0
 39
0.003
 10
2.57976
 20
1.48539
 40
0.003
 41
0.003
 10
1.926339
 20
1.105039
 40
0.003
 41
0.003
  0
LWPOLYLINE
  5
2DC
100
AcDbEntity
  8
0
 62
     9
100
AcDbPolyline
 90
        2
 70
     0
 39
0.003
 10
1.926339
 20
1.105039
 40
0.003
 41
0.003
 10
1.950169
 20
1.07063
 40
0.003
 41
0.003
  0
LWPOLYLINE
  5
2DD
100
AcDbEntity
  8
0
 62
     9
100
AcDbPolyline
 90
        2
 70
     0
 39
0.003
 10
1.926339
 20
1.105039
 40
0.003
 41
0.003
 10
2.57976
 20
1.48539
 40
0.003
 41
0.003
  0
LWPOLYLINE
  5
2DE
100
AcDbEntity
  8
0
 62
     9
100
AcDbPolyline
 90
        2
 70
     0
 39
0.003
 10
2.57976
 20
1.48539
 40
0.003
 41
0.003
 10
2.554067
 20
1.518713
 40
0.003
 41
0.003
  0
LWPOLYLINE
  5
2DF
100
AcDbEntity
  8
0
 62
     9
100
AcDbPolyline
 90
        2
 70
     0
 39
0.003
 10
2.554067
 20
1.518713
 40
0.003
 41
0.003
 10
1.900646
 20
1.138362
 40
0.003
 41
0.003
  0
LWPOLYLINE
  5
2E0
100
AcDbEntity
  8
0
 62
     9
100
AcDbPolyline
 90
        2
 70
     0
 39
0.003
 10
1.900646
 20
1.138362
 40
0.003
 41
0.003
 10
1.926339
 20
1.105039
 40
0.003
 41
0.003
  0
LWPOLYLINE
  5
2E1
100
AcDbEntity
  8
0
 62
     9
100
AcDbPolyline
 90
        2
 70
     0
 39
0.003
 10
1.900646
 20
1.138362
 40
0.003
 41
0.003
 10
2.554067
 20
1.518713
 40
0.003
 41
0.003
  0
LWPOLYLINE
  5
2E2
100
AcDbEntity
  8
0
 62
     9
100
AcDbPolyline
 90
        2
 70
     0
 39
0.003
 10
2.554067
 20
1.518713
 40
0.003
 41
0.003
 10
2.526563
 20
1.550957
 40
0.003
 41
0.003
  0
LWPOLYLINE
  5
2E3
100
AcDbEntity
  8
0
 62
     9
100
AcDbPolyline
 90
        2
 70
     0
 39
0.003
 10
2.526563
 20
1.550957
 40
0.003
 41
0.003
 10
1.873142
 20
1.170606
 40
0.003
 41
0.003
  0
LWPOLYLINE
  5
2E4
100
AcDbEntity
  8
0
 62
     9
100
AcDbPolyline
 90
        2
 70
     0
 39
0.003
 10
1.873142
 20
1.170606
 40
0.003
 41
0.003
 10
1.900646
 20
1.138362
 40
0.003
 41
0.003
  0
LWPOLYLINE
  5
2E5
100
AcDbEntity
  8
0
 62
     9
100
AcDbPolyline
 90
        2
 70
     0
 39
0.003
 10
1.873142
 20
1.170606
 40
0.003
 41
0.003
 10
2.526563
 20
1.550957
 40
0.003
 41
0.003
  0
LWPOLYLINE
  5
2E6
100
AcDbEntity
  8
0
 62
     9
100
AcDbPolyline
 90
        2
 70
     0
 39
0.003
 10
2.526563
 20
1.550957
 40
0.003
 41
0.003
 10
2.497331
 20
1.58215
 40
0.003
 41
0.003
  0
LWPOLYLINE
  5
2E7
100
AcDbEntity
  8
0
 62
     9
100
AcDbPolyline
 90
        2
 70
     0
 39
0.003
 10
2.497331
 20
1.58215
 40
0.003
 41
0.003
 10
1.843909
 20
1.201799
 40
0.003
 41
0.003
  0
LWPOLYLINE
  5
2E8
100
AcDbEntity
  8
0
 62
     9
100
AcDbPolyline
 90
        2
 70
     0
 39
0.003
 10
1.843909
 20
1.201799
 40
0.003
 41
0.003
 10
1.873142
 20
1.170606
 40
0.003
 41
0.003
  0
LWPOLYLINE
  5
2E9
100
AcDbEntity
  8
0
 62
     9
100
AcDbPolyline
 90
        2
 70
     0
 39
0.003
 10
1.843909
 20
1.201799
 40
0.003
 41
0.003
 10
2.497331
 20
1.58215
 40
0.003
 41
0.003
  0
LWPOLYLINE
  5
2EA
100
AcDbEntity
  8
0
 62
     9
100
AcDbPolyline
 90
        2
 70
     0
 39
0.003
 10
2.497331
 20
1.58215
 40
0.003
 41
0.003
 10
2.466421
 20
1.612287
 40
0.003
 41
0.003
  0
LWPOLYLINE
  5
2EB
100
AcDbEntity
  8
0
 62
     9
100
AcDbPolyline
 90
        2
 70
     0
 39
0.003
 10
2.466421
 20
1.612287
 40
0.003
 41
0.003
 10
1.813
 20
1.231937
 40
0.003
 41
0.003
  0
LWPOLYLINE
  5
2EC
100
AcDbEntity
  8
0
 62
     9
100
AcDbPolyline
 90
        2
 70
     0
 39
0.003
 10
1.813
 20
1.231937
 40
0.003
 41
0.003
 10
1.843909
 20
1.201799
 40
0.003
 41
0.003
  0
LWPOLYLINE
  5
2ED
100
AcDbEntity
  8
0
 62
     9
100
AcDbPolyline
 90
        2
 70
     0
 39
0.003
 10
1.813
 20
1.231937
 40
0.003
 41
0.003
 10
2.466421
 20
1.612287
 40
0.003
 41
0.003
  0
LWPOLYLINE
  5
2EE
100
AcDbEntity
  8
0
 62
     9
100
AcDbPolyline
 90
        2
 70
     0
 39
0.003
 10
2.466421
 20
1.612287
 40
0.003
 41
0.003
 10
2.433906
 20
1.641394
 40
0.003
 41
0.003
  0
LWPOLYLINE
  5
2EF
100
AcDbEntity
  8
0
 62
     9
100
AcDbPolyline
 90
        2
 70
     0
 39
0.003
 10
2.433906
 20
1.641394
 40
0.003
 41
0.003
 10
1.780484
 20
1.261043
 40
0.003
 41
0.003
  0
LWPOLYLINE
  5
2F0
100
AcDbEntity
  8
0
 62
     9
100
AcDbPolyline
 90
        2
 70
     0
 39
0.003
 10
1.780484
 20
1.261043
 40
0.003
 41
0.003
 10
1.813
 20
1.231937
 40
0.003
 41
0.003
  0
LWPOLYLINE
  5
2F1
100
AcDbEntity
  8
0
 62
     9
100
AcDbPolyline
 90
        2
 70
     0
 39
0.003
 10
1.780484
 20
1.261043
 40
0.003
 41
0.003
 10
2.433906
 20
1.641394
 40
0.003
 41
0.003
  0
LWPOLYLINE
  5
2F2
100
AcDbEntity
  8
0
 62
     9
100
AcDbPolyline
 90
        2
 70
     0
 39
0.003
 10
2.433906
 20
1.641394
 40
0.003
 41
0.003
 10
2.399835
 20
1.669469
 40
0.003
 41
0.003
  0
LWPOLYLINE
  5
2F3
100
AcDbEntity
  8
0
 62
     9
100
AcDbPolyline
 90
        2
 70
     0
 39
0.003
 10
2.399835
 20
1.669469
 40
0.003
 41
0.003
 10
1.746413
 20
1.289118
 40
0.003
 41
0.003
  0
LWPOLYLINE
  5
2F4
100
AcDbEntity
  8
0
 62
     9
100
AcDbPolyline
 90
        2
 70
     0
 39
0.003
 10
1.746413
 20
1.289118
 40
0.003
 41
0.003
 10
1.780484
 20
1.261043
 40
0.003
 41
0.003
  0
LWPOLYLINE
  5
2F5
100
AcDbEntity
  8
0
 62
     9
100
AcDbPolyline
 90
        2
 70
     0
 39
0.003
 10
1.746413
 20
1.289118
 40
0.003
 41
0.003
 10
2.399835
 20
1.669469
 40
0.003
 41
0.003
  0
LWPOLYLINE
  5
2F6
100
AcDbEntity
  8
0
 62
     9
100
AcDbPolyline
 90
        2
 70
     0
 39
0.003
 10
2.399835
 20
1.669469
 40
0.003
 41
0.003
 10
2.364295
 20
1.696535
 40
0.003
 41
0.003
  0
LWPOLYLINE
  5
2F7
100
AcDbEntity
  8
0
 62
     9
100
AcDbPolyline
 90
        2
 70
     0
 39
0.003
 10
2.364295
 20
1.696535
 40
0.003
 41
0.003
 10
1.710874
 20
1.316185
 40
0.003
 41
0.003
  0
LWPOLYLINE
  5
2F8
100
AcDbEntity
  8
0
 62
     9
100
AcDbPolyline
 90
        2
 70
     0
 39
0.003
 10
1.710874
 20
1.316185
 40
0.003
 41
0.003
 10
1.746413
 20
1.289118
 40
0.003
 41
0.003
  0
LWPOLYLINE
  5
2F9
100
AcDbEntity
  8
0
 62
     9
100
AcDbPolyline
 90
        2
 70
     0
 39
0.003
 10
1.710874
 20
1.316185
 40
0.003
 41
0.003
 10
2.364295
 20
1.696535
 40
0.003
 41
0.003
  0
LWPOLYLINE
  5
2FA
100
AcDbEntity
  8
0
 62
     9
100
AcDbPolyline
 90
        2
 70
     0
 39
0.003
 10
2.364295
 20
1.696535
 40
0.003
 41
0.003
 10
2.327339
 20
1.722602
 40
0.003
 41
0.003
  0
LWPOLYLINE
  5
2FB
100
AcDbEntity
  8
0
 62
     9
100
AcDbPolyline
 90
        2
 70
     0
 39
0.003
 10
2.327339
 20
1.722602
 40
0.003
 41
0.003
 10
1.673917
 20
1.342252
 40
0.003
 41
0.003
  0
LWPOLYLINE
  5
2FC
100
AcDbEntity
  8
0
 62
     9
100
AcDbPolyline
 90
        2
 70
     0
 39
0.003
 10
1.673917
 20
1.342252
 40
0.003
 41
0.003
 10
1.710874
 20
1.316185
 40
0.003
 41
0.003
  0
LWPOLYLINE
  5
2FD
100
AcDbEntity
  8
0
 62
     9
100
AcDbPolyline
 90
        2
 70
     0
 39
0.003
 10
1.673917
 20
1.342252
 40
0.003
 41
0.003
 10
2.327339
 20
1.722602
 40
0.003
 41
0.003
  0
LWPOLYLINE
  5
2FE
100
AcDbEntity
  8
0
 62
     9
100
AcDbPolyline
 90
        2
 70
     0
 39
0.003
 10
2.327339
 20
1.722602
 40
0.003
 41
0.003
 10
2.289039
 20
1.747685
 40
0.003
 41
0.003
  0
LWPOLYLINE
  5
2FF
100
AcDbEntity
  8
0
 62
     9
100
AcDbPolyline
 90
        2
 70
     0
 39
0.003
 10
2.289039
 20
1.747685
 40
0.003
 41
0.003
 10
1.635618
 20
1.367335
 40
0.003
 41
0.003
  0
LWPOLYLINE
  5
300
100
AcDbEntity
  8
0
 62
     9
100
AcDbPolyline
 90
        2
 70
     0
 39
0.003
 10
1.635618
 20
1.367335
 40
0.003
 41
0.003
 10
1.673917
 20
1.342252
 40
0.003
 41
0.003
  0
LWPOLYLINE
  5
301
100
AcDbEntity
  8
0
 62
     9
100
AcDbPolyline
 90
        2
 70
     0
 39
0.003
 10
1.635618
 20
1.367335
 40
0.003
 41
0.003
 10
2.289039
 20
1.747685
 40
0.003
 41
0.003
  0
LWPOLYLINE
  5
302
100
AcDbEntity
  8
0
 62
     9
100
AcDbPolyline
 90
        2
 70
     0
 39
0.003
 10
2.289039
 20
1.747685
 40
0.003
 41
0.003
 10
2.249449
 20
1.771787
 40
0.003
 41
0.003
  0
LWPOLYLINE
  5
303
100
AcDbEntity
  8
0
 62
     9
100
AcDbPolyline
 90
        2
 70
     0
 39
0.003
 10
2.249449
 20
1.771787
 40
0.003
 41
0.003
 10
1.596028
 20
1.391437
 40
0.003
 41
0.003
  0
LWPOLYLINE
  5
304
100
AcDbEntity
  8
0
 62
     9
100
AcDbPolyline
 90
        2
 70
     0
 39
0.003
 10
1.596028
 20
1.391437
 40
0.003
 41
0.003
 10
1.635618
 20
1.367335
 40
0.003
 41
0.003
  0
LWPOLYLINE
  5
305
100
AcDbEntity
  8
0
 62
     9
100
AcDbPolyline
 90
        2
 70
     0
 39
0.003
 10
1.596028
 20
1.391437
 40
0.003
 41
0.003
 10
2.249449
 20
1.771787
 40
0.003
 41
0.003
  0
LWPOLYLINE
  5
306
100
AcDbEntity
  8
0
 62
     9
100
AcDbPolyline
 90
        2
 70
     0
 39
0.003
 10
2.249449
 20
1.771787
 40
0.003
 41
0.003
 10
2.208642
 20
1.794933
 40
0.003
 41
0.003
  0
LWPOLYLINE
  5
307
100
AcDbEntity
  8
0
 62
     9
100
AcDbPolyline
 90
        2
 70
     0
 39
0.003
 10
2.208642
 20
1.794933
 40
0.003
 41
0.003
 10
1.55522
 20
1.414583
 40
0.003
 41
0.003
  0
LWPOLYLINE
  5
308
100
AcDbEntity
  8
0
 62
     9
100
AcDbPolyline
 90
        2
 70
     0
 39
0.003
 10
1.55522
 20
1.414583
 40
0.003
 41
0.003
 10
1.596028
 20
1.391437
 40
0.003
 41
0.003
  0
LWPOLYLINE
  5
309
100
AcDbEntity
  8
0
 62
     9
100
AcDbPolyline
 90
        2
 70
     0
 39
0.003
 10
1.55522
 20
1.414583
 40
0.003
 41
0.003
 10
2.208642
 20
1.794933
 40
0.003
 41
0.003
  0
LWPOLYLINE
  5
30A
100
AcDbEntity
  8
0
 62
     9
100
AcDbPolyline
 90
        2
 70
     0
 39
0.003
 10
2.208642
 20
1.794933
 40
0.003
 41
0.003
 10
2.166681
 20
1.81713
 40
0.003
 41
0.003
  0
LWPOLYLINE
  5
30B
100
AcDbEntity
  8
0
 62
     9
100
AcDbPolyline
 90
        2
 70
     0
 39
0.003
 10
2.166681
 20
1.81713
 40
0.003
 41
0.003
 10
1.51326
 20
1.43678
 40
0.003
 41
0.003
  0
LWPOLYLINE
  5
30C
100
AcDbEntity
  8
0
 62
     9
100
AcDbPolyline
 90
        2
 70
     0
 39
0.003
 10
1.51326
 20
1.43678
 40
0.003
 41
0.003
 10
1.55522
 20
1.414583
 40
0.003
 41
0.003
  0
LWPOLYLINE
  5
30D
100
AcDbEntity
  8
0
 62
     9
100
AcDbPolyline
 90
        2
 70
     0
 39
0.003
 10
1.51326
 20
1.43678
 40
0.003
 41
0.003
 10
2.166681
 20
1.81713
 40
0.003
 41
0.003
  0
LWPOLYLINE
  5
30E
100
AcDbEntity
  8
0
 62
     9
100
AcDbPolyline
 90
        2
 70
     0
 39
0.003
 10
2.166681
 20
1.81713
 40
0.003
 41
0.003
 10
2.123638
 20
1.838394
 40
0.003
 41
0.003
  0
LWPOLYLINE
  5
30F
100
AcDbEntity
  8
0
 62
     9
100
AcDbPolyline
 90
        2
 70
     0
 39
0.003
 10
2.123638
 20
1.838394
 40
0.003
 41
0.003
 10
1.470217
 20
1.458043
 40
0.003
 41
0.003
  0
LWPOLYLINE
  5
310
100
AcDbEntity
  8
0
 62
     9
100
AcDbPolyline
 90
        2
 70
     0
 39
0.003
 10
1.470217
 20
1.458043
 40
0.003
 41
0.003
 10
1.51326
 20
1.43678
 40
0.003
 41
0.003
  0
LWPOLYLINE
  5
311
100
AcDbEntity
  8
0
 62
     9
100
AcDbPolyline
 90
        2
 70
     0
 39
0.003
 10
1.470217
 20
1.458043
 40
0.003
 41
0.003
 10
2.123638
 20
1.838394
 40
0.003
 41
0.003
  0
LWPOLYLINE
  5
312
100
AcDbEntity
  8
0
 62
     9
100
AcDbPolyline
 90
        2
 70
     0
 39
0.003
 10
2.123638
 20
1.838394
 40
0.003
 41
0.003
 10
2.079563
 20
1.858724
 40
0.003
 41
0.003
  0
LWPOLYLINE
  5
313
100
AcDbEntity
  8
0
 62
     9
100
AcDbPolyline
 90
        2
 70
     0
 39
0.003
 10
2.079563
 20
1.858724
 40
0.003
 41
0.003
 10
1.426142
 20
1.478374
 40
0.003
 41
0.003
  0
LWPOLYLINE
  5
314
100
AcDbEntity
  8
0
 62
     9
100
AcDbPolyline
 90
        2
 70
     0
 39
0.003
 10
1.426142
 20
1.478374
 40
0.003
 41
0.003
 10
1.470217
 20
1.458043
 40
0.003
 41
0.003
  0
LWPOLYLINE
  5
315
100
AcDbEntity
  8
0
 62
     9
100
AcDbPolyline
 90
        2
 70
     0
 39
0.003
 10
1.426142
 20
1.478374
 40
0.003
 41
0.003
 10
2.079563
 20
1.858724
 40
0.003
 41
0.003
  0
LWPOLYLINE
  5
316
100
AcDbEntity
  8
0
 62
     9
100
AcDbPolyline
 90
        2
 70
     0
 39
0.003
 10
2.079563
 20
1.858724
 40
0.003
 41
0.003
 10
2.034531
 20
1.87815
 40
0.003
 41
0.003
  0
LWPOLYLINE
  5
317
100
AcDbEntity
  8
0
 62
     9
100
AcDbPolyline
 90
        2
 70
     0
 39
0.003
 10
2.034531
 20
1.87815
 40
0.003
 41
0.003
 10
1.38111
 20
1.497799
 40
0.003
 41
0.003
  0
LWPOLYLINE
  5
318
100
AcDbEntity
  8
0
 62
     9
100
AcDbPolyline
 90
        2
 70
     0
 39
0.003
 10
1.38111
 20
1.497799
 40
0.003
 41
0.003
 10
1.426142
 20
1.478374
 40
0.003
 41
0.003
  0
LWPOLYLINE
  5
319
100
AcDbEntity
  8
0
 62
     9
100
AcDbPolyline
 90
        2
 70
     0
 39
0.003
 10
1.38111
 20
1.497799
 40
0.003
 41
0.003
 10
2.034531
 20
1.87815
 40
0.003
 41
0.003
  0
LWPOLYLINE
  5
31A
100
AcDbEntity
  8
0
 62
     9
100
AcDbPolyline
 90
        2
 70
     0
 39
0.003
 10
2.034531
 20
1.87815
 40
0.003
 41
0.003
 10
1.988602
 20
1.896673
 40
0.003
 41
0.003
  0
LWPOLYLINE
  5
31B
100
AcDbEntity
  8
0
 62
     9
100
AcDbPolyline
 90
        2
 70
     0
 39
0.003
 10
1.988602
 20
1.896673
 40
0.003
 41
0.003
 10
1.335181
 20
1.516323
 40
0.003
 41
0.003
  0
LWPOLYLINE
  5
31C
100
AcDbEntity
  8
0
 62
     9
100
AcDbPolyline
 90
        2
 70
     0
 39
0.003
 10
1.335181
 20
1.516323
 40
0.003
 41
0.003
 10
1.38111
 20
1.497799
 40
0.003
 41
0.003
  0
LWPOLYLINE
  5
31D
100
AcDbEntity
  8
0
 62
     9
100
AcDbPolyline
 90
        2
 70
     0
 39
0.003
 10
1.335181
 20
1.516323
 40
0.003
 41
0.003
 10
1.988602
 20
1.896673
 40
0.003
 41
0.003
  0
LWPOLYLINE
  5
31E
100
AcDbEntity
  8
0
 62
     9
100
AcDbPolyline
 90
        2
 70
     0
 39
0.003
 10
1.988602
 20
1.896673
 40
0.003
 41
0.003
 10
1.941854
 20
1.914311
 40
0.003
 41
0.003
  0
LWPOLYLINE
  5
31F
100
AcDbEntity
  8
0
 62
     9
100
AcDbPolyline
 90
        2
 70
     0
 39
0.003
 10
1.941854
 20
1.914311
 40
0.003
 41
0.003
 10
1.288433
 20
1.533961
 40
0.003
 41
0.003
  0
LWPOLYLINE
  5
320
100
AcDbEntity
  8
0
 62
     9
100
AcDbPolyline
 90
        2
 70
     0
 39
0.003
 10
1.288433
 20
1.533961
 40
0.003
 41
0.003
 10
1.335181
 20
1.516323
 40
0.003
 41
0.003
  0
LWPOLYLINE
  5
321
100
AcDbEntity
  8
0
 62
     9
100
AcDbPolyline
 90
        2
 70
     0
 39
0.003
 10
1.288433
 20
1.533961
 40
0.003
 41
0.003
 10
1.941854
 20
1.914311
 40
0.003
 41
0.003
  0
LWPOLYLINE
  5
322
100
AcDbEntity
  8
0
 62
     9
100
AcDbPolyline
 90
        2
 70
     0
 39
0.003
 10
1.941854
 20
1.914311
 40
0.003
 41
0.003
 10
1.894331
 20
1.931071
 40
0.003
 41
0.003
  0
LWPOLYLINE
  5
323
100
AcDbEntity
  8
0
 62
     9
100
AcDbPolyline
 90
        2
 70
     0
 39
0.003
 10
1.894331
 20
1.931071
 40
0.003
 41
0.003
 10
1.240909
 20
1.55072
 40
0.003
 41
0.003
  0
LWPOLYLINE
  5
324
100
AcDbEntity
  8
0
 62
     9
100
AcDbPolyline
 90
        2
 70
     0
 39
0.003
 10
1.240909
 20
1.55072
 40
0.003
 41
0.003
 10
1.288433
 20
1.533961
 40
0.003
 41
0.003
  0
LWPOLYLINE
  5
325
100
AcDbEntity
  8
0
 62
     9
100
AcDbPolyline
 90
        2
 70
     0
 39
0.003
 10
1.240909
 20
1.55072
 40
0.003
 41
0.003
 10
1.894331
 20
1.931071
 40
0.003
 41
0.003
  0
LWPOLYLINE
  5
326
100
AcDbEntity
  8
0
 62
     9
100
AcDbPolyline
 90
        2
 70
     0
 39
0.003
 10
1.894331
 20
1.931071
 40
0.003
 41
0.003
 10
1.846114
 20
1.946972
 40
0.003
 41
0.003
  0
LWPOLYLINE
  5
327
100
AcDbEntity
  8
0
 62
     9
100
AcDbPolyline
 90
        2
 70
     0
 39
0.003
 10
1.846114
 20
1.946972
 40
0.003
 41
0.003
 10
1.192693
 20
1.566622
 40
0.003
 41
0.003
  0
LWPOLYLINE
  5
328
100
AcDbEntity
  8
0
 62
     9
100
AcDbPolyline
 90
        2
 70
     0
 39
0.003
 10
1.192693
 20
1.566622
 40
0.003
 41
0.003
 10
1.240909
 20
1.55072
 40
0.003
 41
0.003
  0
LWPOLYLINE
  5
329
100
AcDbEntity
  8
0
 62
     9
100
AcDbPolyline
 90
        2
 70
     0
 39
0.003
 10
1.192693
 20
1.566622
 40
0.003
 41
0.003
 10
1.846114
 20
1.946972
 40
0.003
 41
0.003
  0
LWPOLYLINE
  5
32A
100
AcDbEntity
  8
0
 62
     9
100
AcDbPolyline
 90
        2
 70
     0
 39
0.003
 10
1.846114
 20
1.946972
 40
0.003
 41
0.003
 10
1.797264
 20
1.962024
 40
0.003
 41
0.003
  0
LWPOLYLINE
  5
32B
100
AcDbEntity
  8
0
 62
     9
100
AcDbPolyline
 90
        2
 70
     0
 39
0.003
 10
1.797264
 20
1.962024
 40
0.003
 41
0.003
 10
1.143843
 20
1.581673
 40
0.003
 41
0.003
  0
LWPOLYLINE
  5
32C
100
AcDbEntity
  8
0
 62
     9
100
AcDbPolyline
 90
        2
 70
     0
 39
0.003
 10
1.143843
 20
1.581673
 40
0.003
 41
0.003
 10
1.192693
 20
1.566622
 40
0.003
 41
0.003
  0
LWPOLYLINE
  5
32D
100
AcDbEntity
  8
0
 62
     9
100
AcDbPolyline
 90
        2
 70
     0
 39
0.003
 10
1.143843
 20
1.581673
 40
0.003
 41
0.003
 10
1.797264
 20
1.962024
 40
0.003
 41
0.003
  0
LWPOLYLINE
  5
32E
100
AcDbEntity
  8
0
 62
     9
100
AcDbPolyline
 90
        2
 70
     0
 39
0.003
 10
1.797264
 20
1.962024
 40
0.003
 41
0.003
 10
1.747846
 20
1.976244
 40
0.003
 41
0.003
  0
LWPOLYLINE
  5
32F
100
AcDbEntity
  8
0
 62
     9
100
AcDbPolyline
 90
        2
 70
     0
 39
0.003
 10
1.747846
 20
1.976244
 40
0.003
 41
0.003
 10
1.094425
 20
1.595894
 40
0.003
 41
0.003
  0
LWPOLYLINE
  5
330
100
AcDbEntity
  8
0
 62
     9
100
AcDbPolyline
 90
        2
 70
     0
 39
0.003
 10
1.094425
 20
1.595894
 40
0.003
 41
0.003
 10
1.143843
 20
1.581673
 40
0.003
 41
0.003
  0
LWPOLYLINE
  5
331
100
AcDbEntity
  8
0
 62
     0
100
AcDbPolyline
 90
        2
 70
     0
 39
0.003
 10
2.071437
 20
0.664075
 40
0.003
 41
0.003
 10
2.724858
 20
1.044425
 40
0.003
 41
0.003
  0
LWPOLYLINE
  5
332
100
AcDbEntity
  8
0
 62
     0
100
AcDbPolyline
 90
        2
 70
     0
 39
0.003
 10
2.724858
 20
1.044425
 40
0.003
 41
0.003
 10
2.723276
 20
1.090374
 40
0.003
 41
0.003
  0
LWPOLYLINE
  5
333
100
AcDbEntity
  8
0
 62
     0
100
AcDbPolyline
 90
        2
 70
     0
 39
0.003
 10
2.723276
 20
1.090374
 40
0.003
 41
0.003
 10
2.719181
 20
1.135118
 40
0.003
 41
0.003
  0
LWPOLYLINE
  5
334
100
AcDbEntity
  8
0
 62
     0
100
AcDbPolyline
 90
        2
 70
     0
 39
0.003
 10
2.719181
 20
1.135118
 40
0.003
 41
0.003
 10
2.71263
 20
1.178661
 40
0.003
 41
0.003
  0
LWPOLYLINE
  5
335
100
AcDbEntity
  8
0
 62
     0
100
AcDbPolyline
 90
        2
 70
     0
 39
0.003
 10
2.71263
 20
1.178661
 40
0.003
 41
0.003
 10
2.703701
 20
1.221024
 40
0.003
 41
0.003
  0
LWPOLYLINE
  5
336
100
AcDbEntity
  8
0
 62
     0
100
AcDbPolyline
 90
        2
 70
     0
 39
0.003
 10
2.703701
 20
1.221024
 40
0.003
 41
0.003
 10
2.692441
 20
1.262209
 40
0.003
 41
0.003
  0
LWPOLYLINE
  5
337
100
AcDbEntity
  8
0
 62
     0
100
AcDbPolyline
 90
        2
 70
     0
 39
0.003
 10
2.692441
 20
1.262209
 40
0.003
 41
0.003
 10
2.678929
 20
1.302236
 40
0.003
 41
0.003
  0
LWPOLYLINE
  5
338
100
AcDbEntity
  8
0
 62
     0
100
AcDbPolyline
 90
        2
 70
     0
 39
0.003
 10
2.678929
 20
1.302236
 40
0.003
 41
0.003
 10
2.66322
 20
1.34111
 40
0.003
 41
0.003
  0
LWPOLYLINE
  5
339
100
AcDbEntity
  8
0
 62
     0
100
AcDbPolyline
 90
        2
 70
     0
 39
0.003
 10
2.66322
 20
1.34111
 40
0.003
 41
0.003
 10
2.64539
 20
1.378858
 40
0.003
 41
0.003
  0
LWPOLYLINE
  5
33A
100
AcDbEntity
  8
0
 62
     0
100
AcDbPolyline
 90
        2
 70
     0
 39
0.003
 10
2.64539
 20
1.378858
 40
0.003
 41
0.003
 10
2.625488
 20
1.415472
 40
0.003
 41
0.003
  0
LWPOLYLINE
  5
33B
100
AcDbEntity
  8
0
 62
     0
100
AcDbPolyline
 90
        2
 70
     0
 39
0.003
 10
2.625488
 20
1.415472
 40
0.003
 41
0.003
 10
2.603591
 20
1.45098
 40
0.003
 41
0.003
  0
LWPOLYLINE
  5
33C
100
AcDbEntity
  8
0
 62
     0
100
AcDbPolyline
 90
        2
 70
     0
 39
0.003
 10
2.603591
 20
1.45098
 40
0.003
 41
0.003
 10
2.57976
 20
1.48539
 40
0.003
 41
0.003
  0
LWPOLYLINE
  5
33D
100
AcDbEntity
  8
0
 62
     0
100
AcDbPolyline
 90
        2
 70
     0
 39
0.003
 10
2.57976
 20
1.48539
 40
0.003
 41
0.003
 10
2.554067
 20
1.518713
 40
0.003
 41
0.003
  0
LWPOLYLINE
  5
33E
100
AcDbEntity
  8
0
 62
     0
100
AcDbPolyline
 90
        2
 70
     0
 39
0.003
 10
2.554067
 20
1.518713
 40
0.003
 41
0.003
 10
2.526563
 20
1.550957
 40
0.003
 41
0.003
  0
LWPOLYLINE
  5
33F
100
AcDbEntity
  8
0
 62
     0
100
AcDbPolyline
 90
        2
 70
     0
 39
0.003
 10
2.526563
 20
1.550957
 40
0.003
 41
0.003
 10
2.497331
 20
1.58215
 40
0.003
 41
0.003
  0
LWPOLYLINE
  5
340
100
AcDbEntity
  8
0
 62
     0
100
AcDbPolyline
 90
        2
 70
     0
 39
0.003
 10
2.497331
 20
1.58215
 40
0.003
 41
0.003
 10
2.466421
 20
1.612287
 40
0.003
 41
0.003
  0
LWPOLYLINE
  5
341
100
AcDbEntity
  8
0
 62
     0
100
AcDbPolyline
 90
        2
 70
     0
 39
0.003
 10
2.466421
 20
1.612287
 40
0.003
 41
0.003
 10
2.433906
 20
1.641394
 40
0.003
 41
0.003
  0
LWPOLYLINE
  5
342
100
AcDbEntity
  8
0
 62
     0
100
AcDbPolyline
 90
        2
 70
     0
 39
0.003
 10
2.433906
 20
1.641394
 40
0.003
 41
0.003
 10
2.399835
 20
1.669469
 40
0.003
 41
0.003
  0
LWPOLYLINE
  5
343
100
AcDbEntity
  8
0
 62
     0
100
AcDbPolyline
 90
        2
 70
     0
 39
0.003
 10
2.399835
 20
1.669469
 40
0.003
 41
0.003
 10
2.364295
 20
1.696535
 40
0.003
 41
0.003
  0
LWPOLYLINE
  5
344
100
AcDbEntity
  8
0
 62
     0
100
AcDbPolyline
 90
        2
 70
     0
 39
0.003
 10
2.364295
 20
1.696535
 40
0.003
 41
0.003
 10
2.327339
 20
1.722602
 40
0.003
 41
0.003
  0
LWPOLYLINE
  5
345
100
AcDbEntity
  8
0
 62
     0
100
AcDbPolyline
 90
        2
 70
     0
 39
0.003
 10
2.327339
 20
1.722602
 40
0.003
 41
0.003
 10
2.289039
 20
1.747685
 40
0.003
 41
0.003
  0
LWPOLYLINE
  5
346
100
AcDbEntity
  8
0
 62
     0
100
AcDbPolyline
 90
        2
 70
     0
 39
0.003
 10
2.289039
 20
1.747685
 40
0.003
 41
0.003
 10
2.249449
 20
1.771787
 40
0.003
 41
0.003
  0
LWPOLYLINE
  5
347
100
AcDbEntity
  8
0
 62
     0
100
AcDbPolyline
 90
        2
 70
     0
 39
0.003
 10
2.249449
 20
1.771787
 40
0.003
 41
0.003
 10
2.208642
 20
1.794933
 40
0.003
 41
0.003
  0
LWPOLYLINE
  5
348
100
AcDbEntity
  8
0
 62
     0
100
AcDbPolyline
 90
        2
 70
     0
 39
0.003
 10
2.208642
 20
1.794933
 40
0.003
 41
0.003
 10
2.166681
 20
1.81713
 40
0.003
 41
0.003
  0
LWPOLYLINE
  5
349
100
AcDbEntity
  8
0
 62
     0
100
AcDbPolyline
 90
        2
 70
     0
 39
0.003
 10
2.166681
 20
1.81713
 40
0.003
 41
0.003
 10
2.123638
 20
1.838394
 40
0.003
 41
0.003
  0
LWPOLYLINE
  5
34A
100
AcDbEntity
  8
0
 62
     0
100
AcDbPolyline
 90
        2
 70
     0
 39
0.003
 10
2.123638
 20
1.838394
 40
0.003
 41
0.003
 10
2.079563
 20
1.858724
 40
0.003
 41
0.003
  0
LWPOLYLINE
  5
34B
100
AcDbEntity
  8
0
 62
     0
100
AcDbPolyline
 90
        2
 70
     0
 39
0.003
 10
2.079563
 20
1.858724
 40
0.003
 41
0.003
 10
2.034531
 20
1.87815
 40
0.003
 41
0.003
  0
LWPOLYLINE
  5
34C
100
AcDbEntity
  8
0
 62
     0
100
AcDbPolyline
 90
        2
 70
     0
 39
0.003
 10
2.034531
 20
1.87815
 40
0.003
 41
0.003
 10
1.988602
 20
1.896673
 40
0.003
 41
0.003
  0
LWPOLYLINE
  5
34D
100
AcDbEntity
  8
0
 62
     0
100
AcDbPolyline
 90
        2
 70
     0
 39
0.003
 10
1.988602
 20
1.896673
 40
0.003
 41
0.003
 10
1.941854
 20
1.914311
 40
0.003
 41
0.003
  0
LWPOLYLINE
  5
34E
100
AcDbEntity
  8
0
 62
     0
100
AcDbPolyline
 90
        2
 70
     0
 39
0.003
 10
1.941854
 20
1.914311
 40
0.003
 41
0.003
 10
1.894331
 20
1.931071
 40
0.003
 41
0.003
  0
LWPOLYLINE
  5
34F
100
AcDbEntity
  8
0
 62
     0
100
AcDbPolyline
 90
        2
 70
     0
 39
0.003
 10
1.894331
 20
1.931071
 40
0.003
 41
0.003
 10
1.846114
 20
1.946972
 40
0.003
 41
0.003
  0
LWPOLYLINE
  5
350
100
AcDbEntity
  8
0
 62
     0
100
AcDbPolyline
 90
        2
 70
     0
 39
0.003
 10
1.846114
 20
1.946972
 40
0.003
 41
0.003
 10
1.797264
 20
1.962024
 40
0.003
 41
0.003
  0
LWPOLYLINE
  5
351
100
AcDbEntity
  8
0
 62
     0
100
AcDbPolyline
 90
        2
 70
     0
 39
0.003
 10
1.797264
 20
1.962024
 40
0.003
 41
0.003
 10
1.747846
 20
1.976244
 40
0.003
 41
0.003
  0
LWPOLYLINE
  5
352
100
AcDbEntity
  8
0
 62
     0
100
AcDbPolyline
 90
        2
 70
     0
 39
0.003
 10
1.747846
 20
1.976244
 40
0.003
 41
0.003
 10
1.094425
 20
1.595894
 40
0.003
 41
0.003
  0
LWPOLYLINE
  5
353
100
AcDbEntity
  8
0
 62
     0
100
AcDbPolyline
 90
        2
 70
     0
 39
0.003
 10
1.094425
 20
1.595894
 40
0.003
 41
0.003
 10
1.143843
 20
1.581673
 40
0.003
 41
0.003
  0
LWPOLYLINE
  5
354
100
AcDbEntity
  8
0
 62
     0
100
AcDbPolyline
 90
        2
 70
     0
 39
0.003
 10
1.143843
 20
1.581673
 40
0.003
 41
0.003
 10
1.192693
 20
1.566622
 40
0.003
 41
0.003
  0
LWPOLYLINE
  5
355
100
AcDbEntity
  8
0
 62
     0
100
AcDbPolyline
 90
        2
 70
     0
 39
0.003
 10
1.192693
 20
1.566622
 40
0.003
 41
0.003
 10
1.240909
 20
1.55072
 40
0.003
 41
0.003
  0
LWPOLYLINE
  5
356
100
AcDbEntity
  8
0
 62
     0
100
AcDbPolyline
 90
        2
 70
     0
 39
0.003
 10
1.240909
 20
1.55072
 40
0.003
 41
0.003
 10
1.288433
 20
1.533961
 40
0.003
 41
0.003
  0
LWPOLYLINE
  5
357
100
AcDbEntity
  8
0
 62
     0
100
AcDbPolyline
 90
        2
 70
     0
 39
0.003
 10
1.288433
 20
1.533961
 40
0.003
 41
0.003
 10
1.335181
 20
1.516323
 40
0.003
 41
0.003
  0
LWPOLYLINE
  5
358
100
AcDbEntity
  8
0
 62
     0
100
AcDbPolyline
 90
        2
 70
     0
 39
0.003
 10
1.335181
 20
1.516323
 40
0.003
 41
0.003
 10
1.38111
 20
1.497799
 40
0.003
 41
0.003
  0
LWPOLYLINE
  5
359
100
AcDbEntity
  8
0
 62
     0
100
AcDbPolyline
 90
        2
 70
     0
 39
0.003
 10
1.38111
 20
1.497799
 40
0.003
 41
0.003
 10
1.426142
 20
1.478374
 40
0.003
 41
0.003
  0
LWPOLYLINE
  5
35A
100
AcDbEntity
  8
0
 62
     0
100
AcDbPolyline
 90
        2
 70
     0
 39
0.003
 10
1.426142
 20
1.478374
 40
0.003
 41
0.003
 10
1.470217
 20
1.458043
 40
0.003
 41
0.003
  0
LWPOLYLINE
  5
35B
100
AcDbEntity
  8
0
 62
     0
100
AcDbPolyline
 90
        2
 70
     0
 39
0.003
 10
1.470217
 20
1.458043
 40
0.003
 41
0.003
 10
1.51326
 20
1.43678
 40
0.003
 41
0.003
  0
LWPOLYLINE
  5
35C
100
AcDbEntity
  8
0
 62
     0
100
AcDbPolyline
 90
        2
 70
     0
 39
0.003
 10
1.51326
 20
1.43678
 40
0.003
 41
0.003
 10
1.55522
 20
1.414583
 40
0.003
 41
0.003
  0
LWPOLYLINE
  5
35D
100
AcDbEntity
  8
0
 62
     0
100
AcDbPolyline
 90
        2
 70
     0
 39
0.003
 10
1.55522
 20
1.414583
 40
0.003
 41
0.003
 10
1.596028
 20
1.391437
 40
0.003
 41
0.003
  0
LWPOLYLINE
  5
35E
100
AcDbEntity
  8
0
 62
     0
100
AcDbPolyline
 90
        2
 70
     0
 39
0.003
 10
1.596028
 20
1.391437
 40
0.003
 41
0.003
 10
1.635618
 20
1.367335
 40
0.003
 41
0.003
  0
LWPOLYLINE
  5
35F
100
AcDbEntity
  8
0
 62
     0
100
AcDbPolyline
 90
        2
 70
     0
 39
0.003
 10
1.635618
 20
1.367335
 40
0.003
 41
0.003
 10
1.673917
 20
1.342252
 40
0.003
 41
0.003
  0
LWPOLYLINE
  5
360
100
AcDbEntity
  8
0
 62
     0
100
AcDbPolyline
 90
        2
 70
     0
 39
0.003
 10
1.673917
 20
1.342252
 40
0.003
 41
0.003
 10
1.710874
 20
1.316185
 40
0.003
 41
0.003
  0
LWPOLYLINE
  5
361
100
AcDbEntity
  8
0
 62
     0
100
AcDbPolyline
 90
        2
 70
     0
 39
0.003
 10
1.710874
 20
1.316185
 40
0.003
 41
0.003
 10
1.746413
 20
1.289118
 40
0.003
 41
0.003
  0
LWPOLYLINE
  5
362
100
AcDbEntity
  8
0
 62
     0
100
AcDbPolyline
 90
        2
 70
     0
 39
0.003
 10
1.746413
 20
1.289118
 40
0.003
 41
0.003
 10
1.780484
 20
1.261043
 40
0.003
 41
0.003
  0
LWPOLYLINE
  5
363
100
AcDbEntity
  8
0
 62
     0
100
AcDbPolyline
 90
        2
 70
     0
 39
0.003
 10
1.780484
 20
1.261043
 40
0.003
 41
0.003
 10
1.813
 20
1.231937
 40
0.003
 41
0.003
  0
LWPOLYLINE
  5
364
100
AcDbEntity
  8
0
 62
     0
100
AcDbPolyline
 90
        2
 70
     0
 39
0.003
 10
1.813
 20
1.231937
 40
0.003
 41
0.003
 10
1.843909
 20
1.201799
 40
0.003
 41
0.003
  0
LWPOLYLINE
  5
365
100
AcDbEntity
  8
0
 62
     0
100
AcDbPolyline
 90
        2
 70
     0
 39
0.003
 10
1.843909
 20
1.201799
 40
0.003
 41
0.003
 10
1.873142
 20
1.170606
 40
0.003
 41
0.003
  0
LWPOLYLINE
  5
366
100
AcDbEntity
  8
0
 62
     0
100
AcDbPolyline
 90
        2
 70
     0
 39
0.003
 10
1.873142
 20
1.170606
 40
0.003
 41
0.003
 10
1.900646
 20
1.138362
 40
0.003
 41
0.003
  0
LWPOLYLINE
  5
367
100
AcDbEntity
  8
0
 62
     0
100
AcDbPolyline
 90
        2
 70
     0
 39
0.003
 10
1.900646
 20
1.138362
 40
0.003
 41
0.003
 10
1.926339
 20
1.105039
 40
0.003
 41
0.003
  0
LWPOLYLINE
  5
368
100
AcDbEntity
  8
0
 62
     0
100
AcDbPolyline
 90
        2
 70
     0
 39
0.003
 10
1.926339
 20
1.105039
 40
0.003
 41
0.003
 10
1.950169
 20
1.07063
 40
0.003
 41
0.003
  0
LWPOLYLINE
  5
369
100
AcDbEntity
  8
0
 62
     0
100
AcDbPolyline
 90
        2
 70
     0
 39
0.003
 10
1.950169
 20
1.07063
 40
0.003
 41
0.003
 10
1.972067
 20
1.035122
 40
0.003
 41
0.003
  0
LWPOLYLINE
  5
36A
100
AcDbEntity
  8
0
 62
     0
100
AcDbPolyline
 90
        2
 70
     0
 39
0.003
 10
1.972067
 20
1.035122
 40
0.003
 41
0.003
 10
1.991969
 20
0.998508
 40
0.003
 41
0.003
  0
LWPOLYLINE
  5
36B
100
AcDbEntity
  8
0
 62
     0
100
AcDbPolyline
 90
        2
 70
     0
 39
0.003
 10
1.991969
 20
0.998508
 40
0.003
 41
0.003
 10
2.009799
 20
0.96076
 40
0.003
 41
0.003
  0
LWPOLYLINE
  5
36C
100
AcDbEntity
  8
0
 62
     0
100
AcDbPolyline
 90
        2
 70
     0
 39
0.003
 10
2.009799
 20
0.96076
 40
0.003
 41
0.003
 10
2.025508
 20
0.921886
 40
0.003
 41
0.003
  0
LWPOLYLINE
  5
36D
100
AcDbEntity
  8
0
 62
     0
100
AcDbPolyline
 90
        2
 70
     0
 39
0.003
 10
2.025508
 20
0.921886
 40
0.003
 41
0.003
 10
2.03902
 20
0.881858
 40
0.003
 41
0.003
  0
LWPOLYLINE
  5
36E
100
AcDbEntity
  8
0
 62
     0
100
AcDbPolyline
 90
        2
 70
     0
 39
0.003
 10
2.03902
 20
0.881858
 40
0.003
 41
0.003
 10
2.05028
 20
0.840673
 40
0.003
 41
0.003
  0
LWPOLYLINE
  5
36F
100
AcDbEntity
  8
0
 62
     0
100
AcDbPolyline
 90
        2
 70
     0
 39
0.003
 10
2.05028
 20
0.840673
 40
0.003
 41
0.003
 10
2.059209
 20
0.798311
 40
0.003
 41
0.003
  0
LWPOLYLINE
  5
370
100
AcDbEntity
  8
0
 62
     0
100
AcDbPolyline
 90
        2
 70
     0
 39
0.003
 10
2.059209
 20
0.798311
 40
0.003
 41
0.003
 10
2.06576
 20
0.754768
 40
0.003
 41
0.003
  0
LWPOLYLINE
  5
371
100
AcDbEntity
  8
0
 62
     0
100
AcDbPolyline
 90
        2
 70
     0
 39
0.003
 10
2.06576
 20
0.754768
 40
0.003
 41
0.003
 10
2.069854
 20
0.710024
 40
0.003
 41
0.003
  0
LWPOLYLINE
  5
372
100
AcDbEntity
  8
0
 62
     0
100
AcDbPolyline
 90
        2
 70
     0
 39
0.003
 10
2.069854
 20
0.710024
 40
0.003
 41
0.003
 10
2.071437
 20
0.664075
 40
0.003
 41
0.003
  0
LWPOLYLINE
  5
373
100
AcDbEntity
  8
0
 62
     9
100
AcDbPolyline
 90
        2
 70
     0
 39
0.003
 10
1.094425
 20
1.595894
 40
0.003
 41
0.003
 10
1.747846
 20
1.976244
 40
0.003
 41
0.003
  0
LWPOLYLINE
  5
374
100
AcDbEntity
  8
0
 62
     9
100
AcDbPolyline
 90
        2
 70
     0
 39
0.003
 10
1.747846
 20
1.976244
 40
0.003
 41
0.003
 10
0.462197
 20
2.296925
 40
0.003
 41
0.003
  0
LWPOLYLINE
  5
375
100
AcDbEntity
  8
0
 62
     9
100
AcDbPolyline
 90
        2
 70
     0
 39
0.003
 10
0.462197
 20
2.296925
 40
0.003
 41
0.003
 10
-0.191224
 20
1.916575
 40
0.003
 41
0.003
  0
LWPOLYLINE
  5
376
100
AcDbEntity
  8
0
 62
     9
100
AcDbPolyline
 90
        2
 70
     0
 39
0.003
 10
-0.191224
 20
1.916575
 40
0.003
 41
0.003
 10
1.094425
 20
1.595894
 40
0.003
 41
0.003
  0
LWPOLYLINE
  5
377
100
AcDbEntity
  8
0
 62
     0
100
AcDbPolyline
 90
        2
 70
     0
 39
0.003
 10
1.094425
 20
1.595894
 40
0.003
 41
0.003
 10
1.747846
 20
1.976244
 40
0.003
 41
0.003
  0
LWPOLYLINE
  5
378
100
AcDbEntity
  8
0
 62
     0
100
AcDbPolyline
 90
        2
 70
     0
 39
0.003
 10
1.747846
 20
1.976244
 40
0.003
 41
0.003
 10
0.462197
 20
2.296925
 40
0.003
 41
0.003
  0
LWPOLYLINE
  5
379
100
AcDbEntity
  8
0
 62
     0
100
AcDbPolyline
 90
        2
 70
     0
 39
0.003
 10
0.462197
 20
2.296925
 40
0.003
 41
0.003
 10
-0.191224
 20
1.916575
 40
0.003
 41
0.003
  0
LWPOLYLINE
  5
37A
100
AcDbEntity
  8
0
 62
     0
100
AcDbPolyline
 90
        2
 70
     0
 39
0.003
 10
-0.191224
 20
1.916575
 40
0.003
 41
0.003
 10
1.094425
 20
1.595894
 40
0.003
 41
0.003
  0
LWPOLYLINE
  5
37B
100
AcDbEntity
  8
0
 62
     8
100
AcDbPolyline
 90
        2
 70
     0
 39
0.003
 10
-0.191224
 20
1.916575
 40
0.003
 41
0.003
 10
0.462197
 20
2.296925
 40
0.003
 41
0.003
  0
LWPOLYLINE
  5
37C
100
AcDbEntity
  8
0
 62
     8
100
AcDbPolyline
 90
        2
 70
     0
 39
0.003
 10
0.462197
 20
2.296925
 40
0.003
 41
0.003
 10
-0.823461
 20
1.976244
 40
0.003
 41
0.003
  0
LWPOLYLINE
  5
37D
100
AcDbEntity
  8
0
 62
     8
100
AcDbPolyline
 90
        2
 70
     0
 39
0.003
 10
-0.823461
 20
1.976244
 40
0.003
 41
0.003
 10
-1.476882
 20
1.595894
 40
0.003
 41
0.003
  0
LWPOLYLINE
  5
37E
100
AcDbEntity
  8
0
 62
     8
100
AcDbPolyline
 90
        2
 70
     0
 39
0.003
 10
-1.476882
 20
1.595894
 40
0.003
 41
0.003
 10
-0.191224
 20
1.916575
 40
0.003
 41
0.003
  0
LWPOLYLINE
  5
37F
100
AcDbEntity
  8
0
 62
     0
100
AcDbPolyline
 90
        2
 70
     0
 39
0.003
 10
-0.191224
 20
1.916575
 40
0.003
 41
0.003
 10
0.462197
 20
2.296925
 40
0.003
 41
0.003
  0
LWPOLYLINE
  5
380
100
AcDbEntity
  8
0
 62
     0
100
AcDbPolyline
 90
        2
 70
     0
 39
0.003
 10
0.462197
 20
2.296925
 40
0.003
 41
0.003
 10
-0.823461
 20
1.976244
 40
0.003
 41
0.003
  0
LWPOLYLINE
  5
381
100
AcDbEntity
  8
0
 62
     0
100
AcDbPolyline
 90
        2
 70
     0
 39
0.003
 10
-0.823461
 20
1.976244
 40
0.003
 41
0.003
 10
-1.476882
 20
1.595894
 40
0.003
 41
0.003
  0
LWPOLYLINE
  5
382
100
AcDbEntity
  8
0
 62
     0
100
AcDbPolyline
 90
        2
 70
     0
 39
0.003
 10
-1.476882
 20
1.595894
 40
0.003
 41
0.003
 10
-0.191224
 20
1.916575
 40
0.003
 41
0.003
  0
LWPOLYLINE
  5
383
100
AcDbEntity
  8
0
 62
   127
100
AcDbPolyline
 90
        2
 70
     0
 39
0.003
 10
-1.476882
 20
1.595894
 40
0.003
 41
0.003
 10
-0.823461
 20
1.976244
 40
0.003
 41
0.003
  0
LWPOLYLINE
  5
384
100
AcDbEntity
  8
0
 62
   127
100
AcDbPolyline
 90
        2
 70
     0
 39
0.003
 10
-0.823461
 20
1.976244
 40
0.003
 41
0.003
 10
-0.872878
 20
1.962024
 40
0.003
 41
0.003
  0
LWPOLYLINE
  5
385
100
AcDbEntity
  8
0
 62
   127
100
AcDbPolyline
 90
        2
 70
     0
 39
0.003
 10
-0.872878
 20
1.962024
 40
0.003
 41
0.003
 10
-1.526299
 20
1.581673
 40
0.003
 41
0.003
  0
LWPOLYLINE
  5
386
100
AcDbEntity
  8
0
 62
   127
100
AcDbPolyline
 90
        2
 70
     0
 39
0.003
 10
-1.526299
 20
1.581673
 40
0.003
 41
0.003
 10
-1.476882
 20
1.595894
 40
0.003
 41
0.003
  0
LWPOLYLINE
  5
387
100
AcDbEntity
  8
0
 62
   127
100
AcDbPolyline
 90
        2
 70
     0
 39
0.003
 10
-1.526299
 20
1.581673
 40
0.003
 41
0.003
 10
-0.872878
 20
1.962024
 40
0.003
 41
0.003
  0
LWPOLYLINE
  5
388
100
AcDbEntity
  8
0
 62
   127
100
AcDbPolyline
 90
        2
 70
     0
 39
0.003
 10
-0.872878
 20
1.962024
 40
0.003
 41
0.003
 10
-0.921728
 20
1.946972
 40
0.003
 41
0.003
  0
LWPOLYLINE
  5
389
100
AcDbEntity
  8
0
 62
   127
100
AcDbPolyline
 90
        2
 70
     0
 39
0.003
 10
-0.921728
 20
1.946972
 40
0.003
 41
0.003
 10
-1.57515
 20
1.566622
 40
0.003
 41
0.003
  0
LWPOLYLINE
  5
38A
100
AcDbEntity
  8
0
 62
   127
100
AcDbPolyline
 90
        2
 70
     0
 39
0.003
 10
-1.57515
 20
1.566622
 40
0.003
 41
0.003
 10
-1.526299
 20
1.581673
 40
0.003
 41
0.003
  0
LWPOLYLINE
  5
38B
100
AcDbEntity
  8
0
 62
   127
100
AcDbPolyline
 90
        2
 70
     0
 39
0.003
 10
-1.57515
 20
1.566622
 40
0.003
 41
0.003
 10
-0.921728
 20
1.946972
 40
0.003
 41
0.003
  0
LWPOLYLINE
  5
38C
100
AcDbEntity
  8
0
 62
   127
100
AcDbPolyline
 90
        2
 70
     0
 39
0.003
 10
-0.921728
 20
1.946972
 40
0.003
 41
0.003
 10
-0.969945
 20
1.931071
 40
0.003
 41
0.003
  0
LWPOLYLINE
  5
38D
100
AcDbEntity
  8
0
 62
   127
100
AcDbPolyline
 90
        2
 70
     0
 39
0.003
 10
-0.969945
 20
1.931071
 40
0.003
 41
0.003
 10
-1.623366
 20
1.55072
 40
0.003
 41
0.003
  0
LWPOLYLINE
  5
38E
100
AcDbEntity
  8
0
 62
   127
100
AcDbPolyline
 90
        2
 70
     0
 39
0.003
 10
-1.623366
 20
1.55072
 40
0.003
 41
0.003
 10
-1.57515
 20
1.566622
 40
0.003
 41
0.003
  0
LWPOLYLINE
  5
38F
100
AcDbEntity
  8
0
 62
   127
100
AcDbPolyline
 90
        2
 70
     0
 39
0.003
 10
-1.623366
 20
1.55072
 40
0.003
 41
0.003
 10
-0.969945
 20
1.931071
 40
0.003
 41
0.003
  0
LWPOLYLINE
  5
390
100
AcDbEntity
  8
0
 62
   127
100
AcDbPolyline
 90
        2
 70
     0
 39
0.003
 10
-0.969945
 20
1.931071
 40
0.003
 41
0.003
 10
-1.017469
 20
1.914311
 40
0.003
 41
0.003
  0
LWPOLYLINE
  5
391
100
AcDbEntity
  8
0
 62
   127
100
AcDbPolyline
 90
        2
 70
     0
 39
0.003
 10
-1.017469
 20
1.914311
 40
0.003
 41
0.003
 10
-1.67089
 20
1.533961
 40
0.003
 41
0.003
  0
LWPOLYLINE
  5
392
100
AcDbEntity
  8
0
 62
   127
100
AcDbPolyline
 90
        2
 70
     0
 39
0.003
 10
-1.67089
 20
1.533961
 40
0.003
 41
0.003
 10
-1.623366
 20
1.55072
 40
0.003
 41
0.003
  0
LWPOLYLINE
  5
393
100
AcDbEntity
  8
0
 62
   251
100
AcDbPolyline
 90
        2
 70
     0
 39
0.003
 10
-1.67089
 20
1.533961
 40
0.003
 41
0.003
 10
-1.017469
 20
1.914311
 40
0.003
 41
0.003
  0
LWPOLYLINE
  5
394
100
AcDbEntity
  8
0
 62
   251
100
AcDbPolyline
 90
        2
 70
     0
 39
0.003
 10
-1.017469
 20
1.914311
 40
0.003
 41
0.003
 10
-1.064217
 20
1.896673
 40
0.003
 41
0.003
  0
LWPOLYLINE
  5
395
100
AcDbEntity
  8
0
 62
   251
100
AcDbPolyline
 90
        2
 70
     0
 39
0.003
 10
-1.064217
 20
1.896673
 40
0.003
 41
0.003
 10
-1.717638
 20
1.516323
 40
0.003
 41
0.003
  0
LWPOLYLINE
  5
396
100
AcDbEntity
  8
0
 62
   251
100
AcDbPolyline
 90
        2
 70
     0
 39
0.003
 10
-1.717638
 20
1.516323
 40
0.003
 41
0.003
 10
-1.67089
 20
1.533961
 40
0.003
 41
0.003
  0
LWPOLYLINE
  5
397
100
AcDbEntity
  8
0
 62
   251
100
AcDbPolyline
 90
        2
 70
     0
 39
0.003
 10
-1.717638
 20
1.516323
 40
0.003
 41
0.003
 10
-1.064217
 20
1.896673
 40
0.003
 41
0.003
  0
LWPOLYLINE
  5
398
100
AcDbEntity
  8
0
 62
   251
100
AcDbPolyline
 90
        2
 70
     0
 39
0.003
 10
-1.064217
 20
1.896673
 40
0.003
 41
0.003
 10
-1.110146
 20
1.87815
 40
0.003
 41
0.003
  0
LWPOLYLINE
  5
399
100
AcDbEntity
  8
0
 62
   251
100
AcDbPolyline
 90
        2
 70
     0
 39
0.003
 10
-1.110146
 20
1.87815
 40
0.003
 41
0.003
 10
-1.763567
 20
1.497799
 40
0.003
 41
0.003
  0
LWPOLYLINE
  5
39A
100
AcDbEntity
  8
0
 62
   251
100
AcDbPolyline
 90
        2
 70
     0
 39
0.003
 10
-1.763567
 20
1.497799
 40
0.003
 41
0.003
 10
-1.717638
 20
1.516323
 40
0.003
 41
0.003
  0
LWPOLYLINE
  5
39B
100
AcDbEntity
  8
0
 62
   251
100
AcDbPolyline
 90
        2
 70
     0
 39
0.003
 10
-1.763567
 20
1.497799
 40
0.003
 41
0.003
 10
-1.110146
 20
1.87815
 40
0.003
 41
0.003
  0
LWPOLYLINE
  5
39C
100
AcDbEntity
  8
0
 62
   251
100
AcDbPolyline
 90
        2
 70
     0
 39
0.003
 10
-1.110146
 20
1.87815
 40
0.003
 41
0.003
 10
-1.155177
 20
1.858724
 40
0.003
 41
0.003
  0
LWPOLYLINE
  5
39D
100
AcDbEntity
  8
0
 62
   251
100
AcDbPolyline
 90
        2
 70
     0
 39
0.003
 10
-1.155177
 20
1.858724
 40
0.003
 41
0.003
 10
-1.808598
 20
1.478374
 40
0.003
 41
0.003
  0
LWPOLYLINE
  5
39E
100
AcDbEntity
  8
0
 62
   251
100
AcDbPolyline
 90
        2
 70
     0
 39
0.003
 10
-1.808598
 20
1.478374
 40
0.003
 41
0.003
 10
-1.763567
 20
1.497799
 40
0.003
 41
0.003
  0
LWPOLYLINE
  5
39F
100
AcDbEntity
  8
0
 62
   251
100
AcDbPolyline
 90
        2
 70
     0
 39
0.003
 10
-1.808598
 20
1.478374
 40
0.003
 41
0.003
 10
-1.155177
 20
1.858724
 40
0.003
 41
0.003
  0
LWPOLYLINE
  5
3A0
100
AcDbEntity
  8
0
 62
   251
100
AcDbPolyline
 90
        2
 70
     0
 39
0.003
 10
-1.155177
 20
1.858724
 40
0.003
 41
0.003
 10
-1.199252
 20
1.838394
 40
0.003
 41
0.003
  0
LWPOLYLINE
  5
3A1
100
AcDbEntity
  8
0
 62
   251
100
AcDbPolyline
 90
        2
 70
     0
 39
0.003
 10
-1.199252
 20
1.838394
 40
0.003
 41
0.003
 10
-1.852673
 20
1.458043
 40
0.003
 41
0.003
  0
LWPOLYLINE
  5
3A2
100
AcDbEntity
  8
0
 62
   251
100
AcDbPolyline
 90
        2
 70
     0
 39
0.003
 10
-1.852673
 20
1.458043
 40
0.003
 41
0.003
 10
-1.808598
 20
1.478374
 40
0.003
 41
0.003
  0
LWPOLYLINE
  5
3A3
100
AcDbEntity
  8
0
 62
   139
100
AcDbPolyline
 90
        2
 70
     0
 39
0.003
 10
-1.852673
 20
1.458043
 40
0.003
 41
0.003
 10
-1.199252
 20
1.838394
 40
0.003
 41
0.003
  0
LWPOLYLINE
  5
3A4
100
AcDbEntity
  8
0
 62
   139
100
AcDbPolyline
 90
        2
 70
     0
 39
0.003
 10
-1.199252
 20
1.838394
 40
0.003
 41
0.003
 10
-1.242295
 20
1.81713
 40
0.003
 41
0.003
  0
LWPOLYLINE
  5
3A5
100
AcDbEntity
  8
0
 62
   139
100
AcDbPolyline
 90
        2
 70
     0
 39
0.003
 10
-1.242295
 20
1.81713
 40
0.003
 41
0.003
 10
-1.895717
 20
1.43678
 40
0.003
 41
0.003
  0
LWPOLYLINE
  5
3A6
100
AcDbEntity
  8
0
 62
   139
100
AcDbPolyline
 90
        2
 70
     0
 39
0.003
 10
-1.895717
 20
1.43678
 40
0.003
 41
0.003
 10
-1.852673
 20
1.458043
 40
0.003
 41
0.003
  0
LWPOLYLINE
  5
3A7
100
AcDbEntity
  8
0
 62
     0
100
AcDbPolyline
 90
        2
 70
     0
 39
0.003
 10
-1.476882
 20
1.595894
 40
0.003
 41
0.003
 10
-0.823461
 20
1.976244
 40
0.003
 41
0.003
  0
LWPOLYLINE
  5
3A8
100
AcDbEntity
  8
0
 62
     0
100
AcDbPolyline
 90
        2
 70
     0
 39
0.003
 10
-0.823461
 20
1.976244
 40
0.003
 41
0.003
 10
-0.872878
 20
1.962024
 40
0.003
 41
0.003
  0
LWPOLYLINE
  5
3A9
100
AcDbEntity
  8
0
 62
     0
100
AcDbPolyline
 90
        2
 70
     0
 39
0.003
 10
-0.872878
 20
1.962024
 40
0.003
 41
0.003
 10
-0.921728
 20
1.946972
 40
0.003
 41
0.003
  0
LWPOLYLINE
  5
3AA
100
AcDbEntity
  8
0
 62
     0
100
AcDbPolyline
 90
        2
 70
     0
 39
0.003
 10
-0.921728
 20
1.946972
 40
0.003
 41
0.003
 10
-0.969945
 20
1.931071
 40
0.003
 41
0.003
  0
LWPOLYLINE
  5
3AB
100
AcDbEntity
  8
0
 62
     0
100
AcDbPolyline
 90
        2
 70
     0
 39
0.003
 10
-0.969945
 20
1.931071
 40
0.003
 41
0.003
 10
-1.017469
 20
1.914311
 40
0.003
 41
0.003
  0
LWPOLYLINE
  5
3AC
100
AcDbEntity
  8
0
 62
     0
100
AcDbPolyline
 90
        2
 70
     0
 39
0.003
 10
-1.017469
 20
1.914311
 40
0.003
 41
0.003
 10
-1.064217
 20
1.896673
 40
0.003
 41
0.003
  0
LWPOLYLINE
  5
3AD
100
AcDbEntity
  8
0
 62
     0
100
AcDbPolyline
 90
        2
 70
     0
 39
0.003
 10
-1.064217
 20
1.896673
 40
0.003
 41
0.003
 10
-1.110146
 20
1.87815
 40
0.003
 41
0.003
  0
LWPOLYLINE
  5
3AE
100
AcDbEntity
  8
0
 62
     0
100
AcDbPolyline
 90
        2
 70
     0
 39
0.003
 10
-1.110146
 20
1.87815
 40
0.003
 41
0.003
 10
-1.155177
 20
1.858724
 40
0.003
 41
0.003
  0
LWPOLYLINE
  5
3AF
100
AcDbEntity
  8
0
 62
     0
100
AcDbPolyline
 90
        2
 70
     0
 39
0.003
 10
-1.155177
 20
1.858724
 40
0.003
 41
0.003
 10
-1.199252
 20
1.838394
 40
0.003
 41
0.003
  0
LWPOLYLINE
  5
3B0
100
AcDbEntity
  8
0
 62
     0
100
AcDbPolyline
 90
        2
 70
     0
 39
0.003
 10
-1.199252
 20
1.838394
 40
0.003
 41
0.003
 10
-1.242295
 20
1.81713
 40
0.003
 41
0.003
  0
LWPOLYLINE
  5
3B1
100
AcDbEntity
  8
0
 62
     0
100
AcDbPolyline
 90
        2
 70
     0
 39
0.003
 10
-1.242295
 20
1.81713
 40
0.003
 41
0.003
 10
-1.895717
 20
1.43678
 40
0.003
 41
0.003
  0
LWPOLYLINE
  5
3B2
100
AcDbEntity
  8
0
 62
     0
100
AcDbPolyline
 90
        2
 70
     0
 39
0.003
 10
-1.895717
 20
1.43678
 40
0.003
 41
0.003
 10
-1.852673
 20
1.458043
 40
0.003
 41
0.003
  0
LWPOLYLINE
  5
3B3
100
AcDbEntity
  8
0
 62
     0
100
AcDbPolyline
 90
        2
 70
     0
 39
0.003
 10
-1.852673
 20
1.458043
 40
0.003
 41
0.003
 10
-1.808598
 20
1.478374
 40
0.003
 41
0.003
  0
LWPOLYLINE
  5
3B4
100
AcDbEntity
  8
0
 62
     0
100
AcDbPolyline
 90
        2
 70
     0
 39
0.003
 10
-1.808598
 20
1.478374
 40
0.003
 41
0.003
 10
-1.763567
 20
1.497799
 40
0.003
 41
0.003
  0
LWPOLYLINE
  5
3B5
100
AcDbEntity
  8
0
 62
     0
100
AcDbPolyline
 90
        2
 70
     0
 39
0.003
 10
-1.763567
 20
1.497799
 40
0.003
 41
0.003
 10
-1.717638
 20
1.516323
 40
0.003
 41
0.003
  0
LWPOLYLINE
  5
3B6
100
AcDbEntity
  8
0
 62
     0
100
AcDbPolyline
 90
        2
 70
     0
 39
0.003
 10
-1.717638
 20
1.516323
 40
0.003
 41
0.003
 10
-1.67089
 20
1.533961
 40
0.003
 41
0.003
  0
LWPOLYLINE
  5
3B7
100
AcDbEntity
  8
0
 62
     0
100
AcDbPolyline
 90
        2
 70
     0
 39
0.003
 10
-1.67089
 20
1.533961
 40
0.003
 41
0.003
 10
-1.623366
 20
1.55072
 40
0.003
 41
0.003
  0
LWPOLYLINE
  5
3B8
100
AcDbEntity
  8
0
 62
     0
100
AcDbPolyline
 90
        2
 70
     0
 39
0.003
 10
-1.623366
 20
1.55072
 40
0.003
 41
0.003
 10
-1.57515
 20
1.566622
 40
0.003
 41
0.003
  0
LWPOLYLINE
  5
3B9
100
AcDbEntity
  8
0
 62
     0
100
AcDbPolyline
 90
        2
 70
     0
 39
0.003
 10
-1.57515
 20
1.566622
 40
0.003
 41
0.003
 10
-1.526299
 20
1.581673
 40
0.003
 41
0.003
  0
LWPOLYLINE
  5
3BA
100
AcDbEntity
  8
0
 62
     0
100
AcDbPolyline
 90
        2
 70
     0
 39
0.003
 10
-1.526299
 20
1.581673
 40
0.003
 41
0.003
 10
-1.476882
 20
1.595894
 40
0.003
 41
0.003
  0
LWPOLYLINE
  5
3BB
100
AcDbEntity
  8
0
 62
   139
100
AcDbPolyline
 90
        2
 70
     0
 39
0.003
 10
-2.280902
 20
0.475441
 40
0.003
 41
0.003
 10
-1.62748
 20
0.855791
 40
0.003
 41
0.003
  0
LWPOLYLINE
  5
3BC
100
AcDbEntity
  8
0
 62
   139
100
AcDbPolyline
 90
        2
 70
     0
 39
0.003
 10
-1.62748
 20
0.855791
 40
0.003
 41
0.003
 10
-1.647929
 20
0.844984
 40
0.003
 41
0.003
  0
LWPOLYLINE
  5
3BD
100
AcDbEntity
  8
0
 62
   139
100
AcDbPolyline
 90
        2
 70
     0
 39
0.003
 10
-1.647929
 20
0.844984
 40
0.003
 41
0.003
 10
-2.30135
 20
0.464634
 40
0.003
 41
0.003
  0
LWPOLYLINE
  5
3BE
100
AcDbEntity
  8
0
 62
   139
100
AcDbPolyline
 90
        2
 70
     0
 39
0.003
 10
-2.30135
 20
0.464634
 40
0.003
 41
0.003
 10
-2.280902
 20
0.475441
 40
0.003
 41
0.003
  0
LWPOLYLINE
  5
3BF
100
AcDbEntity
  8
0
 62
   251
100
AcDbPolyline
 90
        2
 70
     0
 39
0.003
 10
-2.30135
 20
0.464634
 40
0.003
 41
0.003
 10
-1.647929
 20
0.844984
 40
0.003
 41
0.003
  0
LWPOLYLINE
  5
3C0
100
AcDbEntity
  8
0
 62
   251
100
AcDbPolyline
 90
        2
 70
     0
 39
0.003
 10
-1.647929
 20
0.844984
 40
0.003
 41
0.003
 10
-1.669921
 20
0.83476
 40
0.003
 41
0.003
  0
LWPOLYLINE
  5
3C1
100
AcDbEntity
  8
0
 62
   251
100
AcDbPolyline
 90
        2
 70
     0
 39
0.003
 10
-1.669921
 20
0.83476
 40
0.003
 41
0.003
 10
-2.323343
 20
0.454409
 40
0.003
 41
0.003
  0
LWPOLYLINE
  5
3C2
100
AcDbEntity
  8
0
 62
   251
100
AcDbPolyline
 90
        2
 70
     0
 39
0.003
 10
-2.323343
 20
0.454409
 40
0.003
 41
0.003
 10
-2.30135
 20
0.464634
 40
0.003
 41
0.003
  0
LWPOLYLINE
  5
3C3
100
AcDbEntity
  8
0
 62
   251
100
AcDbPolyline
 90
        2
 70
     0
 39
0.003
 10
-2.323343
 20
0.454409
 40
0.003
 41
0.003
 10
-1.669921
 20
0.83476
 40
0.003
 41
0.003
  0
LWPOLYLINE
  5
3C4
100
AcDbEntity
  8
0
 62
   251
100
AcDbPolyline
 90
        2
 70
     0
 39
0.003
 10
-1.669921
 20
0.83476
 40
0.003
 41
0.003
 10
-1.693327
 20
0.82522
 40
0.003
 41
0.003
  0
LWPOLYLINE
  5
3C5
100
AcDbEntity
  8
0
 62
   251
100
AcDbPolyline
 90
        2
 70
     0
 39
0.003
 10
-1.693327
 20
0.82522
 40
0.003
 41
0.003
 10
-2.346748
 20
0.44487
 40
0.003
 41
0.003
  0
LWPOLYLINE
  5
3C6
100
AcDbEntity
  8
0
 62
   251
100
AcDbPolyline
 90
        2
 70
     0
 39
0.003
 10
-2.346748
 20
0.44487
 40
0.003
 41
0.003
 10
-2.323343
 20
0.454409
 40
0.003
 41
0.003
  0
LWPOLYLINE
  5
3C7
100
AcDbEntity
  8
0
 62
   127
100
AcDbPolyline
 90
        2
 70
     0
 39
0.003
 10
-2.346748
 20
0.44487
 40
0.003
 41
0.003
 10
-1.693327
 20
0.82522
 40
0.003
 41
0.003
  0
LWPOLYLINE
  5
3C8
100
AcDbEntity
  8
0
 62
   127
100
AcDbPolyline
 90
        2
 70
     0
 39
0.003
 10
-1.693327
 20
0.82522
 40
0.003
 41
0.003
 10
-1.717984
 20
0.816461
 40
0.003
 41
0.003
  0
LWPOLYLINE
  5
3C9
100
AcDbEntity
  8
0
 62
   127
100
AcDbPolyline
 90
        2
 70
     0
 39
0.003
 10
-1.717984
 20
0.816461
 40
0.003
 41
0.003
 10
-2.371406
 20
0.43611
 40
0.003
 41
0.003
  0
LWPOLYLINE
  5
3CA
100
AcDbEntity
  8
0
 62
   127
100
AcDbPolyline
 90
        2
 70
     0
 39
0.003
 10
-2.371406
 20
0.43611
 40
0.003
 41
0.003
 10
-2.346748
 20
0.44487
 40
0.003
 41
0.003
  0
LWPOLYLINE
  5
3CB
100
AcDbEntity
  8
0
 62
   127
100
AcDbPolyline
 90
        2
 70
     0
 39
0.003
 10
-2.371406
 20
0.43611
 40
0.003
 41
0.003
 10
-1.717984
 20
0.816461
 40
0.003
 41
0.003
  0
LWPOLYLINE
  5
3CC
100
AcDbEntity
  8
0
 62
   127
100
AcDbPolyline
 90
        2
 70
     0
 39
0.003
 10
-1.717984
 20
0.816461
 40
0.003
 41
0.003
 10
-1.74378
 20
0.808583
 40
0.003
 41
0.003
  0
LWPOLYLINE
  5
3CD
100
AcDbEntity
  8
0
 62
   127
100
AcDbPolyline
 90
        2
 70
     0
 39
0.003
 10
-1.74378
 20
0.808583
 40
0.003
 41
0.003
 10
-2.397201
 20
0.428232
 40
0.003
 41
0.003
  0
LWPOLYLINE
  5
3CE
100
AcDbEntity
  8
0
 62
   127
100
AcDbPolyline
 90
        2
 70
     0
 39
0.003
 10
-2.397201
 20
0.428232
 40
0.003
 41
0.003
 10
-2.371406
 20
0.43611
 40
0.003
 41
0.003
  0
LWPOLYLINE
  5
3CF
100
AcDbEntity
  8
0
 62
     8
100
AcDbPolyline
 90
        2
 70
     0
 39
0.003
 10
-2.397201
 20
0.428232
 40
0.003
 41
0.003
 10
-1.74378
 20
0.808583
 40
0.003
 41
0.003
  0
LWPOLYLINE
  5
3D0
100
AcDbEntity
  8
0
 62
     8
100
AcDbPolyline
 90
        2
 70
     0
 39
0.003
 10
-1.74378
 20
0.808583
 40
0.003
 41
0.003
 10
-1.770559
 20
0.801685
 40
0.003
 41
0.003
  0
LWPOLYLINE
  5
3D1
100
AcDbEntity
  8
0
 62
     8
100
AcDbPolyline
 90
        2
 70
     0
 39
0.003
 10
-1.770559
 20
0.801685
 40
0.003
 41
0.003
 10
-2.42398
 20
0.421335
 40
0.003
 41
0.003
  0
LWPOLYLINE
  5
3D2
100
AcDbEntity
  8
0
 62
     8
100
AcDbPolyline
 90
        2
 70
     0
 39
0.003
 10
-2.42398
 20
0.421335
 40
0.003
 41
0.003
 10
-2.397201
 20
0.428232
 40
0.003
 41
0.003
  0
LWPOLYLINE
  5
3D3
100
AcDbEntity
  8
0
 62
   252
100
AcDbPolyline
 90
        2
 70
     0
 39
0.003
 10
-2.42398
 20
0.421335
 40
0.003
 41
0.003
 10
-1.770559
 20
0.801685
 40
0.003
 41
0.003
  0
LWPOLYLINE
  5
3D4
100
AcDbEntity
  8
0
 62
   252
100
AcDbPolyline
 90
        2
 70
     0
 39
0.003
 10
-1.770559
 20
0.801685
 40
0.003
 41
0.003
 10
-1.798197
 20
0.795866
 40
0.003
 41
0.003
  0
LWPOLYLINE
  5
3D5
100
AcDbEntity
  8
0
 62
   252
100
AcDbPolyline
 90
        2
 70
     0
 39
0.003
 10
-1.798197
 20
0.795866
 40
0.003
 41
0.003
 10
-2.451618
 20
0.415516
 40
0.003
 41
0.003
  0
LWPOLYLINE
  5
3D6
100
AcDbEntity
  8
0
 62
   252
100
AcDbPolyline
 90
        2
 70
     0
 39
0.003
 10
-2.451618
 20
0.415516
 40
0.003
 41
0.003
 10
-2.42398
 20
0.421335
 40
0.003
 41
0.003
  0
LWPOLYLINE
  5
3D7
100
AcDbEntity
  8
0
 62
   252
100
AcDbPolyline
 90
        2
 70
     0
 39
0.003
 10
-2.451618
 20
0.415516
 40
0.003
 41
0.003
 10
-1.798197
 20
0.795866
 40
0.003
 41
0.003
  0
LWPOLYLINE
  5
3D8
100
AcDbEntity
  8
0
 62
   252
100
AcDbPolyline
 90
        2
 70
     0
 39
0.003
 10
-1.798197
 20
0.795866
 40
0.003
 41
0.003
 10
-1.826539
 20
0.791217
 40
0.003
 41
0.003
  0
LWPOLYLINE
  5
3D9
100
AcDbEntity
  8
0
 62
   252
100
AcDbPolyline
 90
        2
 70
     0
 39
0.003
 10
-1.826539
 20
0.791217
 40
0.003
 41
0.003
 10
-2.479961
 20
0.410866
 40
0.003
 41
0.003
  0
LWPOLYLINE
  5
3DA
100
AcDbEntity
  8
0
 62
   252
100
AcDbPolyline
 90
        2
 70
     0
 39
0.003
 10
-2.479961
 20
0.410866
 40
0.003
 41
0.003
 10
-2.451618
 20
0.415516
 40
0.003
 41
0.003
  0
LWPOLYLINE
  5
3DB
100
AcDbEntity
  8
0
 62
   253
100
AcDbPolyline
 90
        2
 70
     0
 39
0.003
 10
-2.479961
 20
0.410866
 40
0.003
 41
0.003
 10
-1.826539
 20
0.791217
 40
0.003
 41
0.003
  0
LWPOLYLINE
  5
3DC
100
AcDbEntity
  8
0
 62
   253
100
AcDbPolyline
 90
        2
 70
     0
 39
0.003
 10
-1.826539
 20
0.791217
 40
0.003
 41
0.003
 10
-1.855457
 20
0.78785
 40
0.003
 41
0.003
  0
LWPOLYLINE
  5
3DD
100
AcDbEntity
  8
0
 62
   253
100
AcDbPolyline
 90
        2
 70
     0
 39
0.003
 10
-1.855457
 20
0.78785
 40
0.003
 41
0.003
 10
-2.508878
 20
0.4075
 40
0.003
 41
0.003
  0
LWPOLYLINE
  5
3DE
100
AcDbEntity
  8
0
 62
   253
100
AcDbPolyline
 90
        2
 70
     0
 39
0.003
 10
-2.508878
 20
0.4075
 40
0.003
 41
0.003
 10
-2.479961
 20
0.410866
 40
0.003
 41
0.003
  0
LWPOLYLINE
  5
3DF
100
AcDbEntity
  8
0
 62
   253
100
AcDbPolyline
 90
        2
 70
     0
 39
0.003
 10
-2.508878
 20
0.4075
 40
0.003
 41
0.003
 10
-1.855457
 20
0.78785
 40
0.003
 41
0.003
  0
LWPOLYLINE
  5
3E0
100
AcDbEntity
  8
0
 62
   253
100
AcDbPolyline
 90
        2
 70
     0
 39
0.003
 10
-1.855457
 20
0.78785
 40
0.003
 41
0.003
 10
-1.884807
 20
0.785854
 40
0.003
 41
0.003
  0
LWPOLYLINE
  5
3E1
100
AcDbEntity
  8
0
 62
   253
100
AcDbPolyline
 90
        2
 70
     0
 39
0.003
 10
-1.884807
 20
0.785854
 40
0.003
 41
0.003
 10
-2.538228
 20
0.405504
 40
0.003
 41
0.003
  0
LWPOLYLINE
  5
3E2
100
AcDbEntity
  8
0
 62
   253
100
AcDbPolyline
 90
        2
 70
     0
 39
0.003
 10
-2.538228
 20
0.405504
 40
0.003
 41
0.003
 10
-2.508878
 20
0.4075
 40
0.003
 41
0.003
  0
LWPOLYLINE
  5
3E3
100
AcDbEntity
  8
0
 62
   253
100
AcDbPolyline
 90
        2
 70
     0
 39
0.003
 10
-2.538228
 20
0.405504
 40
0.003
 41
0.003
 10
-1.884807
 20
0.785854
 40
0.003
 41
0.003
  0
LWPOLYLINE
  5
3E4
100
AcDbEntity
  8
0
 62
   253
100
AcDbPolyline
 90
        2
 70
     0
 39
0.003
 10
-1.884807
 20
0.785854
 40
0.003
 41
0.003
 10
-1.914461
 20
0.785331
 40
0.003
 41
0.003
  0
LWPOLYLINE
  5
3E5
100
AcDbEntity
  8
0
 62
   253
100
AcDbPolyline
 90
        2
 70
     0
 39
0.003
 10
-1.914461
 20
0.785331
 40
0.003
 41
0.003
 10
-2.567882
 20
0.40498
 40
0.003
 41
0.003
  0
LWPOLYLINE
  5
3E6
100
AcDbEntity
  8
0
 62
   253
100
AcDbPolyline
 90
        2
 70
     0
 39
0.003
 10
-2.567882
 20
0.40498
 40
0.003
 41
0.003
 10
-2.538228
 20
0.405504
 40
0.003
 41
0.003
  0
LWPOLYLINE
  5
3E7
100
AcDbEntity
  8
0
 62
     0
100
AcDbPolyline
 90
        2
 70
     0
 39
0.003
 10
-2.280902
 20
0.475441
 40
0.003
 41
0.003
 10
-1.62748
 20
0.855791
 40
0.003
 41
0.003
  0
LWPOLYLINE
  5
3E8
100
AcDbEntity
  8
0
 62
     0
100
AcDbPolyline
 90
        2
 70
     0
 39
0.003
 10
-1.62748
 20
0.855791
 40
0.003
 41
0.003
 10
-1.647929
 20
0.844984
 40
0.003
 41
0.003
  0
LWPOLYLINE
  5
3E9
100
AcDbEntity
  8
0
 62
     0
100
AcDbPolyline
 90
        2
 70
     0
 39
0.003
 10
-1.647929
 20
0.844984
 40
0.003
 41
0.003
 10
-1.669921
 20
0.83476
 40
0.003
 41
0.003
  0
LWPOLYLINE
  5
3EA
100
AcDbEntity
  8
0
 62
     0
100
AcDbPolyline
 90
        2
 70
     0
 39
0.003
 10
-1.669921
 20
0.83476
 40
0.003
 41
0.003
 10
-1.693327
 20
0.82522
 40
0.003
 41
0.003
  0
LWPOLYLINE
  5
3EB
100
AcDbEntity
  8
0
 62
     0
100
AcDbPolyline
 90
        2
 70
     0
 39
0.003
 10
-1.693327
 20
0.82522
 40
0.003
 41
0.003
 10
-1.717984
 20
0.816461
 40
0.003
 41
0.003
  0
LWPOLYLINE
  5
3EC
100
AcDbEntity
  8
0
 62
     0
100
AcDbPolyline
 90
        2
 70
     0
 39
0.003
 10
-1.717984
 20
0.816461
 40
0.003
 41
0.003
 10
-1.74378
 20
0.808583
 40
0.003
 41
0.003
  0
LWPOLYLINE
  5
3ED
100
AcDbEntity
  8
0
 62
     0
100
AcDbPolyline
 90
        2
 70
     0
 39
0.003
 10
-1.74378
 20
0.808583
 40
0.003
 41
0.003
 10
-1.770559
 20
0.801685
 40
0.003
 41
0.003
  0
LWPOLYLINE
  5
3EE
100
AcDbEntity
  8
0
 62
     0
100
AcDbPolyline
 90
        2
 70
     0
 39
0.003
 10
-1.770559
 20
0.801685
 40
0.003
 41
0.003
 10
-1.798197
 20
0.795866
 40
0.003
 41
0.003
  0
LWPOLYLINE
  5
3EF
100
AcDbEntity
  8
0
 62
     0
100
AcDbPolyline
 90
        2
 70
     0
 39
0.003
 10
-1.798197
 20
0.795866
 40
0.003
 41
0.003
 10
-1.826539
 20
0.791217
 40
0.003
 41
0.003
  0
LWPOLYLINE
  5
3F0
100
AcDbEntity
  8
0
 62
     0
100
AcDbPolyline
 90
        2
 70
     0
 39
0.003
 10
-1.826539
 20
0.791217
 40
0.003
 41
0.003
 10
-1.855457
 20
0.78785
 40
0.003
 41
0.003
  0
LWPOLYLINE
  5
3F1
100
AcDbEntity
  8
0
 62
     0
100
AcDbPolyline
 90
        2
 70
     0
 39
0.003
 10
-1.855457
 20
0.78785
 40
0.003
 41
0.003
 10
-1.884807
 20
0.785854
 40
0.003
 41
0.003
  0
LWPOLYLINE
  5
3F2
100
AcDbEntity
  8
0
 62
     0
100
AcDbPolyline
 90
        2
 70
     0
 39
0.003
 10
-1.884807
 20
0.785854
 40
0.003
 41
0.003
 10
-1.914461
 20
0.785331
 40
0.003
 41
0.003
  0
LWPOLYLINE
  5
3F3
100
AcDbEntity
  8
0
 62
     0
100
AcDbPolyline
 90
        2
 70
     0
 39
0.003
 10
-1.914461
 20
0.785331
 40
0.003
 41
0.003
 10
-2.567882
 20
0.40498
 40
0.003
 41
0.003
  0
LWPOLYLINE
  5
3F4
100
AcDbEntity
  8
0
 62
     0
100
AcDbPolyline
 90
        2
 70
     0
 39
0.003
 10
-2.567882
 20
0.40498
 40
0.003
 41
0.003
 10
-2.538228
 20
0.405504
 40
0.003
 41
0.003
  0
LWPOLYLINE
  5
3F5
100
AcDbEntity
  8
0
 62
     0
100
AcDbPolyline
 90
        2
 70
     0
 39
0.003
 10
-2.538228
 20
0.405504
 40
0.003
 41
0.003
 10
-2.508878
 20
0.4075
 40
0.003
 41
0.003
  0
LWPOLYLINE
  5
3F6
100
AcDbEntity
  8
0
 62
     0
100
AcDbPolyline
 90
        2
 70
     0
 39
0.003
 10
-2.508878
 20
0.4075
 40
0.003
 41
0.003
 10
-2.479961
 20
0.410866
 40
0.003
 41
0.003
  0
LWPOLYLINE
  5
3F7
100
AcDbEntity
  8
0
 62
     0
100
AcDbPolyline
 90
        2
 70
     0
 39
0.003
 10
-2.479961
 20
0.410866
 40
0.003
 41
0.003
 10
-2.451618
 20
0.415516
 40
0.003
 41
0.003
  0
LWPOLYLINE
  5
3F8
100
AcDbEntity
  8
0
 62
     0
100
AcDbPolyline
 90
        2
 70
     0
 39
0.003
 10
-2.451618
 20
0.415516
 40
0.003
 41
0.003
 10
-2.42398
 20
0.421335
 40
0.003
 41
0.003
  0
LWPOLYLINE
  5
3F9
100
AcDbEntity
  8
0
 62
     0
100
AcDbPolyline
 90
        2
 70
     0
 39
0.003
 10
-2.42398
 20
0.421335
 40
0.003
 41
0.003
 10
-2.397201
 20
0.428232
 40
0.003
 41
0.003
  0
LWPOLYLINE
  5
3FA
100
AcDbEntity
  8
0
 62
     0
100
AcDbPolyline
 90
        2
 70
     0
 39
0.003
 10
-2.397201
 20
0.428232
 40
0.003
 41
0.003
 10
-2.371406
 20
0.43611
 40
0.003
 41
0.003
  0
LWPOLYLINE
  5
3FB
100
AcDbEntity
  8
0
 62
     0
100
AcDbPolyline
 90
        2
 70
     0
 39
0.003
 10
-2.371406
 20
0.43611
 40
0.003
 41
0.003
 10
-2.346748
 20
0.44487
 40
0.003
 41
0.003
  0
LWPOLYLINE
  5
3FC
100
AcDbEntity
  8
0
 62
     0
100
AcDbPolyline
 90
        2
 70
     0
 39
0.003
 10
-2.346748
 20
0.44487
 40
0.003
 41
0.003
 10
-2.323343
 20
0.454409
 40
0.003
 41
0.003
  0
LWPOLYLINE
  5
3FD
100
AcDbEntity
  8
0
 62
     0
100
AcDbPolyline
 90
        2
 70
     0
 39
0.003
 10
-2.323343
 20
0.454409
 40
0.003
 41
0.003
 10
-2.30135
 20
0.464634
 40
0.003
 41
0.003
  0
LWPOLYLINE
  5
3FE
100
AcDbEntity
  8
0
 62
     0
100
AcDbPolyline
 90
        2
 70
     0
 39
0.003
 10
-2.30135
 20
0.464634
 40
0.003
 41
0.003
 10
-2.280902
 20
0.475441
 40
0.003
 41
0.003
  0
LWPOLYLINE
  5
3FF
100
AcDbEntity
  8
0
 62
     7
100
AcDbPolyline
 90
        2
 70
     0
 39
0.003
 10
2.185425
 20
0.166567
 40
0.003
 41
0.003
 10
2.185425
 20
0.40498
 40
0.003
 41
0.003
  0
SPLINE
  5
400
100
AcDbEntity
  8
0
 62
     7
100
AcDbSpline
210
0.0
220
0.0
230
1.0
 70
     0
 71
     3
 72
     0
 73
     0
 74
    32
 44
0.0000000001
 11
2.1854251968503937
 21
0.4049803149606299
 31
0.0
 11
2.1264212598425196
 21
0.4075
 31
0.0
 11
2.0691614173228348
 21
0.4155157480314961
 31
0.0
 11
2.0147440944881891
 21
0.4282322834645669
 31
0.0
 11
1.9642913385826772
 21
0.4448700787401575
 31
0.0
 11
1.9188937007874016
 21
0.4646338582677165
 31
0.0
 11
1.8796811023622046
 21
0.486748031496063
 31
0.0
 11
1.8477559055118111
 21
0.5104173228346457
 31
0.0
 11
1.8242283464566929
 21
0.5348700787401575
 31
0.0
 11
1.8102007874015749
 21
0.5593031496062992
 31
0.0
 11
1.8067913385826773
 21
0.5829448818897638
 31
0.0
 11
1.8151102362204725
 21
0.6049960629921259
 31
0.0
 11
1.8362637795275591
 21
0.6246929133858268
 31
0.0
 11
1.8713582677165355
 21
0.6412283464566929
 31
0.0
 11
1.9215157480314962
 21
0.6538307086614174
 31
0.0
 11
1.9878385826771654
 21
0.6617047244094488
 31
0.0
 11
2.0714370078740156
 21
0.6640748031496063
 31
0.0
 11
2.065759842519685
 21
0.7547677165354331
 31
0.0
 11
2.0502795275590553
 21
0.8406732283464568
 31
0.0
 11
2.0255078740157479
 21
0.9218858267716535
 31
0.0
 11
1.9919685039370079
 21
0.998507874015748
 31
0.0
 11
1.9501692913385826
 21
1.0706299212598425
 31
0.0
 11
1.9006456692913385
 21
1.1383622047244095
 31
0.0
 11
1.8439094488188976
 21
1.2017992125984251
 31
0.0
 11
1.780484251968504
 21
1.2610433070866143
 31
0.0
 11
1.7108740157480316
 21
1.3161850393700787
 31
0.0
 11
1.6356181102362204
 21
1.3673346456692914
 31
0.0
 11
1.5552204724409449
 21
1.4145826771653542
 31
0.0
 11
1.470216535433071
 21
1.4580433070866141
 31
0.0
 11
1.3811102362204724
 21
1.4977992125984252
 31
0.0
 11
1.2884330708661418
 21
1.5339606299212598
 31
0.0
 11
1.1926929133858268
 21
1.5666220472440946
 31
0.0
  0
LWPOLYLINE
  5
401
100
AcDbEntity
  8
0
 62
     7
100
AcDbPolyline
 90
        2
 70
     0
 39
0.003
 10
1.192693
 20
1.566622
 40
0.003
 41
0.003
 10
1.094425
 20
1.595894
 40
0.003
 41
0.003
  0
LWPOLYLINE
  5
402
100
AcDbEntity
  8
0
 62
     7
100
AcDbPolyline
 90
        2
 70
     0
 39
0.003
 10
1.094425
 20
1.595894
 40
0.003
 41
0.003
 10
-0.191224
 20
1.916575
 40
0.003
 41
0.003
  0
LWPOLYLINE
  5
403
100
AcDbEntity
  8
0
 62
     7
100
AcDbPolyline
 90
        2
 70
     0
 39
0.003
 10
-0.191224
 20
1.916575
 40
0.003
 41
0.003
 10
-1.476882
 20
1.595894
 40
0.003
 41
0.003
  0
SPLINE
  5
404
100
AcDbEntity
  8
0
 62
     7
100
AcDbSpline
210
0.0
220
0.0
230
1.0
 70
     0
 71
     3
 72
     0
 73
     0
 74
    32
 44
0.0000000001
 11
-1.4768818897637794
 21
1.5958937007874017
 31
0.0
 11
-1.5751496062992125
 21
1.5666220472440946
 31
0.0
 11
-1.6708897637795275
 21
1.5339606299212598
 31
0.0
 11
-1.7635669291338583
 21
1.4977992125984252
 31
0.0
 11
-1.8526732283464566
 21
1.4580433070866141
 31
0.0
 11
-1.9376771653543308
 21
1.4145826771653542
 31
0.0
 11
-2.0180748031496063
 21
1.3673346456692914
 31
0.0
 11
-2.0933307086614175
 21
1.3161850393700787
 31
0.0
 11
-2.1629409448818899
 21
1.2610433070866143
 31
0.0
 11
-2.2263661417322833
 21
1.2017992125984251
 31
0.0
 11
-2.2831023622047244
 21
1.1383622047244095
 31
0.0
 11
-2.3326259842519685
 21
1.0706299212598425
 31
0.0
 11
-2.3744251968503938
 21
0.998507874015748
 31
0.0
 11
-2.4079645669291341
 21
0.9218858267716535
 31
0.0
 11
-2.432736220472441
 21
0.8406732283464568
 31
0.0
 11
-2.4482165354330707
 21
0.7547677165354331
 31
0.0
 11
-2.4538937007874018
 21
0.6640748031496063
 31
0.0
 11
-2.3702952755905513
 21
0.6617047244094488
 31
0.0
 11
-2.3039724409448818
 21
0.6538307086614174
 31
0.0
 11
-2.2538149606299211
 21
0.6412283464566929
 31
0.0
 11
-2.2187204724409448
 21
0.6246929133858268
 31
0.0
 11
-2.1975669291338584
 21
0.6049960629921259
 31
0.0
 11
-2.1892480314960632
 21
0.5829448818897638
 31
0.0
 11
-2.1926574803149608
 21
0.5593031496062992
 31
0.0
 11
-2.2066850393700785
 21
0.5348700787401575
 31
0.0
 11
-2.2302125984251968
 21
0.5104173228346457
 31
0.0
 11
-2.2621377952755903
 21
0.486748031496063
 31
0.0
 11
-2.3013503937007873
 21
0.4646338582677165
 31
0.0
 11
-2.3467480314960629
 21
0.4448700787401575
 31
0.0
 11
-2.3972007874015748
 21
0.4282322834645669
 31
0.0
 11
-2.4516181102362204
 21
0.4155157480314961
 31
0.0
 11
-2.5088779527559053
 21
0.4075
 31
0.0
  0
LWPOLYLINE
  5
405
100
AcDbEntity
  8
0
 62
     7
100
AcDbPolyline
 90
        2
 70
     0
 39
0.003
 10
-2.508878
 20
0.4075
 40
0.003
 41
0.003
 10
-2.567882
 20
0.40498
 40
0.003
 41
0.003
  0
LWPOLYLINE
  5
406
100
AcDbEntity
  8
0
 62
     7
100
AcDbPolyline
 90
        2
 70
     0
 39
0.003
 10
-2.567882
 20
0.40498
 40
0.003
 41
0.003
 10
-2.567882
 20
0.166567
 40
0.003
 41
0.003
  0
LWPOLYLINE
  5
407
100
AcDbEntity
  8
0
 62
     7
100
AcDbPolyline
 90
        2
 70
     0
 39
0.003
 10
-2.567882
 20
0.166567
 40
0.003
 41
0.003
 10
2.185425
 20
0.166567
 40
0.003
 41
0.003
  0
MTEXT
  5
408
100
AcDbEntity
  8
0
 62
     0
100
AcDbMText
 10
-1.148244
 20
0.240067
 30
0.0
 40
0.166665
 41
0.0
 71
     1
 72
     1
  1
{\fBookman Old Style|b0|i0|c0|p32;BA  1399}
 73
     1
 44
1.0
  0
MTEXT
  5
409
100
AcDbEntity
  8
0
 62
     0
100
AcDbMText
 10
-1.148244
 20
0.052567
 30
0.0
 40
0.166665
 41
0.0
 71
     1
 72
     1
  1
{\fBookman Old Style|b0|i0|c0|p32;1-3/4" x 4-3/4"}
 73
     1
 44
1.0
  0
ENDSEC
  0
SECTION
  2
OBJECTS
  0
DICTIONARY
  5
19
100
AcDbDictionary
280
     0
281
     1
  3
ACAD_GROUP
350
1A
  3
ACAD_MLINESTYLE
350
1B
  3
ACAD_LAYOUT
350
1E
  3
ACAD_PLOTSETTINGS
350
22
  3
ACAD_PLOTSTYLENAME
350
1F
  3
ACAD_WIPEOUT_VARS
350
23
  0
DICTIONARY
  5
1A
102
{ACAD_REACTORS
330
19
102
}
100
AcDbDictionary
280
     0
281
     1
  0
DICTIONARY
  5
1B
102
{ACAD_REACTORS
330
19
102
}
100
AcDbDictionary
280
     0
281
     1
  3
Standard
350
1C
  0
MLINESTYLE
  5
1C
102
{ACAD_REACTORS
330
1B
102
}
100
AcDbMlineStyle
  2
Standard
 70
     0
  3

 62
     0
 51
90.0
 52
90.0
 71
     2
 49
0.5
 62
   256
  6
BYLAYER
 49
-0.5
 62
   256
  6
BYLAYER
  0
ACDBDICTIONARYWDFLT
  5
1F
102
{ACAD_REACTORS
330
19
102
}
100
AcDbDictionary
281
     1
  3
Normal
350
1D
100
AcDbDictionaryWithDefault
340
1D
  0
ACDBPLACEHOLDER
  5
1D
102
{ACAD_REACTORS
330
1F
102
}
  0
LAYOUT
  5
20
102
{ACAD_REACTORS
330
1E
102
}
100
AcDbPlotSettings
  1

  2

  4

  6

 40
0.0
 41
0.0
 42
0.0
 43
0.0
 44
0.0
 45
0.0
 46
0.0
 47
0.0
 48
0.0
 49
0.0
140
0.0
141
0.0
142
1.0
143
1.0
 70
  1024
 72
     0
 73
     0
 74
     0
  7

 75
     0
147
1.0
148
0.0
149
0.0
100
AcDbLayout
  1
Model
 70
     0
 71
     0
 10
0.0
 20
0.0
 11
0.0
 21
0.0
 12
0.0
 22
0.0
 32
0.0
 14
0.0
 24
0.0
 34
0.0
 15
0.0
 25
0.0
 35
0.0
146
0.0
 13
0.0
 23
0.0
 33
0.0
 16
0.0
 26
0.0
 36
0.0
 17
0.0
 27
0.0
 37
0.0
 76
     0
330
A
331
0
345
0
346
0
  0
LAYOUT
  5
21
102
{ACAD_REACTORS
330
1E
102
}
100
AcDbPlotSettings
  1

  2

  4

  6

 40
0.0
 41
0.0
 42
0.0
 43
0.0
 44
0.0
 45
0.0
 46
0.0
 47
0.0
 48
0.0
 49
0.0
140
0.0
141
0.0
142
1.0
143
1.0
 70
     0
 72
     0
 73
     0
 74
     0
  7

 75
     0
147
1.0
148
0.0
149
0.0
100
AcDbLayout
  1
Layout1
 70
     0
 71
     0
 10
0.0
 20
0.0
 11
0.0
 21
0.0
 12
0.0
 22
0.0
 32
0.0
 14
0.0
 24
0.0
 34
0.0
 15
0.0
 25
0.0
 35
0.0
146
0.0
 13
0.0
 23
0.0
 33
0.0
 16
0.0
 26
0.0
 36
0.0
 17
0.0
 27
0.0
 37
0.0
 76
     0
330
B
331
0
345
0
346
0
  0
DICTIONARY
  5
1E
102
{ACAD_REACTORS
330
19
102
}
100
AcDbDictionary
280
     0
281
     1
  3
Layout1
350
21
  3
Model
350
20
  0
DICTIONARY
  5
22
102
{ACAD_REACTORS
330
19
102
}
100
AcDbDictionary
280
     0
281
     1
  0
WIPEOUTVARIABLES
  5
23
100
AcDbWipeoutVariables
 70
     1
  0
ENDSEC
  0
EOF
