  0
SECTION
  2
HEADER
  9
$ACADVER
  1
AC1015
  9
$ACADMAINTVER
 70
     6
  9
$DWGCODEPAGE
  3
DOS850
  9
$INSBASE
 10
0.0
 20
0.0
 30
0.0
  9
$EXTMIN
 10
1.000000E+20
 20
1.000000E+20
 30
1.000000E+20
  9
$EXTMAX
 10
-1.000000E+20
 20
-1.000000E+20
 30
-1.000000E+20
  9
$LIMMIN
 10
0.0
 20
0.0
  9
$LIMMAX
 10
0.0
 20
0.0
  9
$ORTHOMODE
 70
     0
  9
$REGENMODE
 70
     1
  9
$FILLMODE
 70
     1
  9
$QTEXTMODE
 70
     0
  9
$MIRRTEXT
 70
     1
  9
$LTSCALE
 40
1.0
  9
$ATTMODE
 70
     1
  9
$TEXTSIZE
 40
0.2
  9
$TRACEWID
 40
0.05
  9
$TEXTSTYLE
  7
Standard
  9
$CLAYER
  8
0
  9
$CELTYPE
  6
Continuous
  9
$CECOLOR
 62
   256
  9
$CELTSCALE
 40
1.0
  9
$DISPSILH
 70
     0
  9
$DIMSCALE
 40
1.0
  9
$DIMASZ
 40
0.18
  9
$DIMEXO
 40
0.0625
  9
$DIMDLI
 40
0.38
  9
$DIMRND
 40
0.0
  9
$DIMDLE
 40
0.0
  9
$DIMEXE
 40
0.18
  9
$DIMTP
 40
0.0
  9
$DIMTM
 40
0.0
  9
$DIMTXT
 40
0.18
  9
$DIMCEN
 40
0.09
  9
$DIMTSZ
 40
0.0
  9
$DIMTOL
 70
     0
  9
$DIMLIM
 70
     0
  9
$DIMTIH
 70
     1
  9
$DIMTOH
 70
     1
  9
$DIMSE1
 70
     0
  9
$DIMSE2
 70
     0
  9
$DIMTAD
 70
     0
  9
$DIMZIN
 70
     0
  9
$DIMBLK
  1

  9
$DIMASO
 70
     1
  9
$DIMSHO
 70
     1
  9
$DIMPOST
  1

  9
$DIMAPOST
  1

  9
$DIMALT
 70
     0
  9
$DIMALTD
 70
     2
  9
$DIMALTF
 40
25.4
  9
$DIMLFAC
 40
1.0
  9
$DIMTOFL
 70
     0
  9
$DIMTVP
 40
0.0
  9
$DIMTIX
 70
     0
  9
$DIMSOXD
 70
     0
  9
$DIMSAH
 70
     0
  9
$DIMBLK1
  1

  9
$DIMBLK2
  1

  9
$DIMSTYLE
  2
Standard
  9
$DIMCLRD
 70
     0
  9
$DIMCLRE
 70
     0
  9
$DIMCLRT
 70
     0
  9
$DIMTFAC
 40
1.0
  9
$DIMGAP
 40
0.09
  9
$DIMJUST
 70
     0
  9
$DIMSD1
 70
     0
  9
$DIMSD2
 70
     0
  9
$DIMTOLJ
 70
     1
  9
$DIMTZIN
 70
     0
  9
$DIMALTZ
 70
     0
  9
$DIMALTTZ
 70
     0
  9
$DIMUPT
 70
     0
  9
$DIMDEC
 70
     4
  9
$DIMTDEC
 70
     4
  9
$DIMALTU
 70
     2
  9
$DIMALTTD
 70
     2
  9
$DIMTXSTY
  7
Standard
  9
$DIMAUNIT
 70
     0
  9
$DIMADEC
 70
     0
  9
$DIMALTRND
 40
0.0
  9
$DIMAZIN
 70
     0
  9
$DIMDSEP
 70
     0
  9
$DIMATFIT
 70
     3
  9
$DIMFRAC
 70
     0
  9
$DIMLDRBLK
  1

  9
$DIMLUNIT
 70
     2
  9
$DIMLWD
 70
     0
  9
$DIMLWE
 70
     0
  9
$DIMTMOVE
 70
     0
  9
$LUNITS
 70
     2
  9
$LUPREC
 70
     4
  9
$SKETCHINC
 40
0.1
  9
$FILLETRAD
 40
0.0
  9
$AUNITS
 70
     0
  9
$AUPREC
 70
     0
  9
$MENU
  1
acad
  9
$ELEVATION
 40
0.0
  9
$PELEVATION
 40
0.0
  9
$THICKNESS
 40
0.0
  9
$LIMCHECK
 70
     0
  9
$CHAMFERA
 40
0.0
  9
$CHAMFERB
 40
0.0
  9
$CHAMFERC
 40
0.0
  9
$CHAMFERD
 40
0.0
  9
$SKPOLY
 70
     0
  9
$TDCREATE
 40
0.000000000
  9
$TDUCREATE
 40
0.000000000
  9
$TDUPDATE
 40
0.000000000
  9
$TDUUPDATE
 40
0.000000000
  9
$TDINDWG
 40
0.0000000000
  9
$TDUSRTIMER
 40
0.0000000000
  9
$USRTIMER
 70
     1
  9
$ANGBASE
 50
0.0
  9
$ANGDIR
 70
     0
  9
$PDMODE
 70
     0
  9
$PDSIZE
 40
0.0
  9
$PLINEWID
 40
0.0
  9
$SPLFRAME
 70
     0
  9
$SPLINETYPE
 70
     6
  9
$SPLINESEGS
 70
     8
  9
$HANDSEED
  5
52A
  9
$SURFTAB1
 70
     6
  9
$SURFTAB2
 70
     6
  9
$SURFTYPE
 70
     6
  9
$SURFU
 70
     6
  9
$SURFV
 70
     6
  9
$UCSBASE
  2

  9
$UCSNAME
  2

  9
$UCSORG
 10
0.0
 20
0.0
 30
0.0
  9
$UCSXDIR
 10
1.0
 20
0.0
 30
0.0
  9
$UCSYDIR
 10
0.0
 20
1.0
 30
0.0
  9
$UCSORTHOREF
  2

  9
$UCSORTHOVIEW
 70
     0
  9
$UCSORGTOP
 10
0.0
 20
0.0
 30
0.0
  9
$UCSORGBOTTOM
 10
0.0
 20
0.0
 30
0.0
  9
$UCSORGLEFT
 10
0.0
 20
0.0
 30
0.0
  9
$UCSORGRIGHT
 10
0.0
 20
0.0
 30
0.0
  9
$UCSORGFRONT
 10
0.0
 20
0.0
 30
0.0
  9
$UCSORGBACK
 10
0.0
 20
0.0
 30
0.0
  9
$PUCSBASE
  2

  9
$PUCSNAME
  2

  9
$PUCSORG
 10
0.0
 20
0.0
 30
0.0
  9
$PUCSXDIR
 10
1.0
 20
0.0
 30
0.0
  9
$PUCSYDIR
 10
0.0
 20
1.0
 30
0.0
  9
$PUCSORTHOREF
  2

  9
$PUCSORTHOVIEW
 70
     0
  9
$PUCSORGTOP
 10
0.0
 20
0.0
 30
0.0
  9
$PUCSORGBOTTOM
 10
0.0
 20
0.0
 30
0.0
  9
$PUCSORGLEFT
 10
0.0
 20
0.0
 30
0.0
  9
$PUCSORGRIGHT
 10
0.0
 20
0.0
 30
0.0
  9
$PUCSORGFRONT
 10
0.0
 20
0.0
 30
0.0
  9
$PUCSORGBACK
 10
0.0
 20
0.0
 30
0.0
  9
$USERI1
 70
     0
  9
$USERI2
 70
     0
  9
$USERI3
 70
     0
  9
$USERI4
 70
     0
  9
$USERI5
 70
     0
  9
$USERR1
 40
0.0
  9
$USERR2
 40
0.0
  9
$USERR3
 40
0.0
  9
$USERR4
 40
0.0
  9
$USERR5
 40
0.0
  9
$WORLDVIEW
 70
     1
  9
$SHADEDGE
 70
     3
  9
$SHADEDIF
 70
    70
  9
$TILEMODE
 70
     1
  9
$MAXACTVP
 70
    16
  9
$PINSBASE
 10
0.0
 20
0.0
 30
0.0
  9
$PLIMCHECK
 70
     0
  9
$PEXTMIN
 10
1.000000E+20
 20
1.000000E+20
 30
1.000000E+20
  9
$PEXTMAX
 10
-1.000000E+20
 20
-1.000000E+20
 30
-1.000000E+20
  9
$PLIMMIN
 10
0.0
 20
0.0
  9
$PLIMMAX
 10
12.0
 20
9.0
  9
$UNITMODE
 70
     0
  9
$VISRETAIN
 70
     0
  9
$PLINEGEN
 70
     1
  9
$PSLTSCALE
 70
     0
  9
$TREEDEPTH
 70
  3020
  9
$CMLSTYLE
  2
Standard
  9
$CMLJUST
 70
     0
  9
$CMLSCALE
 40
1.0
  9
$PROXYGRAPHICS
 70
     0
  9
$MEASUREMENT
 70
     0
  9
$CELWEIGHT
370
     0
  9
$ENDCAPS
280
     0
  9
$JOINSTYLE
280
     0
  9
$LWDISPLAY
290
     0
  9
$INSUNITS
 70
     0
  9
$HYPERLINKBASE
  1

  9
$XEDIT
290
     1
  9
$CEPSNTYPE
380
     0
  9
$PSTYLEMODE
290
     1
  9
$FINGERPRINTGUID
  2

  9
$VERSIONGUID
  2

  9
$EXTNAMES
290
     1
  9
$PSVPSCALE
 40
0.0
  0
ENDSEC
  0
SECTION
  2
CLASSES
  0
CLASS
  1
LWPOLYLINE
  2
AcDbPolyline
  3
AutoCAD 2000
 90
        0
280
     0
281
     1
  0
CLASS
  1
IMAGE
  2
AcDbRasterImage
  3
ISM
 90
    32895
280
     0
281
     1
  0
CLASS
  1
OLE2FRAME
  2
AcDbOle2Frame
  3
AutoCAD 2000
 90
    32768
280
     0
281
     1
  0
CLASS
  1
HATCH
  2
AcDbHatch
  3
AutoCAD 2000
 90
    32768
280
     0
281
     1
  0
CLASS
  1
DICTIONARYVAR
  2
AcDbDictionaryVar
  3
AutoCAD 2000
 90
    32768
280
     0
281
     0
  0
CLASS
  1
RASTERVARIABLES
  2
AcDbRasterVariables
  3
ISM
 90
    32768
280
     0
281
     0
  0
CLASS
  1
IMAGEDEF
  2
AcDbRasterImageDef
  3
ISM
 90
    32768
280
     0
281
     0
  0
CLASS
  1
IMAGEDEF_REACTOR
  2
AcDbRasterImageDefReactor
  3
ISM
 90
    32769
280
     0
281
     0
  0
CLASS
  1
IDBUFFER
  2
AcDbIdBuffer
  3
AutoCAD 2000
 90
    32768
280
     0
281
     0
  0
CLASS
  1
SPATIAL_FILTER
  2
AcDbSpatialFilter
  3
AutoCAD 2000
 90
    32768
280
     0
281
     0
  0
CLASS
  1
XRECORD
  2
AcDbXrecord
  3
AutoCAD 2000
 90
    32768
280
     0
281
     0
  0
CLASS
  1
SORTENTSTABLE
  2
AcDbSortentsTable
  3
AutoCAD 2000
 90
    32768
280
     0
281
     0
  0
CLASS
  1
LAYER_INDEX
  2
AcDbLayerIndex
  3
AutoCAD 2000
 90
    32768
280
     0
281
     0
  0
CLASS
  1
SPATIAL_INDEX
  2
AcDbSpatialIndex
  3
AutoCAD 2000
 90
    32768
280
     0
281
     0
  0
CLASS
  1
OBJECT_PTR
  2
CAseDLPNTableRecord
  3
"ASE-LPNTableRecord"
 90
    32769
280
     0
281
     0
  0
CLASS
  1
LAYOUT
  2
AcDbLayout
  3
AutoCAD 2000
 90
        0
280
     0
281
     0
  0
CLASS
  1
PLOTSETTINGS
  2
AcDbPlotSettings
  3
AutoCAD 2000
 90
    32768
280
     0
281
     0
  0
CLASS
  1
ACDBDICTIONARYWDFLT
  2
AcDbDictionaryWithDefault
  3
AutoCAD 2000
 90
        0
280
     0
281
     0
  0
CLASS
  1
ACDBPLACEHOLDER
  2
AcDbPlaceHolder
  3
AutoCAD 2000
 90
        0
280
     0
281
     0
  0
CLASS
  1
VBA_PROJECT
  2
AcDbVbaProject
  3
acadvba
 90
    32768
280
     0
281
     0
  0
CLASS
  1
WIPEOUT
  2
AcDbWipeout
  3
WipeOut|AutoCAD Express Tool|expresstools@autodesk.com
 90
    32895
280
     0
281
     1
  0
CLASS
  1
WIPEOUTVARIABLES
  2
AcDbWipeoutVariables
  3
WipeOut|AutoCAD Express Tool|expresstools@autodesk.com
 90
        0
280
     0
281
     0
  0
CLASS
  1
RTEXT
  2
RText
  3
RText|AutoCAD Express Tool|expresstools@autodesk.com
 90
    32768
280
     0
281
     1
  0
CLASS
  1
ARCALIGNEDTEXT
  2
AcDbArcAlignedText
  3
ATEXT|AutoCAD Express Tool|expresstools@autodesk.com
 90
    32768
280
     0
281
     1
  0
ENDSEC
  0
SECTION
  2
TABLES
  0
TABLE
  2
VPORT
  5
7
100
AcDbSymbolTable
 70
     1
  0
VPORT
  5
15
100
AcDbSymbolTableRecord
100
AcDbViewportTableRecord
  2
*ACTIVE
 70
     0
 10
0.0
 20
0.0
 11
1.0
 21
1.0
 12
6.591288
 22
4.579184
 13
0.0
 23
0.0
 14
1.0
 24
1.0
 15
0.0
 25
0.0
 16
0.0
 26
0.0
 36
1.0
 17
0.0
 27
0.0
 37
0.0
 40
9.158369
 41
0.688564
 42
50.0
 43
0.0
 44
0.0
 50
0.0
 51
0.0
 71
     0
 72
   100
 73
     1
 74
     1
 75
     0
 76
     0
 77
     0
 78
     0
281
     0
 65
     0
110
0.0
120
0.0
130
0.0
111
1.0
121
0.0
131
0.0
112
0.0
122
1.0
132
0.0
345
0
346
0
 79
     0
146
0.0
  0
ENDTAB
  0
TABLE
  2
LTYPE
  5
4
100
AcDbSymbolTable
 70
     3
  0
LTYPE
  5
11
100
AcDbSymbolTableRecord
100
AcDbLinetypeTableRecord
  2
ByBlock
 70
    64
  3

 72
    65
 73
     0
 40
0.0
  0
LTYPE
  5
12
100
AcDbSymbolTableRecord
100
AcDbLinetypeTableRecord
  2
ByLayer
 70
    64
  3

 72
    65
 73
     0
 40
0.0
  0
LTYPE
  5
13
100
AcDbSymbolTableRecord
100
AcDbLinetypeTableRecord
  2
Continuous
 70
    64
  3
Solid line
 72
    65
 73
     0
 40
0.0
  0
ENDTAB
  0
TABLE
  2
LAYER
  5
2
100
AcDbSymbolTable
 70
     1
  0
LAYER
  5
14
100
AcDbSymbolTableRecord
100
AcDbLayerTableRecord
  2
0
 70
     0
 62
     7
  6
Continuous
290
     1
370
    -3
390
1D
  0
ENDTAB
  0
TABLE
  2
STYLE
  5
3
100
AcDbSymbolTable
 70
     1
  0
STYLE
  5
17
100
AcDbSymbolTableRecord
100
AcDbTextStyleTableRecord
  2
Standard
 70
     0
 40
0.0
 41
1.0
 50
0.0
 71
     0
 42
0.0
  3
txt
  4

  0
ENDTAB
  0
TABLE
  2
VIEW
  5
5
100
AcDbSymbolTable
 70
     0
  0
ENDTAB
  0
TABLE
  2
UCS
  5
6
100
AcDbSymbolTable
 70
     0
  0
ENDTAB
  0
TABLE
  2
APPID
  5
8
100
AcDbSymbolTable
 70
     1
  0
APPID
  5
16
100
AcDbSymbolTableRecord
100
AcDbRegAppTableRecord
  2
ACAD
 70
     0
  0
ENDTAB
  0
TABLE
  2
DIMSTYLE
  5
9
100
AcDbSymbolTable
 70
     1
100
AcDbDimStyleTable
 71
     0
  0
DIMSTYLE
105
18
100
AcDbSymbolTableRecord
100
AcDbDimStyleTableRecord
  2
Standard
 70
     0
  3

  4

 40
1.0
 41
0.18
 42
0.0625
 43
0.38
 44
0.18
 45
0.0
 46
0.0
 47
0.0
 48
0.0
 71
     0
 72
     0
 73
     1
 74
     1
 75
     0
 76
     0
 77
     0
 78
     0
 79
     0
140
0.18
141
0.09
142
0.0
143
25.4
144
1.0
145
0.0
146
1.0
147
0.09
148
0.0
170
     0
171
     2
172
     0
173
     0
174
     0
175
     0
176
     0
177
     0
178
     0
179
     0
271
     4
272
     4
273
     2
274
     2
275
     0
276
     0
277
     2
278
    46
279
     0
280
     0
281
     0
282
     0
283
     1
284
     0
285
     0
286
     0
288
     0
340
17
341
0
342
0
343
0
344
0
371
    -2
372
    -2
  0
ENDTAB
  0
TABLE
  2
BLOCK_RECORD
  5
1
100
AcDbSymbolTable
 70
     0
  0
BLOCK_RECORD
  5
A
100
AcDbSymbolTableRecord
100
AcDbBlockTableRecord
  2
*MODEL_SPACE
340
20
  0
BLOCK_RECORD
  5
B
100
AcDbSymbolTableRecord
100
AcDbBlockTableRecord
  2
*PAPER_SPACE
340
21
  0
ENDTAB
  0
ENDSEC
  0
SECTION
  2
BLOCKS
  0
BLOCK
  5
D
100
AcDbEntity
  8
0
100
AcDbBlockBegin
  2
*MODEL_SPACE
 70
     0
 10
0.0
 20
0.0
 30
0.0
  3
*MODEL_SPACE
  1

  0
ENDBLK
  5
E
100
AcDbEntity
  8
0
100
AcDbBlockEnd
  0
BLOCK
  5
F
100
AcDbEntity
 67
     1
  8
0
100
AcDbBlockBegin
  2
*PAPER_SPACE
 70
     0
 10
0.0
 20
0.0
 30
0.0
  3
*PAPER_SPACE
  1

  0
ENDBLK
  5
10
100
AcDbEntity
 67
     1
  8
0
100
AcDbBlockEnd
  0
ENDSEC
  0
SECTION
  2
ENTITIES
  0
LWPOLYLINE
  5
24
100
AcDbEntity
  8
0
 62
     0
100
AcDbPolyline
 90
        2
 70
     0
 39
0.003
 10
2.285264
 20
3.179264
 40
0.003
 41
0.003
 10
2.285264
 20
3.241933
 40
0.003
 41
0.003
  0
SPLINE
  5
25
100
AcDbEntity
  8
0
 62
     0
100
AcDbSpline
210
0.0
220
0.0
230
1.0
 70
     0
 71
     3
 72
     0
 73
     0
 74
    48
 44
0.0000000001
 11
2.285263779527559
 21
3.2419330708661418
 31
0.0
 11
2.2981692913385827
 21
3.2425826771653545
 31
0.0
 11
2.310716535433071
 21
3.2445078740157482
 31
0.0
 11
2.3228307086614173
 21
3.2476338582677164
 31
0.0
 11
2.3344527559055117
 21
3.2519015748031497
 31
0.0
 11
2.3455118110236222
 21
3.2572401574803149
 31
0.0
 11
2.3559527559055118
 21
3.2635944881889762
 31
0.0
 11
2.365700787401575
 21
3.2708937007874015
 31
0.0
 11
2.3747047244094488
 21
3.2790748031496064
 31
0.0
 11
2.3828779527559054
 21
3.2880669291338585
 31
0.0
 11
2.3901771653543307
 21
3.2978188976377951
 31
0.0
 11
2.396531496062992
 21
3.3082559055118108
 31
0.0
 11
2.4018779527559055
 21
3.3193188976377952
 31
0.0
 11
2.4061456692913388
 21
3.3309370078740157
 31
0.0
 11
2.4092755905511809
 21
3.3430551181102364
 31
0.0
 11
2.4112007874015746
 21
3.3556023622047246
 31
0.0
 11
2.4118582677165352
 21
3.3685196850393702
 31
0.0
 11
2.4112007874015746
 21
3.3814527559055119
 31
0.0
 11
2.4092755905511809
 21
3.3940787401574801
 31
0.0
 11
2.4061456692913388
 21
3.4063149606299215
 31
0.0
 11
2.4018779527559055
 21
3.4180984251968503
 31
0.0
 11
2.396531496062992
 21
3.4293464566929135
 31
0.0
 11
2.3901771653543307
 21
3.439996062992126
 31
0.0
 11
2.3828779527559054
 21
3.4499724409448818
 31
0.0
 11
2.3747047244094488
 21
3.459208661417323
 31
0.0
 11
2.365700787401575
 21
3.4676181102362205
 31
0.0
 11
2.3559527559055118
 21
3.4751456692913387
 31
0.0
 11
2.3455118110236222
 21
3.4817086614173229
 31
0.0
 11
2.3344527559055117
 21
3.4872440944881888
 31
0.0
 11
2.3228307086614173
 21
3.4916692913385825
 31
0.0
 11
2.310716535433071
 21
3.4949212598425197
 31
0.0
 11
2.2981692913385827
 21
3.4969291338582678
 31
0.0
 11
2.285263779527559
 21
3.4976141732283463
 31
0.0
 11
2.2875787401574805
 21
3.5961141732283464
 31
0.0
 11
2.2795787401574805
 21
3.6914409448818897
 31
0.0
 11
2.2619133858267717
 21
3.7832834645669293
 31
0.0
 11
2.2352401574803151
 21
3.8713385826771654
 31
0.0
 11
2.2002007874015748
 21
3.9552913385826773
 31
0.0
 11
2.1574645669291339
 21
4.034858267716535
 31
0.0
 11
2.1076732283464565
 21
4.1097204724409453
 31
0.0
 11
2.051492125984252
 21
4.1795787401574804
 31
0.0
 11
1.9895551181102362
 21
4.2441181102362204
 31
0.0
 11
1.9225314960629922
 21
4.303047244094488
 31
0.0
 11
1.8510669291338582
 21
4.3560590551181102
 31
0.0
 11
1.7758228346456693
 21
4.4028582677165353
 31
0.0
 11
1.6974370078740157
 21
4.4431181102362203
 31
0.0
 11
1.6165826771653544
 21
4.4765551181102365
 31
0.0
 11
1.5339015748031497
 21
4.5028543307086615
 31
0.0
  0
LWPOLYLINE
  5
26
100
AcDbEntity
  8
0
 62
     0
100
AcDbPolyline
 90
        2
 70
     0
 39
0.003
 10
1.533902
 20
4.502854
 40
0.003
 41
0.003
 10
1.450055
 20
4.521724
 40
0.003
 41
0.003
  0
LWPOLYLINE
  5
27
100
AcDbEntity
  8
0
 62
     0
100
AcDbPolyline
 90
        2
 70
     0
 39
0.003
 10
1.450055
 20
4.521724
 40
0.003
 41
0.003
 10
0.137661
 20
4.739268
 40
0.003
 41
0.003
  0
LWPOLYLINE
  5
28
100
AcDbEntity
  8
0
 62
     0
100
AcDbPolyline
 90
        2
 70
     0
 39
0.003
 10
0.137661
 20
4.739268
 40
0.003
 41
0.003
 10
-1.174575
 20
4.521728
 40
0.003
 41
0.003
  0
SPLINE
  5
29
100
AcDbEntity
  8
0
 62
     0
100
AcDbSpline
210
0.0
220
0.0
230
1.0
 70
     0
 71
     3
 72
     0
 73
     0
 74
    48
 44
0.0000000001
 11
-1.1745748031496064
 21
4.5217283464566931
 31
0.0
 11
-1.2584212598425197
 21
4.5028582677165359
 31
0.0
 11
-1.3411023622047245
 21
4.47655905511811
 31
0.0
 11
-1.4219566929133858
 21
4.4431220472440947
 31
0.0
 11
-1.5003425196850393
 21
4.4028622047244097
 31
0.0
 11
-1.5755866141732284
 21
4.3560629921259846
 31
0.0
 11
-1.6470511811023623
 21
4.3030511811023624
 31
0.0
 11
-1.7140748031496063
 21
4.2441220472440948
 31
0.0
 11
-1.776011811023622
 21
4.1795826771653539
 31
0.0
 11
-1.8321929133858268
 21
4.1097244094488188
 31
0.0
 11
-1.8819842519685039
 21
4.0348661417322838
 31
0.0
 11
-1.9247204724409448
 21
3.9552992125984252
 31
0.0
 11
-1.9597598425196849
 21
3.8713464566929132
 31
0.0
 11
-1.9864330708661417
 21
3.7832913385826772
 31
0.0
 11
-2.0040984251968506
 21
3.691448818897638
 31
0.0
 11
-2.0120984251968506
 21
3.5961220472440947
 31
0.0
 11
-2.009783464566929
 21
3.4976220472440946
 31
0.0
 11
-2.0226889763779528
 21
3.4969370078740156
 31
0.0
 11
-2.035236220472441
 21
3.4949291338582675
 31
0.0
 11
-2.0473503937007873
 21
3.4916771653543308
 31
0.0
 11
-2.0589724409448817
 21
3.4872519685039371
 31
0.0
 11
-2.0700314960629922
 21
3.4817165354330708
 31
0.0
 11
-2.0804724409448818
 21
3.4751535433070866
 31
0.0
 11
-2.090220472440945
 21
3.4676259842519683
 31
0.0
 11
-2.0992244094488188
 21
3.4592165354330708
 31
0.0
 11
-2.1073976377952754
 21
3.4499803149606301
 31
0.0
 11
-2.1146968503937007
 21
3.4400039370078739
 31
0.0
 11
-2.121051181102362
 21
3.4293543307086614
 31
0.0
 11
-2.1263976377952756
 21
3.4181062992125986
 31
0.0
 11
-2.1306653543307088
 21
3.4063228346456693
 31
0.0
 11
-2.1337952755905514
 21
3.3940826771653545
 31
0.0
 11
-2.1357204724409451
 21
3.3814566929133858
 31
0.0
 11
-2.1363779527559057
 21
3.3685236220472441
 31
0.0
 11
-2.1357204724409451
 21
3.3556062992125986
 31
0.0
 11
-2.1337952755905514
 21
3.3430590551181103
 31
0.0
 11
-2.1306653543307088
 21
3.3309409448818896
 31
0.0
 11
-2.1263976377952756
 21
3.3193228346456691
 31
0.0
 11
-2.121051181102362
 21
3.3082598425196852
 31
0.0
 11
-2.1146968503937007
 21
3.2978228346456695
 31
0.0
 11
-2.1073976377952754
 21
3.2880708661417324
 31
0.0
 11
-2.0992244094488188
 21
3.2790787401574804
 31
0.0
 11
-2.090220472440945
 21
3.2708976377952754
 31
0.0
 11
-2.0804724409448818
 21
3.2635984251968502
 31
0.0
 11
-2.0700314960629922
 21
3.2572440944881889
 31
0.0
 11
-2.0589724409448817
 21
3.2519055118110236
 31
0.0
 11
-2.0473503937007873
 21
3.2476377952755904
 31
0.0
 11
-2.035236220472441
 21
3.2445118110236222
 31
0.0
 11
-2.0226889763779528
 21
3.2425866141732285
 31
0.0
  0
LWPOLYLINE
  5
2A
100
AcDbEntity
  8
0
 62
     0
100
AcDbPolyline
 90
        2
 70
     0
 39
0.003
 10
-2.022689
 20
3.242587
 40
0.003
 41
0.003
 10
-2.009783
 20
3.241937
 40
0.003
 41
0.003
  0
LWPOLYLINE
  5
2B
100
AcDbEntity
  8
0
 62
     0
100
AcDbPolyline
 90
        2
 70
     0
 39
0.003
 10
-2.009783
 20
3.241937
 40
0.003
 41
0.003
 10
-2.009783
 20
3.179264
 40
0.003
 41
0.003
  0
LWPOLYLINE
  5
2C
100
AcDbEntity
  8
0
 62
     0
100
AcDbPolyline
 90
        2
 70
     0
 39
0.003
 10
-2.009783
 20
3.179264
 40
0.003
 41
0.003
 10
2.285264
 20
3.179264
 40
0.003
 41
0.003
  0
LWPOLYLINE
  5
2D
100
AcDbEntity
  8
0
 62
   254
100
AcDbPolyline
 90
        2
 70
     0
 39
0.003
 10
1.784917
 20
0.467524
 40
0.003
 41
0.003
 10
2.442
 20
0.83711
 40
0.003
 41
0.003
  0
LWPOLYLINE
  5
2E
100
AcDbEntity
  8
0
 62
   254
100
AcDbPolyline
 90
        2
 70
     0
 39
0.003
 10
2.442
 20
0.83711
 40
0.003
 41
0.003
 10
2.442
 20
0.89978
 40
0.003
 41
0.003
  0
LWPOLYLINE
  5
2F
100
AcDbEntity
  8
0
 62
   254
100
AcDbPolyline
 90
        2
 70
     0
 39
0.003
 10
2.442
 20
0.89978
 40
0.003
 41
0.003
 10
1.784917
 20
0.530193
 40
0.003
 41
0.003
  0
LWPOLYLINE
  5
30
100
AcDbEntity
  8
0
 62
   254
100
AcDbPolyline
 90
        2
 70
     0
 39
0.003
 10
1.784917
 20
0.530193
 40
0.003
 41
0.003
 10
1.784917
 20
0.467524
 40
0.003
 41
0.003
  0
LWPOLYLINE
  5
31
100
AcDbEntity
  8
0
 62
     0
100
AcDbPolyline
 90
        2
 70
     0
 39
0.003
 10
1.784917
 20
0.467524
 40
0.003
 41
0.003
 10
2.442
 20
0.83711
 40
0.003
 41
0.003
  0
LWPOLYLINE
  5
32
100
AcDbEntity
  8
0
 62
     0
100
AcDbPolyline
 90
        2
 70
     0
 39
0.003
 10
2.442
 20
0.83711
 40
0.003
 41
0.003
 10
2.442
 20
0.89978
 40
0.003
 41
0.003
  0
LWPOLYLINE
  5
33
100
AcDbEntity
  8
0
 62
     0
100
AcDbPolyline
 90
        2
 70
     0
 39
0.003
 10
2.442
 20
0.89978
 40
0.003
 41
0.003
 10
1.784917
 20
0.530193
 40
0.003
 41
0.003
  0
LWPOLYLINE
  5
34
100
AcDbEntity
  8
0
 62
     0
100
AcDbPolyline
 90
        2
 70
     0
 39
0.003
 10
1.784917
 20
0.530193
 40
0.003
 41
0.003
 10
1.784917
 20
0.467524
 40
0.003
 41
0.003
  0
LWPOLYLINE
  5
35
100
AcDbEntity
  8
0
 62
   253
100
AcDbPolyline
 90
        2
 70
     0
 39
0.003
 10
1.855606
 20
0.551854
 40
0.003
 41
0.003
 10
2.512689
 20
0.921441
 40
0.003
 41
0.003
  0
LWPOLYLINE
  5
36
100
AcDbEntity
  8
0
 62
   253
100
AcDbPolyline
 90
        2
 70
     0
 39
0.003
 10
2.512689
 20
0.921441
 40
0.003
 41
0.003
 10
2.51765
 20
0.924972
 40
0.003
 41
0.003
  0
LWPOLYLINE
  5
37
100
AcDbEntity
  8
0
 62
   253
100
AcDbPolyline
 90
        2
 70
     0
 39
0.003
 10
2.51765
 20
0.924972
 40
0.003
 41
0.003
 10
1.860567
 20
0.555386
 40
0.003
 41
0.003
  0
LWPOLYLINE
  5
38
100
AcDbEntity
  8
0
 62
   253
100
AcDbPolyline
 90
        2
 70
     0
 39
0.003
 10
1.860567
 20
0.555386
 40
0.003
 41
0.003
 10
1.855606
 20
0.551854
 40
0.003
 41
0.003
  0
LWPOLYLINE
  5
39
100
AcDbEntity
  8
0
 62
     9
100
AcDbPolyline
 90
        2
 70
     0
 39
0.003
 10
1.860567
 20
0.555386
 40
0.003
 41
0.003
 10
2.51765
 20
0.924972
 40
0.003
 41
0.003
  0
LWPOLYLINE
  5
3A
100
AcDbEntity
  8
0
 62
     9
100
AcDbPolyline
 90
        2
 70
     0
 39
0.003
 10
2.51765
 20
0.924972
 40
0.003
 41
0.003
 10
2.522437
 20
0.92874
 40
0.003
 41
0.003
  0
LWPOLYLINE
  5
3B
100
AcDbEntity
  8
0
 62
     9
100
AcDbPolyline
 90
        2
 70
     0
 39
0.003
 10
2.522437
 20
0.92874
 40
0.003
 41
0.003
 10
1.865354
 20
0.559154
 40
0.003
 41
0.003
  0
LWPOLYLINE
  5
3C
100
AcDbEntity
  8
0
 62
     9
100
AcDbPolyline
 90
        2
 70
     0
 39
0.003
 10
1.865354
 20
0.559154
 40
0.003
 41
0.003
 10
1.860567
 20
0.555386
 40
0.003
 41
0.003
  0
LWPOLYLINE
  5
3D
100
AcDbEntity
  8
0
 62
     9
100
AcDbPolyline
 90
        2
 70
     0
 39
0.003
 10
1.865354
 20
0.559154
 40
0.003
 41
0.003
 10
2.522437
 20
0.92874
 40
0.003
 41
0.003
  0
LWPOLYLINE
  5
3E
100
AcDbEntity
  8
0
 62
     9
100
AcDbPolyline
 90
        2
 70
     0
 39
0.003
 10
2.522437
 20
0.92874
 40
0.003
 41
0.003
 10
2.527031
 20
0.93272
 40
0.003
 41
0.003
  0
LWPOLYLINE
  5
3F
100
AcDbEntity
  8
0
 62
     9
100
AcDbPolyline
 90
        2
 70
     0
 39
0.003
 10
2.527031
 20
0.93272
 40
0.003
 41
0.003
 10
1.869949
 20
0.563134
 40
0.003
 41
0.003
  0
LWPOLYLINE
  5
40
100
AcDbEntity
  8
0
 62
     9
100
AcDbPolyline
 90
        2
 70
     0
 39
0.003
 10
1.869949
 20
0.563134
 40
0.003
 41
0.003
 10
1.865354
 20
0.559154
 40
0.003
 41
0.003
  0
LWPOLYLINE
  5
41
100
AcDbEntity
  8
0
 62
     9
100
AcDbPolyline
 90
        2
 70
     0
 39
0.003
 10
1.869949
 20
0.563134
 40
0.003
 41
0.003
 10
2.527031
 20
0.93272
 40
0.003
 41
0.003
  0
LWPOLYLINE
  5
42
100
AcDbEntity
  8
0
 62
     9
100
AcDbPolyline
 90
        2
 70
     0
 39
0.003
 10
2.527031
 20
0.93272
 40
0.003
 41
0.003
 10
2.531441
 20
0.936921
 40
0.003
 41
0.003
  0
LWPOLYLINE
  5
43
100
AcDbEntity
  8
0
 62
     9
100
AcDbPolyline
 90
        2
 70
     0
 39
0.003
 10
2.531441
 20
0.936921
 40
0.003
 41
0.003
 10
1.874358
 20
0.567335
 40
0.003
 41
0.003
  0
LWPOLYLINE
  5
44
100
AcDbEntity
  8
0
 62
     9
100
AcDbPolyline
 90
        2
 70
     0
 39
0.003
 10
1.874358
 20
0.567335
 40
0.003
 41
0.003
 10
1.869949
 20
0.563134
 40
0.003
 41
0.003
  0
LWPOLYLINE
  5
45
100
AcDbEntity
  8
0
 62
     9
100
AcDbPolyline
 90
        2
 70
     0
 39
0.003
 10
1.874358
 20
0.567335
 40
0.003
 41
0.003
 10
2.531441
 20
0.936921
 40
0.003
 41
0.003
  0
LWPOLYLINE
  5
46
100
AcDbEntity
  8
0
 62
     9
100
AcDbPolyline
 90
        2
 70
     0
 39
0.003
 10
2.531441
 20
0.936921
 40
0.003
 41
0.003
 10
2.535634
 20
0.941319
 40
0.003
 41
0.003
  0
LWPOLYLINE
  5
47
100
AcDbEntity
  8
0
 62
     9
100
AcDbPolyline
 90
        2
 70
     0
 39
0.003
 10
2.535634
 20
0.941319
 40
0.003
 41
0.003
 10
1.878551
 20
0.571732
 40
0.003
 41
0.003
  0
LWPOLYLINE
  5
48
100
AcDbEntity
  8
0
 62
     9
100
AcDbPolyline
 90
        2
 70
     0
 39
0.003
 10
1.878551
 20
0.571732
 40
0.003
 41
0.003
 10
1.874358
 20
0.567335
 40
0.003
 41
0.003
  0
LWPOLYLINE
  5
49
100
AcDbEntity
  8
0
 62
     9
100
AcDbPolyline
 90
        2
 70
     0
 39
0.003
 10
1.878551
 20
0.571732
 40
0.003
 41
0.003
 10
2.535634
 20
0.941319
 40
0.003
 41
0.003
  0
LWPOLYLINE
  5
4A
100
AcDbEntity
  8
0
 62
     9
100
AcDbPolyline
 90
        2
 70
     0
 39
0.003
 10
2.535634
 20
0.941319
 40
0.003
 41
0.003
 10
2.539614
 20
0.945913
 40
0.003
 41
0.003
  0
LWPOLYLINE
  5
4B
100
AcDbEntity
  8
0
 62
     9
100
AcDbPolyline
 90
        2
 70
     0
 39
0.003
 10
2.539614
 20
0.945913
 40
0.003
 41
0.003
 10
1.882531
 20
0.576327
 40
0.003
 41
0.003
  0
LWPOLYLINE
  5
4C
100
AcDbEntity
  8
0
 62
     9
100
AcDbPolyline
 90
        2
 70
     0
 39
0.003
 10
1.882531
 20
0.576327
 40
0.003
 41
0.003
 10
1.878551
 20
0.571732
 40
0.003
 41
0.003
  0
LWPOLYLINE
  5
4D
100
AcDbEntity
  8
0
 62
   254
100
AcDbPolyline
 90
        2
 70
     0
 39
0.003
 10
1.882531
 20
0.576327
 40
0.003
 41
0.003
 10
2.539614
 20
0.945913
 40
0.003
 41
0.003
  0
LWPOLYLINE
  5
4E
100
AcDbEntity
  8
0
 62
   254
100
AcDbPolyline
 90
        2
 70
     0
 39
0.003
 10
2.539614
 20
0.945913
 40
0.003
 41
0.003
 10
2.543374
 20
0.950697
 40
0.003
 41
0.003
  0
LWPOLYLINE
  5
4F
100
AcDbEntity
  8
0
 62
   254
100
AcDbPolyline
 90
        2
 70
     0
 39
0.003
 10
2.543374
 20
0.950697
 40
0.003
 41
0.003
 10
1.886291
 20
0.58111
 40
0.003
 41
0.003
  0
LWPOLYLINE
  5
50
100
AcDbEntity
  8
0
 62
   254
100
AcDbPolyline
 90
        2
 70
     0
 39
0.003
 10
1.886291
 20
0.58111
 40
0.003
 41
0.003
 10
1.882531
 20
0.576327
 40
0.003
 41
0.003
  0
LWPOLYLINE
  5
51
100
AcDbEntity
  8
0
 62
   254
100
AcDbPolyline
 90
        2
 70
     0
 39
0.003
 10
1.886291
 20
0.58111
 40
0.003
 41
0.003
 10
2.543374
 20
0.950697
 40
0.003
 41
0.003
  0
LWPOLYLINE
  5
52
100
AcDbEntity
  8
0
 62
   254
100
AcDbPolyline
 90
        2
 70
     0
 39
0.003
 10
2.543374
 20
0.950697
 40
0.003
 41
0.003
 10
2.546913
 20
0.955665
 40
0.003
 41
0.003
  0
LWPOLYLINE
  5
53
100
AcDbEntity
  8
0
 62
   254
100
AcDbPolyline
 90
        2
 70
     0
 39
0.003
 10
2.546913
 20
0.955665
 40
0.003
 41
0.003
 10
1.889831
 20
0.586079
 40
0.003
 41
0.003
  0
LWPOLYLINE
  5
54
100
AcDbEntity
  8
0
 62
   254
100
AcDbPolyline
 90
        2
 70
     0
 39
0.003
 10
1.889831
 20
0.586079
 40
0.003
 41
0.003
 10
1.886291
 20
0.58111
 40
0.003
 41
0.003
  0
LWPOLYLINE
  5
55
100
AcDbEntity
  8
0
 62
   254
100
AcDbPolyline
 90
        2
 70
     0
 39
0.003
 10
1.889831
 20
0.586079
 40
0.003
 41
0.003
 10
2.546913
 20
0.955665
 40
0.003
 41
0.003
  0
LWPOLYLINE
  5
56
100
AcDbEntity
  8
0
 62
   254
100
AcDbPolyline
 90
        2
 70
     0
 39
0.003
 10
2.546913
 20
0.955665
 40
0.003
 41
0.003
 10
2.550209
 20
0.960799
 40
0.003
 41
0.003
  0
LWPOLYLINE
  5
57
100
AcDbEntity
  8
0
 62
   254
100
AcDbPolyline
 90
        2
 70
     0
 39
0.003
 10
2.550209
 20
0.960799
 40
0.003
 41
0.003
 10
1.893126
 20
0.591213
 40
0.003
 41
0.003
  0
LWPOLYLINE
  5
58
100
AcDbEntity
  8
0
 62
   254
100
AcDbPolyline
 90
        2
 70
     0
 39
0.003
 10
1.893126
 20
0.591213
 40
0.003
 41
0.003
 10
1.889831
 20
0.586079
 40
0.003
 41
0.003
  0
LWPOLYLINE
  5
59
100
AcDbEntity
  8
0
 62
   254
100
AcDbPolyline
 90
        2
 70
     0
 39
0.003
 10
1.893126
 20
0.591213
 40
0.003
 41
0.003
 10
2.550209
 20
0.960799
 40
0.003
 41
0.003
  0
LWPOLYLINE
  5
5A
100
AcDbEntity
  8
0
 62
   254
100
AcDbPolyline
 90
        2
 70
     0
 39
0.003
 10
2.550209
 20
0.960799
 40
0.003
 41
0.003
 10
2.553268
 20
0.966102
 40
0.003
 41
0.003
  0
LWPOLYLINE
  5
5B
100
AcDbEntity
  8
0
 62
   254
100
AcDbPolyline
 90
        2
 70
     0
 39
0.003
 10
2.553268
 20
0.966102
 40
0.003
 41
0.003
 10
1.896185
 20
0.596516
 40
0.003
 41
0.003
  0
LWPOLYLINE
  5
5C
100
AcDbEntity
  8
0
 62
   254
100
AcDbPolyline
 90
        2
 70
     0
 39
0.003
 10
1.896185
 20
0.596516
 40
0.003
 41
0.003
 10
1.893126
 20
0.591213
 40
0.003
 41
0.003
  0
LWPOLYLINE
  5
5D
100
AcDbEntity
  8
0
 62
   254
100
AcDbPolyline
 90
        2
 70
     0
 39
0.003
 10
1.896185
 20
0.596516
 40
0.003
 41
0.003
 10
2.553268
 20
0.966102
 40
0.003
 41
0.003
  0
LWPOLYLINE
  5
5E
100
AcDbEntity
  8
0
 62
   254
100
AcDbPolyline
 90
        2
 70
     0
 39
0.003
 10
2.553268
 20
0.966102
 40
0.003
 41
0.003
 10
2.556067
 20
0.971555
 40
0.003
 41
0.003
  0
LWPOLYLINE
  5
5F
100
AcDbEntity
  8
0
 62
   254
100
AcDbPolyline
 90
        2
 70
     0
 39
0.003
 10
2.556067
 20
0.971555
 40
0.003
 41
0.003
 10
1.898984
 20
0.601969
 40
0.003
 41
0.003
  0
LWPOLYLINE
  5
60
100
AcDbEntity
  8
0
 62
   254
100
AcDbPolyline
 90
        2
 70
     0
 39
0.003
 10
1.898984
 20
0.601969
 40
0.003
 41
0.003
 10
1.896185
 20
0.596516
 40
0.003
 41
0.003
  0
LWPOLYLINE
  5
61
100
AcDbEntity
  8
0
 62
   254
100
AcDbPolyline
 90
        2
 70
     0
 39
0.003
 10
1.898984
 20
0.601969
 40
0.003
 41
0.003
 10
2.556067
 20
0.971555
 40
0.003
 41
0.003
  0
LWPOLYLINE
  5
62
100
AcDbEntity
  8
0
 62
   254
100
AcDbPolyline
 90
        2
 70
     0
 39
0.003
 10
2.556067
 20
0.971555
 40
0.003
 41
0.003
 10
2.558614
 20
0.977165
 40
0.003
 41
0.003
  0
LWPOLYLINE
  5
63
100
AcDbEntity
  8
0
 62
   254
100
AcDbPolyline
 90
        2
 70
     0
 39
0.003
 10
2.558614
 20
0.977165
 40
0.003
 41
0.003
 10
1.901531
 20
0.607579
 40
0.003
 41
0.003
  0
LWPOLYLINE
  5
64
100
AcDbEntity
  8
0
 62
   254
100
AcDbPolyline
 90
        2
 70
     0
 39
0.003
 10
1.901531
 20
0.607579
 40
0.003
 41
0.003
 10
1.898984
 20
0.601969
 40
0.003
 41
0.003
  0
LWPOLYLINE
  5
65
100
AcDbEntity
  8
0
 62
   254
100
AcDbPolyline
 90
        2
 70
     0
 39
0.003
 10
1.901531
 20
0.607579
 40
0.003
 41
0.003
 10
2.558614
 20
0.977165
 40
0.003
 41
0.003
  0
LWPOLYLINE
  5
66
100
AcDbEntity
  8
0
 62
   254
100
AcDbPolyline
 90
        2
 70
     0
 39
0.003
 10
2.558614
 20
0.977165
 40
0.003
 41
0.003
 10
2.560886
 20
0.982906
 40
0.003
 41
0.003
  0
LWPOLYLINE
  5
67
100
AcDbEntity
  8
0
 62
   254
100
AcDbPolyline
 90
        2
 70
     0
 39
0.003
 10
2.560886
 20
0.982906
 40
0.003
 41
0.003
 10
1.903803
 20
0.613319
 40
0.003
 41
0.003
  0
LWPOLYLINE
  5
68
100
AcDbEntity
  8
0
 62
   254
100
AcDbPolyline
 90
        2
 70
     0
 39
0.003
 10
1.903803
 20
0.613319
 40
0.003
 41
0.003
 10
1.901531
 20
0.607579
 40
0.003
 41
0.003
  0
LWPOLYLINE
  5
69
100
AcDbEntity
  8
0
 62
   254
100
AcDbPolyline
 90
        2
 70
     0
 39
0.003
 10
1.903803
 20
0.613319
 40
0.003
 41
0.003
 10
2.560886
 20
0.982906
 40
0.003
 41
0.003
  0
LWPOLYLINE
  5
6A
100
AcDbEntity
  8
0
 62
   254
100
AcDbPolyline
 90
        2
 70
     0
 39
0.003
 10
2.560886
 20
0.982906
 40
0.003
 41
0.003
 10
2.562882
 20
0.988783
 40
0.003
 41
0.003
  0
LWPOLYLINE
  5
6B
100
AcDbEntity
  8
0
 62
   254
100
AcDbPolyline
 90
        2
 70
     0
 39
0.003
 10
2.562882
 20
0.988783
 40
0.003
 41
0.003
 10
1.905799
 20
0.619197
 40
0.003
 41
0.003
  0
LWPOLYLINE
  5
6C
100
AcDbEntity
  8
0
 62
   254
100
AcDbPolyline
 90
        2
 70
     0
 39
0.003
 10
1.905799
 20
0.619197
 40
0.003
 41
0.003
 10
1.903803
 20
0.613319
 40
0.003
 41
0.003
  0
LWPOLYLINE
  5
6D
100
AcDbEntity
  8
0
 62
   254
100
AcDbPolyline
 90
        2
 70
     0
 39
0.003
 10
1.905799
 20
0.619197
 40
0.003
 41
0.003
 10
2.562882
 20
0.988783
 40
0.003
 41
0.003
  0
LWPOLYLINE
  5
6E
100
AcDbEntity
  8
0
 62
   254
100
AcDbPolyline
 90
        2
 70
     0
 39
0.003
 10
2.562882
 20
0.988783
 40
0.003
 41
0.003
 10
2.564591
 20
0.994783
 40
0.003
 41
0.003
  0
LWPOLYLINE
  5
6F
100
AcDbEntity
  8
0
 62
   254
100
AcDbPolyline
 90
        2
 70
     0
 39
0.003
 10
2.564591
 20
0.994783
 40
0.003
 41
0.003
 10
1.907508
 20
0.625197
 40
0.003
 41
0.003
  0
LWPOLYLINE
  5
70
100
AcDbEntity
  8
0
 62
   254
100
AcDbPolyline
 90
        2
 70
     0
 39
0.003
 10
1.907508
 20
0.625197
 40
0.003
 41
0.003
 10
1.905799
 20
0.619197
 40
0.003
 41
0.003
  0
LWPOLYLINE
  5
71
100
AcDbEntity
  8
0
 62
   254
100
AcDbPolyline
 90
        2
 70
     0
 39
0.003
 10
1.907508
 20
0.625197
 40
0.003
 41
0.003
 10
2.564591
 20
0.994783
 40
0.003
 41
0.003
  0
LWPOLYLINE
  5
72
100
AcDbEntity
  8
0
 62
   254
100
AcDbPolyline
 90
        2
 70
     0
 39
0.003
 10
2.564591
 20
0.994783
 40
0.003
 41
0.003
 10
2.566012
 20
1.000902
 40
0.003
 41
0.003
  0
LWPOLYLINE
  5
73
100
AcDbEntity
  8
0
 62
   254
100
AcDbPolyline
 90
        2
 70
     0
 39
0.003
 10
2.566012
 20
1.000902
 40
0.003
 41
0.003
 10
1.908929
 20
0.631315
 40
0.003
 41
0.003
  0
LWPOLYLINE
  5
74
100
AcDbEntity
  8
0
 62
   254
100
AcDbPolyline
 90
        2
 70
     0
 39
0.003
 10
1.908929
 20
0.631315
 40
0.003
 41
0.003
 10
1.907508
 20
0.625197
 40
0.003
 41
0.003
  0
LWPOLYLINE
  5
75
100
AcDbEntity
  8
0
 62
   254
100
AcDbPolyline
 90
        2
 70
     0
 39
0.003
 10
1.908929
 20
0.631315
 40
0.003
 41
0.003
 10
2.566012
 20
1.000902
 40
0.003
 41
0.003
  0
LWPOLYLINE
  5
76
100
AcDbEntity
  8
0
 62
   254
100
AcDbPolyline
 90
        2
 70
     0
 39
0.003
 10
2.566012
 20
1.000902
 40
0.003
 41
0.003
 10
2.567126
 20
1.007122
 40
0.003
 41
0.003
  0
LWPOLYLINE
  5
77
100
AcDbEntity
  8
0
 62
   254
100
AcDbPolyline
 90
        2
 70
     0
 39
0.003
 10
2.567126
 20
1.007122
 40
0.003
 41
0.003
 10
1.910043
 20
0.637535
 40
0.003
 41
0.003
  0
LWPOLYLINE
  5
78
100
AcDbEntity
  8
0
 62
   254
100
AcDbPolyline
 90
        2
 70
     0
 39
0.003
 10
1.910043
 20
0.637535
 40
0.003
 41
0.003
 10
1.908929
 20
0.631315
 40
0.003
 41
0.003
  0
LWPOLYLINE
  5
79
100
AcDbEntity
  8
0
 62
   254
100
AcDbPolyline
 90
        2
 70
     0
 39
0.003
 10
1.910043
 20
0.637535
 40
0.003
 41
0.003
 10
2.567126
 20
1.007122
 40
0.003
 41
0.003
  0
LWPOLYLINE
  5
7A
100
AcDbEntity
  8
0
 62
   254
100
AcDbPolyline
 90
        2
 70
     0
 39
0.003
 10
2.567126
 20
1.007122
 40
0.003
 41
0.003
 10
2.567937
 20
1.013449
 40
0.003
 41
0.003
  0
LWPOLYLINE
  5
7B
100
AcDbEntity
  8
0
 62
   254
100
AcDbPolyline
 90
        2
 70
     0
 39
0.003
 10
2.567937
 20
1.013449
 40
0.003
 41
0.003
 10
1.910854
 20
0.643862
 40
0.003
 41
0.003
  0
LWPOLYLINE
  5
7C
100
AcDbEntity
  8
0
 62
   254
100
AcDbPolyline
 90
        2
 70
     0
 39
0.003
 10
1.910854
 20
0.643862
 40
0.003
 41
0.003
 10
1.910043
 20
0.637535
 40
0.003
 41
0.003
  0
LWPOLYLINE
  5
7D
100
AcDbEntity
  8
0
 62
   254
100
AcDbPolyline
 90
        2
 70
     0
 39
0.003
 10
1.910854
 20
0.643862
 40
0.003
 41
0.003
 10
2.567937
 20
1.013449
 40
0.003
 41
0.003
  0
LWPOLYLINE
  5
7E
100
AcDbEntity
  8
0
 62
   254
100
AcDbPolyline
 90
        2
 70
     0
 39
0.003
 10
2.567937
 20
1.013449
 40
0.003
 41
0.003
 10
2.568425
 20
1.019862
 40
0.003
 41
0.003
  0
LWPOLYLINE
  5
7F
100
AcDbEntity
  8
0
 62
   254
100
AcDbPolyline
 90
        2
 70
     0
 39
0.003
 10
2.568425
 20
1.019862
 40
0.003
 41
0.003
 10
1.911343
 20
0.650276
 40
0.003
 41
0.003
  0
LWPOLYLINE
  5
80
100
AcDbEntity
  8
0
 62
   254
100
AcDbPolyline
 90
        2
 70
     0
 39
0.003
 10
1.911343
 20
0.650276
 40
0.003
 41
0.003
 10
1.910854
 20
0.643862
 40
0.003
 41
0.003
  0
LWPOLYLINE
  5
81
100
AcDbEntity
  8
0
 62
   254
100
AcDbPolyline
 90
        2
 70
     0
 39
0.003
 10
1.911343
 20
0.650276
 40
0.003
 41
0.003
 10
2.568425
 20
1.019862
 40
0.003
 41
0.003
  0
LWPOLYLINE
  5
82
100
AcDbEntity
  8
0
 62
   254
100
AcDbPolyline
 90
        2
 70
     0
 39
0.003
 10
2.568425
 20
1.019862
 40
0.003
 41
0.003
 10
2.568594
 20
1.026366
 40
0.003
 41
0.003
  0
LWPOLYLINE
  5
83
100
AcDbEntity
  8
0
 62
   254
100
AcDbPolyline
 90
        2
 70
     0
 39
0.003
 10
2.568594
 20
1.026366
 40
0.003
 41
0.003
 10
1.911512
 20
0.65678
 40
0.003
 41
0.003
  0
LWPOLYLINE
  5
84
100
AcDbEntity
  8
0
 62
   254
100
AcDbPolyline
 90
        2
 70
     0
 39
0.003
 10
1.911512
 20
0.65678
 40
0.003
 41
0.003
 10
1.911343
 20
0.650276
 40
0.003
 41
0.003
  0
LWPOLYLINE
  5
85
100
AcDbEntity
  8
0
 62
   254
100
AcDbPolyline
 90
        2
 70
     0
 39
0.003
 10
1.911512
 20
0.65678
 40
0.003
 41
0.003
 10
2.568594
 20
1.026366
 40
0.003
 41
0.003
  0
LWPOLYLINE
  5
86
100
AcDbEntity
  8
0
 62
   254
100
AcDbPolyline
 90
        2
 70
     0
 39
0.003
 10
2.568594
 20
1.026366
 40
0.003
 41
0.003
 10
2.568425
 20
1.032862
 40
0.003
 41
0.003
  0
LWPOLYLINE
  5
87
100
AcDbEntity
  8
0
 62
   254
100
AcDbPolyline
 90
        2
 70
     0
 39
0.003
 10
2.568425
 20
1.032862
 40
0.003
 41
0.003
 10
1.911343
 20
0.663276
 40
0.003
 41
0.003
  0
LWPOLYLINE
  5
88
100
AcDbEntity
  8
0
 62
   254
100
AcDbPolyline
 90
        2
 70
     0
 39
0.003
 10
1.911343
 20
0.663276
 40
0.003
 41
0.003
 10
1.911512
 20
0.65678
 40
0.003
 41
0.003
  0
LWPOLYLINE
  5
89
100
AcDbEntity
  8
0
 62
   254
100
AcDbPolyline
 90
        2
 70
     0
 39
0.003
 10
1.911343
 20
0.663276
 40
0.003
 41
0.003
 10
2.568425
 20
1.032862
 40
0.003
 41
0.003
  0
LWPOLYLINE
  5
8A
100
AcDbEntity
  8
0
 62
   254
100
AcDbPolyline
 90
        2
 70
     0
 39
0.003
 10
2.568425
 20
1.032862
 40
0.003
 41
0.003
 10
2.567937
 20
1.039299
 40
0.003
 41
0.003
  0
LWPOLYLINE
  5
8B
100
AcDbEntity
  8
0
 62
   254
100
AcDbPolyline
 90
        2
 70
     0
 39
0.003
 10
2.567937
 20
1.039299
 40
0.003
 41
0.003
 10
1.910854
 20
0.669713
 40
0.003
 41
0.003
  0
LWPOLYLINE
  5
8C
100
AcDbEntity
  8
0
 62
   254
100
AcDbPolyline
 90
        2
 70
     0
 39
0.003
 10
1.910854
 20
0.669713
 40
0.003
 41
0.003
 10
1.911343
 20
0.663276
 40
0.003
 41
0.003
  0
LWPOLYLINE
  5
8D
100
AcDbEntity
  8
0
 62
   254
100
AcDbPolyline
 90
        2
 70
     0
 39
0.003
 10
1.910854
 20
0.669713
 40
0.003
 41
0.003
 10
2.567937
 20
1.039299
 40
0.003
 41
0.003
  0
LWPOLYLINE
  5
8E
100
AcDbEntity
  8
0
 62
   254
100
AcDbPolyline
 90
        2
 70
     0
 39
0.003
 10
2.567937
 20
1.039299
 40
0.003
 41
0.003
 10
2.567126
 20
1.045654
 40
0.003
 41
0.003
  0
LWPOLYLINE
  5
8F
100
AcDbEntity
  8
0
 62
   254
100
AcDbPolyline
 90
        2
 70
     0
 39
0.003
 10
2.567126
 20
1.045654
 40
0.003
 41
0.003
 10
1.910043
 20
0.676067
 40
0.003
 41
0.003
  0
LWPOLYLINE
  5
90
100
AcDbEntity
  8
0
 62
   254
100
AcDbPolyline
 90
        2
 70
     0
 39
0.003
 10
1.910043
 20
0.676067
 40
0.003
 41
0.003
 10
1.910854
 20
0.669713
 40
0.003
 41
0.003
  0
LWPOLYLINE
  5
91
100
AcDbEntity
  8
0
 62
   254
100
AcDbPolyline
 90
        2
 70
     0
 39
0.003
 10
1.910043
 20
0.676067
 40
0.003
 41
0.003
 10
2.567126
 20
1.045654
 40
0.003
 41
0.003
  0
LWPOLYLINE
  5
92
100
AcDbEntity
  8
0
 62
   254
100
AcDbPolyline
 90
        2
 70
     0
 39
0.003
 10
2.567126
 20
1.045654
 40
0.003
 41
0.003
 10
2.566012
 20
1.051925
 40
0.003
 41
0.003
  0
LWPOLYLINE
  5
93
100
AcDbEntity
  8
0
 62
   254
100
AcDbPolyline
 90
        2
 70
     0
 39
0.003
 10
2.566012
 20
1.051925
 40
0.003
 41
0.003
 10
1.908929
 20
0.682339
 40
0.003
 41
0.003
  0
LWPOLYLINE
  5
94
100
AcDbEntity
  8
0
 62
   254
100
AcDbPolyline
 90
        2
 70
     0
 39
0.003
 10
1.908929
 20
0.682339
 40
0.003
 41
0.003
 10
1.910043
 20
0.676067
 40
0.003
 41
0.003
  0
LWPOLYLINE
  5
95
100
AcDbEntity
  8
0
 62
   254
100
AcDbPolyline
 90
        2
 70
     0
 39
0.003
 10
1.908929
 20
0.682339
 40
0.003
 41
0.003
 10
2.566012
 20
1.051925
 40
0.003
 41
0.003
  0
LWPOLYLINE
  5
96
100
AcDbEntity
  8
0
 62
   254
100
AcDbPolyline
 90
        2
 70
     0
 39
0.003
 10
2.566012
 20
1.051925
 40
0.003
 41
0.003
 10
2.564591
 20
1.058091
 40
0.003
 41
0.003
  0
LWPOLYLINE
  5
97
100
AcDbEntity
  8
0
 62
   254
100
AcDbPolyline
 90
        2
 70
     0
 39
0.003
 10
2.564591
 20
1.058091
 40
0.003
 41
0.003
 10
1.907508
 20
0.688504
 40
0.003
 41
0.003
  0
LWPOLYLINE
  5
98
100
AcDbEntity
  8
0
 62
   254
100
AcDbPolyline
 90
        2
 70
     0
 39
0.003
 10
1.907508
 20
0.688504
 40
0.003
 41
0.003
 10
1.908929
 20
0.682339
 40
0.003
 41
0.003
  0
LWPOLYLINE
  5
99
100
AcDbEntity
  8
0
 62
   254
100
AcDbPolyline
 90
        2
 70
     0
 39
0.003
 10
1.907508
 20
0.688504
 40
0.003
 41
0.003
 10
2.564591
 20
1.058091
 40
0.003
 41
0.003
  0
LWPOLYLINE
  5
9A
100
AcDbEntity
  8
0
 62
   254
100
AcDbPolyline
 90
        2
 70
     0
 39
0.003
 10
2.564591
 20
1.058091
 40
0.003
 41
0.003
 10
2.562882
 20
1.064161
 40
0.003
 41
0.003
  0
LWPOLYLINE
  5
9B
100
AcDbEntity
  8
0
 62
   254
100
AcDbPolyline
 90
        2
 70
     0
 39
0.003
 10
2.562882
 20
1.064161
 40
0.003
 41
0.003
 10
1.905799
 20
0.694575
 40
0.003
 41
0.003
  0
LWPOLYLINE
  5
9C
100
AcDbEntity
  8
0
 62
   254
100
AcDbPolyline
 90
        2
 70
     0
 39
0.003
 10
1.905799
 20
0.694575
 40
0.003
 41
0.003
 10
1.907508
 20
0.688504
 40
0.003
 41
0.003
  0
LWPOLYLINE
  5
9D
100
AcDbEntity
  8
0
 62
   254
100
AcDbPolyline
 90
        2
 70
     0
 39
0.003
 10
1.905799
 20
0.694575
 40
0.003
 41
0.003
 10
2.562882
 20
1.064161
 40
0.003
 41
0.003
  0
LWPOLYLINE
  5
9E
100
AcDbEntity
  8
0
 62
   254
100
AcDbPolyline
 90
        2
 70
     0
 39
0.003
 10
2.562882
 20
1.064161
 40
0.003
 41
0.003
 10
2.560886
 20
1.070114
 40
0.003
 41
0.003
  0
LWPOLYLINE
  5
9F
100
AcDbEntity
  8
0
 62
   254
100
AcDbPolyline
 90
        2
 70
     0
 39
0.003
 10
2.560886
 20
1.070114
 40
0.003
 41
0.003
 10
1.903803
 20
0.700528
 40
0.003
 41
0.003
  0
LWPOLYLINE
  5
A0
100
AcDbEntity
  8
0
 62
   254
100
AcDbPolyline
 90
        2
 70
     0
 39
0.003
 10
1.903803
 20
0.700528
 40
0.003
 41
0.003
 10
1.905799
 20
0.694575
 40
0.003
 41
0.003
  0
LWPOLYLINE
  5
A1
100
AcDbEntity
  8
0
 62
   254
100
AcDbPolyline
 90
        2
 70
     0
 39
0.003
 10
1.903803
 20
0.700528
 40
0.003
 41
0.003
 10
2.560886
 20
1.070114
 40
0.003
 41
0.003
  0
LWPOLYLINE
  5
A2
100
AcDbEntity
  8
0
 62
   254
100
AcDbPolyline
 90
        2
 70
     0
 39
0.003
 10
2.560886
 20
1.070114
 40
0.003
 41
0.003
 10
2.558614
 20
1.075945
 40
0.003
 41
0.003
  0
LWPOLYLINE
  5
A3
100
AcDbEntity
  8
0
 62
   254
100
AcDbPolyline
 90
        2
 70
     0
 39
0.003
 10
2.558614
 20
1.075945
 40
0.003
 41
0.003
 10
1.901531
 20
0.706358
 40
0.003
 41
0.003
  0
LWPOLYLINE
  5
A4
100
AcDbEntity
  8
0
 62
   254
100
AcDbPolyline
 90
        2
 70
     0
 39
0.003
 10
1.901531
 20
0.706358
 40
0.003
 41
0.003
 10
1.903803
 20
0.700528
 40
0.003
 41
0.003
  0
LWPOLYLINE
  5
A5
100
AcDbEntity
  8
0
 62
   254
100
AcDbPolyline
 90
        2
 70
     0
 39
0.003
 10
1.901531
 20
0.706358
 40
0.003
 41
0.003
 10
2.558614
 20
1.075945
 40
0.003
 41
0.003
  0
LWPOLYLINE
  5
A6
100
AcDbEntity
  8
0
 62
   254
100
AcDbPolyline
 90
        2
 70
     0
 39
0.003
 10
2.558614
 20
1.075945
 40
0.003
 41
0.003
 10
2.556067
 20
1.081638
 40
0.003
 41
0.003
  0
LWPOLYLINE
  5
A7
100
AcDbEntity
  8
0
 62
   254
100
AcDbPolyline
 90
        2
 70
     0
 39
0.003
 10
2.556067
 20
1.081638
 40
0.003
 41
0.003
 10
1.898984
 20
0.712051
 40
0.003
 41
0.003
  0
LWPOLYLINE
  5
A8
100
AcDbEntity
  8
0
 62
   254
100
AcDbPolyline
 90
        2
 70
     0
 39
0.003
 10
1.898984
 20
0.712051
 40
0.003
 41
0.003
 10
1.901531
 20
0.706358
 40
0.003
 41
0.003
  0
LWPOLYLINE
  5
A9
100
AcDbEntity
  8
0
 62
   254
100
AcDbPolyline
 90
        2
 70
     0
 39
0.003
 10
1.898984
 20
0.712051
 40
0.003
 41
0.003
 10
2.556067
 20
1.081638
 40
0.003
 41
0.003
  0
LWPOLYLINE
  5
AA
100
AcDbEntity
  8
0
 62
   254
100
AcDbPolyline
 90
        2
 70
     0
 39
0.003
 10
2.556067
 20
1.081638
 40
0.003
 41
0.003
 10
2.553268
 20
1.087193
 40
0.003
 41
0.003
  0
LWPOLYLINE
  5
AB
100
AcDbEntity
  8
0
 62
   254
100
AcDbPolyline
 90
        2
 70
     0
 39
0.003
 10
2.553268
 20
1.087193
 40
0.003
 41
0.003
 10
1.896185
 20
0.717606
 40
0.003
 41
0.003
  0
LWPOLYLINE
  5
AC
100
AcDbEntity
  8
0
 62
   254
100
AcDbPolyline
 90
        2
 70
     0
 39
0.003
 10
1.896185
 20
0.717606
 40
0.003
 41
0.003
 10
1.898984
 20
0.712051
 40
0.003
 41
0.003
  0
LWPOLYLINE
  5
AD
100
AcDbEntity
  8
0
 62
   254
100
AcDbPolyline
 90
        2
 70
     0
 39
0.003
 10
1.896185
 20
0.717606
 40
0.003
 41
0.003
 10
2.553268
 20
1.087193
 40
0.003
 41
0.003
  0
LWPOLYLINE
  5
AE
100
AcDbEntity
  8
0
 62
   254
100
AcDbPolyline
 90
        2
 70
     0
 39
0.003
 10
2.553268
 20
1.087193
 40
0.003
 41
0.003
 10
2.550209
 20
1.092594
 40
0.003
 41
0.003
  0
LWPOLYLINE
  5
AF
100
AcDbEntity
  8
0
 62
   254
100
AcDbPolyline
 90
        2
 70
     0
 39
0.003
 10
2.550209
 20
1.092594
 40
0.003
 41
0.003
 10
1.893126
 20
0.723008
 40
0.003
 41
0.003
  0
LWPOLYLINE
  5
B0
100
AcDbEntity
  8
0
 62
   254
100
AcDbPolyline
 90
        2
 70
     0
 39
0.003
 10
1.893126
 20
0.723008
 40
0.003
 41
0.003
 10
1.896185
 20
0.717606
 40
0.003
 41
0.003
  0
LWPOLYLINE
  5
B1
100
AcDbEntity
  8
0
 62
   254
100
AcDbPolyline
 90
        2
 70
     0
 39
0.003
 10
1.893126
 20
0.723008
 40
0.003
 41
0.003
 10
2.550209
 20
1.092594
 40
0.003
 41
0.003
  0
LWPOLYLINE
  5
B2
100
AcDbEntity
  8
0
 62
   254
100
AcDbPolyline
 90
        2
 70
     0
 39
0.003
 10
2.550209
 20
1.092594
 40
0.003
 41
0.003
 10
2.546913
 20
1.097843
 40
0.003
 41
0.003
  0
LWPOLYLINE
  5
B3
100
AcDbEntity
  8
0
 62
   254
100
AcDbPolyline
 90
        2
 70
     0
 39
0.003
 10
2.546913
 20
1.097843
 40
0.003
 41
0.003
 10
1.889831
 20
0.728256
 40
0.003
 41
0.003
  0
LWPOLYLINE
  5
B4
100
AcDbEntity
  8
0
 62
   254
100
AcDbPolyline
 90
        2
 70
     0
 39
0.003
 10
1.889831
 20
0.728256
 40
0.003
 41
0.003
 10
1.893126
 20
0.723008
 40
0.003
 41
0.003
  0
LWPOLYLINE
  5
B5
100
AcDbEntity
  8
0
 62
   254
100
AcDbPolyline
 90
        2
 70
     0
 39
0.003
 10
1.889831
 20
0.728256
 40
0.003
 41
0.003
 10
2.546913
 20
1.097843
 40
0.003
 41
0.003
  0
LWPOLYLINE
  5
B6
100
AcDbEntity
  8
0
 62
   254
100
AcDbPolyline
 90
        2
 70
     0
 39
0.003
 10
2.546913
 20
1.097843
 40
0.003
 41
0.003
 10
2.543374
 20
1.102917
 40
0.003
 41
0.003
  0
LWPOLYLINE
  5
B7
100
AcDbEntity
  8
0
 62
   254
100
AcDbPolyline
 90
        2
 70
     0
 39
0.003
 10
2.543374
 20
1.102917
 40
0.003
 41
0.003
 10
1.886291
 20
0.733331
 40
0.003
 41
0.003
  0
LWPOLYLINE
  5
B8
100
AcDbEntity
  8
0
 62
   254
100
AcDbPolyline
 90
        2
 70
     0
 39
0.003
 10
1.886291
 20
0.733331
 40
0.003
 41
0.003
 10
1.889831
 20
0.728256
 40
0.003
 41
0.003
  0
LWPOLYLINE
  5
B9
100
AcDbEntity
  8
0
 62
   254
100
AcDbPolyline
 90
        2
 70
     0
 39
0.003
 10
1.886291
 20
0.733331
 40
0.003
 41
0.003
 10
2.543374
 20
1.102917
 40
0.003
 41
0.003
  0
LWPOLYLINE
  5
BA
100
AcDbEntity
  8
0
 62
   254
100
AcDbPolyline
 90
        2
 70
     0
 39
0.003
 10
2.543374
 20
1.102917
 40
0.003
 41
0.003
 10
2.539614
 20
1.107819
 40
0.003
 41
0.003
  0
LWPOLYLINE
  5
BB
100
AcDbEntity
  8
0
 62
   254
100
AcDbPolyline
 90
        2
 70
     0
 39
0.003
 10
2.539614
 20
1.107819
 40
0.003
 41
0.003
 10
1.882531
 20
0.738232
 40
0.003
 41
0.003
  0
LWPOLYLINE
  5
BC
100
AcDbEntity
  8
0
 62
   254
100
AcDbPolyline
 90
        2
 70
     0
 39
0.003
 10
1.882531
 20
0.738232
 40
0.003
 41
0.003
 10
1.886291
 20
0.733331
 40
0.003
 41
0.003
  0
LWPOLYLINE
  5
BD
100
AcDbEntity
  8
0
 62
   254
100
AcDbPolyline
 90
        2
 70
     0
 39
0.003
 10
1.882531
 20
0.738232
 40
0.003
 41
0.003
 10
2.539614
 20
1.107819
 40
0.003
 41
0.003
  0
LWPOLYLINE
  5
BE
100
AcDbEntity
  8
0
 62
   254
100
AcDbPolyline
 90
        2
 70
     0
 39
0.003
 10
2.539614
 20
1.107819
 40
0.003
 41
0.003
 10
2.535634
 20
1.112531
 40
0.003
 41
0.003
  0
LWPOLYLINE
  5
BF
100
AcDbEntity
  8
0
 62
   254
100
AcDbPolyline
 90
        2
 70
     0
 39
0.003
 10
2.535634
 20
1.112531
 40
0.003
 41
0.003
 10
1.878551
 20
0.742945
 40
0.003
 41
0.003
  0
LWPOLYLINE
  5
C0
100
AcDbEntity
  8
0
 62
   254
100
AcDbPolyline
 90
        2
 70
     0
 39
0.003
 10
1.878551
 20
0.742945
 40
0.003
 41
0.003
 10
1.882531
 20
0.738232
 40
0.003
 41
0.003
  0
LWPOLYLINE
  5
C1
100
AcDbEntity
  8
0
 62
   254
100
AcDbPolyline
 90
        2
 70
     0
 39
0.003
 10
1.878551
 20
0.742945
 40
0.003
 41
0.003
 10
2.535634
 20
1.112531
 40
0.003
 41
0.003
  0
LWPOLYLINE
  5
C2
100
AcDbEntity
  8
0
 62
   254
100
AcDbPolyline
 90
        2
 70
     0
 39
0.003
 10
2.535634
 20
1.112531
 40
0.003
 41
0.003
 10
2.531441
 20
1.117055
 40
0.003
 41
0.003
  0
LWPOLYLINE
  5
C3
100
AcDbEntity
  8
0
 62
   254
100
AcDbPolyline
 90
        2
 70
     0
 39
0.003
 10
2.531441
 20
1.117055
 40
0.003
 41
0.003
 10
1.874358
 20
0.747469
 40
0.003
 41
0.003
  0
LWPOLYLINE
  5
C4
100
AcDbEntity
  8
0
 62
   254
100
AcDbPolyline
 90
        2
 70
     0
 39
0.003
 10
1.874358
 20
0.747469
 40
0.003
 41
0.003
 10
1.878551
 20
0.742945
 40
0.003
 41
0.003
  0
LWPOLYLINE
  5
C5
100
AcDbEntity
  8
0
 62
   254
100
AcDbPolyline
 90
        2
 70
     0
 39
0.003
 10
1.874358
 20
0.747469
 40
0.003
 41
0.003
 10
2.531441
 20
1.117055
 40
0.003
 41
0.003
  0
LWPOLYLINE
  5
C6
100
AcDbEntity
  8
0
 62
   254
100
AcDbPolyline
 90
        2
 70
     0
 39
0.003
 10
2.531441
 20
1.117055
 40
0.003
 41
0.003
 10
2.527031
 20
1.121366
 40
0.003
 41
0.003
  0
LWPOLYLINE
  5
C7
100
AcDbEntity
  8
0
 62
   254
100
AcDbPolyline
 90
        2
 70
     0
 39
0.003
 10
2.527031
 20
1.121366
 40
0.003
 41
0.003
 10
1.869949
 20
0.75178
 40
0.003
 41
0.003
  0
LWPOLYLINE
  5
C8
100
AcDbEntity
  8
0
 62
   254
100
AcDbPolyline
 90
        2
 70
     0
 39
0.003
 10
1.869949
 20
0.75178
 40
0.003
 41
0.003
 10
1.874358
 20
0.747469
 40
0.003
 41
0.003
  0
LWPOLYLINE
  5
C9
100
AcDbEntity
  8
0
 62
   254
100
AcDbPolyline
 90
        2
 70
     0
 39
0.003
 10
1.869949
 20
0.75178
 40
0.003
 41
0.003
 10
2.527031
 20
1.121366
 40
0.003
 41
0.003
  0
LWPOLYLINE
  5
CA
100
AcDbEntity
  8
0
 62
   254
100
AcDbPolyline
 90
        2
 70
     0
 39
0.003
 10
2.527031
 20
1.121366
 40
0.003
 41
0.003
 10
2.522437
 20
1.125465
 40
0.003
 41
0.003
  0
LWPOLYLINE
  5
CB
100
AcDbEntity
  8
0
 62
   254
100
AcDbPolyline
 90
        2
 70
     0
 39
0.003
 10
2.522437
 20
1.125465
 40
0.003
 41
0.003
 10
1.865354
 20
0.755878
 40
0.003
 41
0.003
  0
LWPOLYLINE
  5
CC
100
AcDbEntity
  8
0
 62
   254
100
AcDbPolyline
 90
        2
 70
     0
 39
0.003
 10
1.865354
 20
0.755878
 40
0.003
 41
0.003
 10
1.869949
 20
0.75178
 40
0.003
 41
0.003
  0
LWPOLYLINE
  5
CD
100
AcDbEntity
  8
0
 62
   254
100
AcDbPolyline
 90
        2
 70
     0
 39
0.003
 10
1.865354
 20
0.755878
 40
0.003
 41
0.003
 10
2.522437
 20
1.125465
 40
0.003
 41
0.003
  0
LWPOLYLINE
  5
CE
100
AcDbEntity
  8
0
 62
   254
100
AcDbPolyline
 90
        2
 70
     0
 39
0.003
 10
2.522437
 20
1.125465
 40
0.003
 41
0.003
 10
2.51765
 20
1.129343
 40
0.003
 41
0.003
  0
LWPOLYLINE
  5
CF
100
AcDbEntity
  8
0
 62
   254
100
AcDbPolyline
 90
        2
 70
     0
 39
0.003
 10
2.51765
 20
1.129343
 40
0.003
 41
0.003
 10
1.860567
 20
0.759756
 40
0.003
 41
0.003
  0
LWPOLYLINE
  5
D0
100
AcDbEntity
  8
0
 62
   254
100
AcDbPolyline
 90
        2
 70
     0
 39
0.003
 10
1.860567
 20
0.759756
 40
0.003
 41
0.003
 10
1.865354
 20
0.755878
 40
0.003
 41
0.003
  0
LWPOLYLINE
  5
D1
100
AcDbEntity
  8
0
 62
   254
100
AcDbPolyline
 90
        2
 70
     0
 39
0.003
 10
1.860567
 20
0.759756
 40
0.003
 41
0.003
 10
2.51765
 20
1.129343
 40
0.003
 41
0.003
  0
LWPOLYLINE
  5
D2
100
AcDbEntity
  8
0
 62
   254
100
AcDbPolyline
 90
        2
 70
     0
 39
0.003
 10
2.51765
 20
1.129343
 40
0.003
 41
0.003
 10
2.512689
 20
1.132992
 40
0.003
 41
0.003
  0
LWPOLYLINE
  5
D3
100
AcDbEntity
  8
0
 62
   254
100
AcDbPolyline
 90
        2
 70
     0
 39
0.003
 10
2.512689
 20
1.132992
 40
0.003
 41
0.003
 10
1.855606
 20
0.763406
 40
0.003
 41
0.003
  0
LWPOLYLINE
  5
D4
100
AcDbEntity
  8
0
 62
   254
100
AcDbPolyline
 90
        2
 70
     0
 39
0.003
 10
1.855606
 20
0.763406
 40
0.003
 41
0.003
 10
1.860567
 20
0.759756
 40
0.003
 41
0.003
  0
LWPOLYLINE
  5
D5
100
AcDbEntity
  8
0
 62
   254
100
AcDbPolyline
 90
        2
 70
     0
 39
0.003
 10
1.855606
 20
0.763406
 40
0.003
 41
0.003
 10
2.512689
 20
1.132992
 40
0.003
 41
0.003
  0
LWPOLYLINE
  5
D6
100
AcDbEntity
  8
0
 62
   254
100
AcDbPolyline
 90
        2
 70
     0
 39
0.003
 10
2.512689
 20
1.132992
 40
0.003
 41
0.003
 10
2.507547
 20
1.136394
 40
0.003
 41
0.003
  0
LWPOLYLINE
  5
D7
100
AcDbEntity
  8
0
 62
   254
100
AcDbPolyline
 90
        2
 70
     0
 39
0.003
 10
2.507547
 20
1.136394
 40
0.003
 41
0.003
 10
1.850465
 20
0.766807
 40
0.003
 41
0.003
  0
LWPOLYLINE
  5
D8
100
AcDbEntity
  8
0
 62
   254
100
AcDbPolyline
 90
        2
 70
     0
 39
0.003
 10
1.850465
 20
0.766807
 40
0.003
 41
0.003
 10
1.855606
 20
0.763406
 40
0.003
 41
0.003
  0
LWPOLYLINE
  5
D9
100
AcDbEntity
  8
0
 62
   254
100
AcDbPolyline
 90
        2
 70
     0
 39
0.003
 10
1.850465
 20
0.766807
 40
0.003
 41
0.003
 10
2.507547
 20
1.136394
 40
0.003
 41
0.003
  0
LWPOLYLINE
  5
DA
100
AcDbEntity
  8
0
 62
   254
100
AcDbPolyline
 90
        2
 70
     0
 39
0.003
 10
2.507547
 20
1.136394
 40
0.003
 41
0.003
 10
2.502248
 20
1.139555
 40
0.003
 41
0.003
  0
LWPOLYLINE
  5
DB
100
AcDbEntity
  8
0
 62
   254
100
AcDbPolyline
 90
        2
 70
     0
 39
0.003
 10
2.502248
 20
1.139555
 40
0.003
 41
0.003
 10
1.845165
 20
0.769969
 40
0.003
 41
0.003
  0
LWPOLYLINE
  5
DC
100
AcDbEntity
  8
0
 62
   254
100
AcDbPolyline
 90
        2
 70
     0
 39
0.003
 10
1.845165
 20
0.769969
 40
0.003
 41
0.003
 10
1.850465
 20
0.766807
 40
0.003
 41
0.003
  0
LWPOLYLINE
  5
DD
100
AcDbEntity
  8
0
 62
     9
100
AcDbPolyline
 90
        2
 70
     0
 39
0.003
 10
1.845165
 20
0.769969
 40
0.003
 41
0.003
 10
2.502248
 20
1.139555
 40
0.003
 41
0.003
  0
LWPOLYLINE
  5
DE
100
AcDbEntity
  8
0
 62
     9
100
AcDbPolyline
 90
        2
 70
     0
 39
0.003
 10
2.502248
 20
1.139555
 40
0.003
 41
0.003
 10
2.496787
 20
1.142453
 40
0.003
 41
0.003
  0
LWPOLYLINE
  5
DF
100
AcDbEntity
  8
0
 62
     9
100
AcDbPolyline
 90
        2
 70
     0
 39
0.003
 10
2.496787
 20
1.142453
 40
0.003
 41
0.003
 10
1.839705
 20
0.772866
 40
0.003
 41
0.003
  0
LWPOLYLINE
  5
E0
100
AcDbEntity
  8
0
 62
     9
100
AcDbPolyline
 90
        2
 70
     0
 39
0.003
 10
1.839705
 20
0.772866
 40
0.003
 41
0.003
 10
1.845165
 20
0.769969
 40
0.003
 41
0.003
  0
LWPOLYLINE
  5
E1
100
AcDbEntity
  8
0
 62
     9
100
AcDbPolyline
 90
        2
 70
     0
 39
0.003
 10
1.839705
 20
0.772866
 40
0.003
 41
0.003
 10
2.496787
 20
1.142453
 40
0.003
 41
0.003
  0
LWPOLYLINE
  5
E2
100
AcDbEntity
  8
0
 62
     9
100
AcDbPolyline
 90
        2
 70
     0
 39
0.003
 10
2.496787
 20
1.142453
 40
0.003
 41
0.003
 10
2.491189
 20
1.145091
 40
0.003
 41
0.003
  0
LWPOLYLINE
  5
E3
100
AcDbEntity
  8
0
 62
     9
100
AcDbPolyline
 90
        2
 70
     0
 39
0.003
 10
2.491189
 20
1.145091
 40
0.003
 41
0.003
 10
1.834106
 20
0.775504
 40
0.003
 41
0.003
  0
LWPOLYLINE
  5
E4
100
AcDbEntity
  8
0
 62
     9
100
AcDbPolyline
 90
        2
 70
     0
 39
0.003
 10
1.834106
 20
0.775504
 40
0.003
 41
0.003
 10
1.839705
 20
0.772866
 40
0.003
 41
0.003
  0
LWPOLYLINE
  5
E5
100
AcDbEntity
  8
0
 62
     9
100
AcDbPolyline
 90
        2
 70
     0
 39
0.003
 10
1.834106
 20
0.775504
 40
0.003
 41
0.003
 10
2.491189
 20
1.145091
 40
0.003
 41
0.003
  0
LWPOLYLINE
  5
E6
100
AcDbEntity
  8
0
 62
     9
100
AcDbPolyline
 90
        2
 70
     0
 39
0.003
 10
2.491189
 20
1.145091
 40
0.003
 41
0.003
 10
2.485441
 20
1.147441
 40
0.003
 41
0.003
  0
LWPOLYLINE
  5
E7
100
AcDbEntity
  8
0
 62
     9
100
AcDbPolyline
 90
        2
 70
     0
 39
0.003
 10
2.485441
 20
1.147441
 40
0.003
 41
0.003
 10
1.828358
 20
0.777854
 40
0.003
 41
0.003
  0
LWPOLYLINE
  5
E8
100
AcDbEntity
  8
0
 62
     9
100
AcDbPolyline
 90
        2
 70
     0
 39
0.003
 10
1.828358
 20
0.777854
 40
0.003
 41
0.003
 10
1.834106
 20
0.775504
 40
0.003
 41
0.003
  0
LWPOLYLINE
  5
E9
100
AcDbEntity
  8
0
 62
     9
100
AcDbPolyline
 90
        2
 70
     0
 39
0.003
 10
1.828358
 20
0.777854
 40
0.003
 41
0.003
 10
2.485441
 20
1.147441
 40
0.003
 41
0.003
  0
LWPOLYLINE
  5
EA
100
AcDbEntity
  8
0
 62
     9
100
AcDbPolyline
 90
        2
 70
     0
 39
0.003
 10
2.485441
 20
1.147441
 40
0.003
 41
0.003
 10
2.479567
 20
1.149516
 40
0.003
 41
0.003
  0
LWPOLYLINE
  5
EB
100
AcDbEntity
  8
0
 62
     9
100
AcDbPolyline
 90
        2
 70
     0
 39
0.003
 10
2.479567
 20
1.149516
 40
0.003
 41
0.003
 10
1.822484
 20
0.779929
 40
0.003
 41
0.003
  0
LWPOLYLINE
  5
EC
100
AcDbEntity
  8
0
 62
     9
100
AcDbPolyline
 90
        2
 70
     0
 39
0.003
 10
1.822484
 20
0.779929
 40
0.003
 41
0.003
 10
1.828358
 20
0.777854
 40
0.003
 41
0.003
  0
LWPOLYLINE
  5
ED
100
AcDbEntity
  8
0
 62
     9
100
AcDbPolyline
 90
        2
 70
     0
 39
0.003
 10
1.822484
 20
0.779929
 40
0.003
 41
0.003
 10
2.479567
 20
1.149516
 40
0.003
 41
0.003
  0
LWPOLYLINE
  5
EE
100
AcDbEntity
  8
0
 62
     9
100
AcDbPolyline
 90
        2
 70
     0
 39
0.003
 10
2.479567
 20
1.149516
 40
0.003
 41
0.003
 10
2.473567
 20
1.151291
 40
0.003
 41
0.003
  0
LWPOLYLINE
  5
EF
100
AcDbEntity
  8
0
 62
     9
100
AcDbPolyline
 90
        2
 70
     0
 39
0.003
 10
2.473567
 20
1.151291
 40
0.003
 41
0.003
 10
1.816484
 20
0.781705
 40
0.003
 41
0.003
  0
LWPOLYLINE
  5
F0
100
AcDbEntity
  8
0
 62
     9
100
AcDbPolyline
 90
        2
 70
     0
 39
0.003
 10
1.816484
 20
0.781705
 40
0.003
 41
0.003
 10
1.822484
 20
0.779929
 40
0.003
 41
0.003
  0
LWPOLYLINE
  5
F1
100
AcDbEntity
  8
0
 62
     9
100
AcDbPolyline
 90
        2
 70
     0
 39
0.003
 10
1.816484
 20
0.781705
 40
0.003
 41
0.003
 10
2.473567
 20
1.151291
 40
0.003
 41
0.003
  0
LWPOLYLINE
  5
F2
100
AcDbEntity
  8
0
 62
     9
100
AcDbPolyline
 90
        2
 70
     0
 39
0.003
 10
2.473567
 20
1.151291
 40
0.003
 41
0.003
 10
2.467453
 20
1.152768
 40
0.003
 41
0.003
  0
LWPOLYLINE
  5
F3
100
AcDbEntity
  8
0
 62
     9
100
AcDbPolyline
 90
        2
 70
     0
 39
0.003
 10
2.467453
 20
1.152768
 40
0.003
 41
0.003
 10
1.81037
 20
0.783181
 40
0.003
 41
0.003
  0
LWPOLYLINE
  5
F4
100
AcDbEntity
  8
0
 62
     9
100
AcDbPolyline
 90
        2
 70
     0
 39
0.003
 10
1.81037
 20
0.783181
 40
0.003
 41
0.003
 10
1.816484
 20
0.781705
 40
0.003
 41
0.003
  0
LWPOLYLINE
  5
F5
100
AcDbEntity
  8
0
 62
     9
100
AcDbPolyline
 90
        2
 70
     0
 39
0.003
 10
1.81037
 20
0.783181
 40
0.003
 41
0.003
 10
2.467453
 20
1.152768
 40
0.003
 41
0.003
  0
LWPOLYLINE
  5
F6
100
AcDbEntity
  8
0
 62
     9
100
AcDbPolyline
 90
        2
 70
     0
 39
0.003
 10
2.467453
 20
1.152768
 40
0.003
 41
0.003
 10
2.461224
 20
1.153929
 40
0.003
 41
0.003
  0
LWPOLYLINE
  5
F7
100
AcDbEntity
  8
0
 62
     9
100
AcDbPolyline
 90
        2
 70
     0
 39
0.003
 10
2.461224
 20
1.153929
 40
0.003
 41
0.003
 10
1.804142
 20
0.784343
 40
0.003
 41
0.003
  0
LWPOLYLINE
  5
F8
100
AcDbEntity
  8
0
 62
     9
100
AcDbPolyline
 90
        2
 70
     0
 39
0.003
 10
1.804142
 20
0.784343
 40
0.003
 41
0.003
 10
1.81037
 20
0.783181
 40
0.003
 41
0.003
  0
LWPOLYLINE
  5
F9
100
AcDbEntity
  8
0
 62
     9
100
AcDbPolyline
 90
        2
 70
     0
 39
0.003
 10
1.804142
 20
0.784343
 40
0.003
 41
0.003
 10
2.461224
 20
1.153929
 40
0.003
 41
0.003
  0
LWPOLYLINE
  5
FA
100
AcDbEntity
  8
0
 62
     9
100
AcDbPolyline
 90
        2
 70
     0
 39
0.003
 10
2.461224
 20
1.153929
 40
0.003
 41
0.003
 10
2.454906
 20
1.154776
 40
0.003
 41
0.003
  0
LWPOLYLINE
  5
FB
100
AcDbEntity
  8
0
 62
     9
100
AcDbPolyline
 90
        2
 70
     0
 39
0.003
 10
2.454906
 20
1.154776
 40
0.003
 41
0.003
 10
1.797823
 20
0.785189
 40
0.003
 41
0.003
  0
LWPOLYLINE
  5
FC
100
AcDbEntity
  8
0
 62
     9
100
AcDbPolyline
 90
        2
 70
     0
 39
0.003
 10
1.797823
 20
0.785189
 40
0.003
 41
0.003
 10
1.804142
 20
0.784343
 40
0.003
 41
0.003
  0
LWPOLYLINE
  5
FD
100
AcDbEntity
  8
0
 62
     9
100
AcDbPolyline
 90
        2
 70
     0
 39
0.003
 10
1.797823
 20
0.785189
 40
0.003
 41
0.003
 10
2.454906
 20
1.154776
 40
0.003
 41
0.003
  0
LWPOLYLINE
  5
FE
100
AcDbEntity
  8
0
 62
     9
100
AcDbPolyline
 90
        2
 70
     0
 39
0.003
 10
2.454906
 20
1.154776
 40
0.003
 41
0.003
 10
2.448492
 20
1.155283
 40
0.003
 41
0.003
  0
LWPOLYLINE
  5
FF
100
AcDbEntity
  8
0
 62
     9
100
AcDbPolyline
 90
        2
 70
     0
 39
0.003
 10
2.448492
 20
1.155283
 40
0.003
 41
0.003
 10
1.791409
 20
0.785697
 40
0.003
 41
0.003
  0
LWPOLYLINE
  5
100
100
AcDbEntity
  8
0
 62
     9
100
AcDbPolyline
 90
        2
 70
     0
 39
0.003
 10
1.791409
 20
0.785697
 40
0.003
 41
0.003
 10
1.797823
 20
0.785189
 40
0.003
 41
0.003
  0
LWPOLYLINE
  5
101
100
AcDbEntity
  8
0
 62
   253
100
AcDbPolyline
 90
        2
 70
     0
 39
0.003
 10
1.791409
 20
0.785697
 40
0.003
 41
0.003
 10
2.448492
 20
1.155283
 40
0.003
 41
0.003
  0
LWPOLYLINE
  5
102
100
AcDbEntity
  8
0
 62
   253
100
AcDbPolyline
 90
        2
 70
     0
 39
0.003
 10
2.448492
 20
1.155283
 40
0.003
 41
0.003
 10
2.442
 20
1.155461
 40
0.003
 41
0.003
  0
LWPOLYLINE
  5
103
100
AcDbEntity
  8
0
 62
   253
100
AcDbPolyline
 90
        2
 70
     0
 39
0.003
 10
2.442
 20
1.155461
 40
0.003
 41
0.003
 10
1.784917
 20
0.785874
 40
0.003
 41
0.003
  0
LWPOLYLINE
  5
104
100
AcDbEntity
  8
0
 62
   253
100
AcDbPolyline
 90
        2
 70
     0
 39
0.003
 10
1.784917
 20
0.785874
 40
0.003
 41
0.003
 10
1.791409
 20
0.785697
 40
0.003
 41
0.003
  0
LWPOLYLINE
  5
105
100
AcDbEntity
  8
0
 62
     0
100
AcDbPolyline
 90
        2
 70
     0
 39
0.003
 10
1.855606
 20
0.551854
 40
0.003
 41
0.003
 10
2.512689
 20
0.921441
 40
0.003
 41
0.003
  0
LWPOLYLINE
  5
106
100
AcDbEntity
  8
0
 62
     0
100
AcDbPolyline
 90
        2
 70
     0
 39
0.003
 10
2.512689
 20
0.921441
 40
0.003
 41
0.003
 10
2.51765
 20
0.924972
 40
0.003
 41
0.003
  0
LWPOLYLINE
  5
107
100
AcDbEntity
  8
0
 62
     0
100
AcDbPolyline
 90
        2
 70
     0
 39
0.003
 10
2.51765
 20
0.924972
 40
0.003
 41
0.003
 10
2.522437
 20
0.92874
 40
0.003
 41
0.003
  0
LWPOLYLINE
  5
108
100
AcDbEntity
  8
0
 62
     0
100
AcDbPolyline
 90
        2
 70
     0
 39
0.003
 10
2.522437
 20
0.92874
 40
0.003
 41
0.003
 10
2.527031
 20
0.93272
 40
0.003
 41
0.003
  0
LWPOLYLINE
  5
109
100
AcDbEntity
  8
0
 62
     0
100
AcDbPolyline
 90
        2
 70
     0
 39
0.003
 10
2.527031
 20
0.93272
 40
0.003
 41
0.003
 10
2.531441
 20
0.936921
 40
0.003
 41
0.003
  0
LWPOLYLINE
  5
10A
100
AcDbEntity
  8
0
 62
     0
100
AcDbPolyline
 90
        2
 70
     0
 39
0.003
 10
2.531441
 20
0.936921
 40
0.003
 41
0.003
 10
2.535634
 20
0.941319
 40
0.003
 41
0.003
  0
LWPOLYLINE
  5
10B
100
AcDbEntity
  8
0
 62
     0
100
AcDbPolyline
 90
        2
 70
     0
 39
0.003
 10
2.535634
 20
0.941319
 40
0.003
 41
0.003
 10
2.539614
 20
0.945913
 40
0.003
 41
0.003
  0
LWPOLYLINE
  5
10C
100
AcDbEntity
  8
0
 62
     0
100
AcDbPolyline
 90
        2
 70
     0
 39
0.003
 10
2.539614
 20
0.945913
 40
0.003
 41
0.003
 10
2.543374
 20
0.950697
 40
0.003
 41
0.003
  0
LWPOLYLINE
  5
10D
100
AcDbEntity
  8
0
 62
     0
100
AcDbPolyline
 90
        2
 70
     0
 39
0.003
 10
2.543374
 20
0.950697
 40
0.003
 41
0.003
 10
2.546913
 20
0.955665
 40
0.003
 41
0.003
  0
LWPOLYLINE
  5
10E
100
AcDbEntity
  8
0
 62
     0
100
AcDbPolyline
 90
        2
 70
     0
 39
0.003
 10
2.546913
 20
0.955665
 40
0.003
 41
0.003
 10
2.550209
 20
0.960799
 40
0.003
 41
0.003
  0
LWPOLYLINE
  5
10F
100
AcDbEntity
  8
0
 62
     0
100
AcDbPolyline
 90
        2
 70
     0
 39
0.003
 10
2.550209
 20
0.960799
 40
0.003
 41
0.003
 10
2.553268
 20
0.966102
 40
0.003
 41
0.003
  0
LWPOLYLINE
  5
110
100
AcDbEntity
  8
0
 62
     0
100
AcDbPolyline
 90
        2
 70
     0
 39
0.003
 10
2.553268
 20
0.966102
 40
0.003
 41
0.003
 10
2.556067
 20
0.971555
 40
0.003
 41
0.003
  0
LWPOLYLINE
  5
111
100
AcDbEntity
  8
0
 62
     0
100
AcDbPolyline
 90
        2
 70
     0
 39
0.003
 10
2.556067
 20
0.971555
 40
0.003
 41
0.003
 10
2.558614
 20
0.977165
 40
0.003
 41
0.003
  0
LWPOLYLINE
  5
112
100
AcDbEntity
  8
0
 62
     0
100
AcDbPolyline
 90
        2
 70
     0
 39
0.003
 10
2.558614
 20
0.977165
 40
0.003
 41
0.003
 10
2.560886
 20
0.982906
 40
0.003
 41
0.003
  0
LWPOLYLINE
  5
113
100
AcDbEntity
  8
0
 62
     0
100
AcDbPolyline
 90
        2
 70
     0
 39
0.003
 10
2.560886
 20
0.982906
 40
0.003
 41
0.003
 10
2.562882
 20
0.988783
 40
0.003
 41
0.003
  0
LWPOLYLINE
  5
114
100
AcDbEntity
  8
0
 62
     0
100
AcDbPolyline
 90
        2
 70
     0
 39
0.003
 10
2.562882
 20
0.988783
 40
0.003
 41
0.003
 10
2.564591
 20
0.994783
 40
0.003
 41
0.003
  0
LWPOLYLINE
  5
115
100
AcDbEntity
  8
0
 62
     0
100
AcDbPolyline
 90
        2
 70
     0
 39
0.003
 10
2.564591
 20
0.994783
 40
0.003
 41
0.003
 10
2.566012
 20
1.000902
 40
0.003
 41
0.003
  0
LWPOLYLINE
  5
116
100
AcDbEntity
  8
0
 62
     0
100
AcDbPolyline
 90
        2
 70
     0
 39
0.003
 10
2.566012
 20
1.000902
 40
0.003
 41
0.003
 10
2.567126
 20
1.007122
 40
0.003
 41
0.003
  0
LWPOLYLINE
  5
117
100
AcDbEntity
  8
0
 62
     0
100
AcDbPolyline
 90
        2
 70
     0
 39
0.003
 10
2.567126
 20
1.007122
 40
0.003
 41
0.003
 10
2.567937
 20
1.013449
 40
0.003
 41
0.003
  0
LWPOLYLINE
  5
118
100
AcDbEntity
  8
0
 62
     0
100
AcDbPolyline
 90
        2
 70
     0
 39
0.003
 10
2.567937
 20
1.013449
 40
0.003
 41
0.003
 10
2.568425
 20
1.019862
 40
0.003
 41
0.003
  0
LWPOLYLINE
  5
119
100
AcDbEntity
  8
0
 62
     0
100
AcDbPolyline
 90
        2
 70
     0
 39
0.003
 10
2.568425
 20
1.019862
 40
0.003
 41
0.003
 10
2.568594
 20
1.026366
 40
0.003
 41
0.003
  0
LWPOLYLINE
  5
11A
100
AcDbEntity
  8
0
 62
     0
100
AcDbPolyline
 90
        2
 70
     0
 39
0.003
 10
2.568594
 20
1.026366
 40
0.003
 41
0.003
 10
2.568425
 20
1.032862
 40
0.003
 41
0.003
  0
LWPOLYLINE
  5
11B
100
AcDbEntity
  8
0
 62
     0
100
AcDbPolyline
 90
        2
 70
     0
 39
0.003
 10
2.568425
 20
1.032862
 40
0.003
 41
0.003
 10
2.567937
 20
1.039299
 40
0.003
 41
0.003
  0
LWPOLYLINE
  5
11C
100
AcDbEntity
  8
0
 62
     0
100
AcDbPolyline
 90
        2
 70
     0
 39
0.003
 10
2.567937
 20
1.039299
 40
0.003
 41
0.003
 10
2.567126
 20
1.045654
 40
0.003
 41
0.003
  0
LWPOLYLINE
  5
11D
100
AcDbEntity
  8
0
 62
     0
100
AcDbPolyline
 90
        2
 70
     0
 39
0.003
 10
2.567126
 20
1.045654
 40
0.003
 41
0.003
 10
2.566012
 20
1.051925
 40
0.003
 41
0.003
  0
LWPOLYLINE
  5
11E
100
AcDbEntity
  8
0
 62
     0
100
AcDbPolyline
 90
        2
 70
     0
 39
0.003
 10
2.566012
 20
1.051925
 40
0.003
 41
0.003
 10
2.564591
 20
1.058091
 40
0.003
 41
0.003
  0
LWPOLYLINE
  5
11F
100
AcDbEntity
  8
0
 62
     0
100
AcDbPolyline
 90
        2
 70
     0
 39
0.003
 10
2.564591
 20
1.058091
 40
0.003
 41
0.003
 10
2.562882
 20
1.064161
 40
0.003
 41
0.003
  0
LWPOLYLINE
  5
120
100
AcDbEntity
  8
0
 62
     0
100
AcDbPolyline
 90
        2
 70
     0
 39
0.003
 10
2.562882
 20
1.064161
 40
0.003
 41
0.003
 10
2.560886
 20
1.070114
 40
0.003
 41
0.003
  0
LWPOLYLINE
  5
121
100
AcDbEntity
  8
0
 62
     0
100
AcDbPolyline
 90
        2
 70
     0
 39
0.003
 10
2.560886
 20
1.070114
 40
0.003
 41
0.003
 10
2.558614
 20
1.075945
 40
0.003
 41
0.003
  0
LWPOLYLINE
  5
122
100
AcDbEntity
  8
0
 62
     0
100
AcDbPolyline
 90
        2
 70
     0
 39
0.003
 10
2.558614
 20
1.075945
 40
0.003
 41
0.003
 10
2.556067
 20
1.081638
 40
0.003
 41
0.003
  0
LWPOLYLINE
  5
123
100
AcDbEntity
  8
0
 62
     0
100
AcDbPolyline
 90
        2
 70
     0
 39
0.003
 10
2.556067
 20
1.081638
 40
0.003
 41
0.003
 10
2.553268
 20
1.087193
 40
0.003
 41
0.003
  0
LWPOLYLINE
  5
124
100
AcDbEntity
  8
0
 62
     0
100
AcDbPolyline
 90
        2
 70
     0
 39
0.003
 10
2.553268
 20
1.087193
 40
0.003
 41
0.003
 10
2.550209
 20
1.092594
 40
0.003
 41
0.003
  0
LWPOLYLINE
  5
125
100
AcDbEntity
  8
0
 62
     0
100
AcDbPolyline
 90
        2
 70
     0
 39
0.003
 10
2.550209
 20
1.092594
 40
0.003
 41
0.003
 10
2.546913
 20
1.097843
 40
0.003
 41
0.003
  0
LWPOLYLINE
  5
126
100
AcDbEntity
  8
0
 62
     0
100
AcDbPolyline
 90
        2
 70
     0
 39
0.003
 10
2.546913
 20
1.097843
 40
0.003
 41
0.003
 10
2.543374
 20
1.102917
 40
0.003
 41
0.003
  0
LWPOLYLINE
  5
127
100
AcDbEntity
  8
0
 62
     0
100
AcDbPolyline
 90
        2
 70
     0
 39
0.003
 10
2.543374
 20
1.102917
 40
0.003
 41
0.003
 10
2.539614
 20
1.107819
 40
0.003
 41
0.003
  0
LWPOLYLINE
  5
128
100
AcDbEntity
  8
0
 62
     0
100
AcDbPolyline
 90
        2
 70
     0
 39
0.003
 10
2.539614
 20
1.107819
 40
0.003
 41
0.003
 10
2.535634
 20
1.112531
 40
0.003
 41
0.003
  0
LWPOLYLINE
  5
129
100
AcDbEntity
  8
0
 62
     0
100
AcDbPolyline
 90
        2
 70
     0
 39
0.003
 10
2.535634
 20
1.112531
 40
0.003
 41
0.003
 10
2.531441
 20
1.117055
 40
0.003
 41
0.003
  0
LWPOLYLINE
  5
12A
100
AcDbEntity
  8
0
 62
     0
100
AcDbPolyline
 90
        2
 70
     0
 39
0.003
 10
2.531441
 20
1.117055
 40
0.003
 41
0.003
 10
2.527031
 20
1.121366
 40
0.003
 41
0.003
  0
LWPOLYLINE
  5
12B
100
AcDbEntity
  8
0
 62
     0
100
AcDbPolyline
 90
        2
 70
     0
 39
0.003
 10
2.527031
 20
1.121366
 40
0.003
 41
0.003
 10
2.522437
 20
1.125465
 40
0.003
 41
0.003
  0
LWPOLYLINE
  5
12C
100
AcDbEntity
  8
0
 62
     0
100
AcDbPolyline
 90
        2
 70
     0
 39
0.003
 10
2.522437
 20
1.125465
 40
0.003
 41
0.003
 10
2.51765
 20
1.129343
 40
0.003
 41
0.003
  0
LWPOLYLINE
  5
12D
100
AcDbEntity
  8
0
 62
     0
100
AcDbPolyline
 90
        2
 70
     0
 39
0.003
 10
2.51765
 20
1.129343
 40
0.003
 41
0.003
 10
2.512689
 20
1.132992
 40
0.003
 41
0.003
  0
LWPOLYLINE
  5
12E
100
AcDbEntity
  8
0
 62
     0
100
AcDbPolyline
 90
        2
 70
     0
 39
0.003
 10
2.512689
 20
1.132992
 40
0.003
 41
0.003
 10
2.507547
 20
1.136394
 40
0.003
 41
0.003
  0
LWPOLYLINE
  5
12F
100
AcDbEntity
  8
0
 62
     0
100
AcDbPolyline
 90
        2
 70
     0
 39
0.003
 10
2.507547
 20
1.136394
 40
0.003
 41
0.003
 10
2.502248
 20
1.139555
 40
0.003
 41
0.003
  0
LWPOLYLINE
  5
130
100
AcDbEntity
  8
0
 62
     0
100
AcDbPolyline
 90
        2
 70
     0
 39
0.003
 10
2.502248
 20
1.139555
 40
0.003
 41
0.003
 10
2.496787
 20
1.142453
 40
0.003
 41
0.003
  0
LWPOLYLINE
  5
131
100
AcDbEntity
  8
0
 62
     0
100
AcDbPolyline
 90
        2
 70
     0
 39
0.003
 10
2.496787
 20
1.142453
 40
0.003
 41
0.003
 10
2.491189
 20
1.145091
 40
0.003
 41
0.003
  0
LWPOLYLINE
  5
132
100
AcDbEntity
  8
0
 62
     0
100
AcDbPolyline
 90
        2
 70
     0
 39
0.003
 10
2.491189
 20
1.145091
 40
0.003
 41
0.003
 10
2.485441
 20
1.147441
 40
0.003
 41
0.003
  0
LWPOLYLINE
  5
133
100
AcDbEntity
  8
0
 62
     0
100
AcDbPolyline
 90
        2
 70
     0
 39
0.003
 10
2.485441
 20
1.147441
 40
0.003
 41
0.003
 10
2.479567
 20
1.149516
 40
0.003
 41
0.003
  0
LWPOLYLINE
  5
134
100
AcDbEntity
  8
0
 62
     0
100
AcDbPolyline
 90
        2
 70
     0
 39
0.003
 10
2.479567
 20
1.149516
 40
0.003
 41
0.003
 10
2.473567
 20
1.151291
 40
0.003
 41
0.003
  0
LWPOLYLINE
  5
135
100
AcDbEntity
  8
0
 62
     0
100
AcDbPolyline
 90
        2
 70
     0
 39
0.003
 10
2.473567
 20
1.151291
 40
0.003
 41
0.003
 10
2.467453
 20
1.152768
 40
0.003
 41
0.003
  0
LWPOLYLINE
  5
136
100
AcDbEntity
  8
0
 62
     0
100
AcDbPolyline
 90
        2
 70
     0
 39
0.003
 10
2.467453
 20
1.152768
 40
0.003
 41
0.003
 10
2.461224
 20
1.153929
 40
0.003
 41
0.003
  0
LWPOLYLINE
  5
137
100
AcDbEntity
  8
0
 62
     0
100
AcDbPolyline
 90
        2
 70
     0
 39
0.003
 10
2.461224
 20
1.153929
 40
0.003
 41
0.003
 10
2.454906
 20
1.154776
 40
0.003
 41
0.003
  0
LWPOLYLINE
  5
138
100
AcDbEntity
  8
0
 62
     0
100
AcDbPolyline
 90
        2
 70
     0
 39
0.003
 10
2.454906
 20
1.154776
 40
0.003
 41
0.003
 10
2.448492
 20
1.155283
 40
0.003
 41
0.003
  0
LWPOLYLINE
  5
139
100
AcDbEntity
  8
0
 62
     0
100
AcDbPolyline
 90
        2
 70
     0
 39
0.003
 10
2.448492
 20
1.155283
 40
0.003
 41
0.003
 10
2.442
 20
1.155461
 40
0.003
 41
0.003
  0
LWPOLYLINE
  5
13A
100
AcDbEntity
  8
0
 62
     0
100
AcDbPolyline
 90
        2
 70
     0
 39
0.003
 10
2.442
 20
1.155461
 40
0.003
 41
0.003
 10
1.784917
 20
0.785874
 40
0.003
 41
0.003
  0
LWPOLYLINE
  5
13B
100
AcDbEntity
  8
0
 62
     0
100
AcDbPolyline
 90
        2
 70
     0
 39
0.003
 10
1.784917
 20
0.785874
 40
0.003
 41
0.003
 10
1.791409
 20
0.785697
 40
0.003
 41
0.003
  0
LWPOLYLINE
  5
13C
100
AcDbEntity
  8
0
 62
     0
100
AcDbPolyline
 90
        2
 70
     0
 39
0.003
 10
1.791409
 20
0.785697
 40
0.003
 41
0.003
 10
1.797823
 20
0.785189
 40
0.003
 41
0.003
  0
LWPOLYLINE
  5
13D
100
AcDbEntity
  8
0
 62
     0
100
AcDbPolyline
 90
        2
 70
     0
 39
0.003
 10
1.797823
 20
0.785189
 40
0.003
 41
0.003
 10
1.804142
 20
0.784343
 40
0.003
 41
0.003
  0
LWPOLYLINE
  5
13E
100
AcDbEntity
  8
0
 62
     0
100
AcDbPolyline
 90
        2
 70
     0
 39
0.003
 10
1.804142
 20
0.784343
 40
0.003
 41
0.003
 10
1.81037
 20
0.783181
 40
0.003
 41
0.003
  0
LWPOLYLINE
  5
13F
100
AcDbEntity
  8
0
 62
     0
100
AcDbPolyline
 90
        2
 70
     0
 39
0.003
 10
1.81037
 20
0.783181
 40
0.003
 41
0.003
 10
1.816484
 20
0.781705
 40
0.003
 41
0.003
  0
LWPOLYLINE
  5
140
100
AcDbEntity
  8
0
 62
     0
100
AcDbPolyline
 90
        2
 70
     0
 39
0.003
 10
1.816484
 20
0.781705
 40
0.003
 41
0.003
 10
1.822484
 20
0.779929
 40
0.003
 41
0.003
  0
LWPOLYLINE
  5
141
100
AcDbEntity
  8
0
 62
     0
100
AcDbPolyline
 90
        2
 70
     0
 39
0.003
 10
1.822484
 20
0.779929
 40
0.003
 41
0.003
 10
1.828358
 20
0.777854
 40
0.003
 41
0.003
  0
LWPOLYLINE
  5
142
100
AcDbEntity
  8
0
 62
     0
100
AcDbPolyline
 90
        2
 70
     0
 39
0.003
 10
1.828358
 20
0.777854
 40
0.003
 41
0.003
 10
1.834106
 20
0.775504
 40
0.003
 41
0.003
  0
LWPOLYLINE
  5
143
100
AcDbEntity
  8
0
 62
     0
100
AcDbPolyline
 90
        2
 70
     0
 39
0.003
 10
1.834106
 20
0.775504
 40
0.003
 41
0.003
 10
1.839705
 20
0.772866
 40
0.003
 41
0.003
  0
LWPOLYLINE
  5
144
100
AcDbEntity
  8
0
 62
     0
100
AcDbPolyline
 90
        2
 70
     0
 39
0.003
 10
1.839705
 20
0.772866
 40
0.003
 41
0.003
 10
1.845165
 20
0.769969
 40
0.003
 41
0.003
  0
LWPOLYLINE
  5
145
100
AcDbEntity
  8
0
 62
     0
100
AcDbPolyline
 90
        2
 70
     0
 39
0.003
 10
1.845165
 20
0.769969
 40
0.003
 41
0.003
 10
1.850465
 20
0.766807
 40
0.003
 41
0.003
  0
LWPOLYLINE
  5
146
100
AcDbEntity
  8
0
 62
     0
100
AcDbPolyline
 90
        2
 70
     0
 39
0.003
 10
1.850465
 20
0.766807
 40
0.003
 41
0.003
 10
1.855606
 20
0.763406
 40
0.003
 41
0.003
  0
LWPOLYLINE
  5
147
100
AcDbEntity
  8
0
 62
     0
100
AcDbPolyline
 90
        2
 70
     0
 39
0.003
 10
1.855606
 20
0.763406
 40
0.003
 41
0.003
 10
1.860567
 20
0.759756
 40
0.003
 41
0.003
  0
LWPOLYLINE
  5
148
100
AcDbEntity
  8
0
 62
     0
100
AcDbPolyline
 90
        2
 70
     0
 39
0.003
 10
1.860567
 20
0.759756
 40
0.003
 41
0.003
 10
1.865354
 20
0.755878
 40
0.003
 41
0.003
  0
LWPOLYLINE
  5
149
100
AcDbEntity
  8
0
 62
     0
100
AcDbPolyline
 90
        2
 70
     0
 39
0.003
 10
1.865354
 20
0.755878
 40
0.003
 41
0.003
 10
1.869949
 20
0.75178
 40
0.003
 41
0.003
  0
LWPOLYLINE
  5
14A
100
AcDbEntity
  8
0
 62
     0
100
AcDbPolyline
 90
        2
 70
     0
 39
0.003
 10
1.869949
 20
0.75178
 40
0.003
 41
0.003
 10
1.874358
 20
0.747469
 40
0.003
 41
0.003
  0
LWPOLYLINE
  5
14B
100
AcDbEntity
  8
0
 62
     0
100
AcDbPolyline
 90
        2
 70
     0
 39
0.003
 10
1.874358
 20
0.747469
 40
0.003
 41
0.003
 10
1.878551
 20
0.742945
 40
0.003
 41
0.003
  0
LWPOLYLINE
  5
14C
100
AcDbEntity
  8
0
 62
     0
100
AcDbPolyline
 90
        2
 70
     0
 39
0.003
 10
1.878551
 20
0.742945
 40
0.003
 41
0.003
 10
1.882531
 20
0.738232
 40
0.003
 41
0.003
  0
LWPOLYLINE
  5
14D
100
AcDbEntity
  8
0
 62
     0
100
AcDbPolyline
 90
        2
 70
     0
 39
0.003
 10
1.882531
 20
0.738232
 40
0.003
 41
0.003
 10
1.886291
 20
0.733331
 40
0.003
 41
0.003
  0
LWPOLYLINE
  5
14E
100
AcDbEntity
  8
0
 62
     0
100
AcDbPolyline
 90
        2
 70
     0
 39
0.003
 10
1.886291
 20
0.733331
 40
0.003
 41
0.003
 10
1.889831
 20
0.728256
 40
0.003
 41
0.003
  0
LWPOLYLINE
  5
14F
100
AcDbEntity
  8
0
 62
     0
100
AcDbPolyline
 90
        2
 70
     0
 39
0.003
 10
1.889831
 20
0.728256
 40
0.003
 41
0.003
 10
1.893126
 20
0.723008
 40
0.003
 41
0.003
  0
LWPOLYLINE
  5
150
100
AcDbEntity
  8
0
 62
     0
100
AcDbPolyline
 90
        2
 70
     0
 39
0.003
 10
1.893126
 20
0.723008
 40
0.003
 41
0.003
 10
1.896185
 20
0.717606
 40
0.003
 41
0.003
  0
LWPOLYLINE
  5
151
100
AcDbEntity
  8
0
 62
     0
100
AcDbPolyline
 90
        2
 70
     0
 39
0.003
 10
1.896185
 20
0.717606
 40
0.003
 41
0.003
 10
1.898984
 20
0.712051
 40
0.003
 41
0.003
  0
LWPOLYLINE
  5
152
100
AcDbEntity
  8
0
 62
     0
100
AcDbPolyline
 90
        2
 70
     0
 39
0.003
 10
1.898984
 20
0.712051
 40
0.003
 41
0.003
 10
1.901531
 20
0.706358
 40
0.003
 41
0.003
  0
LWPOLYLINE
  5
153
100
AcDbEntity
  8
0
 62
     0
100
AcDbPolyline
 90
        2
 70
     0
 39
0.003
 10
1.901531
 20
0.706358
 40
0.003
 41
0.003
 10
1.903803
 20
0.700528
 40
0.003
 41
0.003
  0
LWPOLYLINE
  5
154
100
AcDbEntity
  8
0
 62
     0
100
AcDbPolyline
 90
        2
 70
     0
 39
0.003
 10
1.903803
 20
0.700528
 40
0.003
 41
0.003
 10
1.905799
 20
0.694575
 40
0.003
 41
0.003
  0
LWPOLYLINE
  5
155
100
AcDbEntity
  8
0
 62
     0
100
AcDbPolyline
 90
        2
 70
     0
 39
0.003
 10
1.905799
 20
0.694575
 40
0.003
 41
0.003
 10
1.907508
 20
0.688504
 40
0.003
 41
0.003
  0
LWPOLYLINE
  5
156
100
AcDbEntity
  8
0
 62
     0
100
AcDbPolyline
 90
        2
 70
     0
 39
0.003
 10
1.907508
 20
0.688504
 40
0.003
 41
0.003
 10
1.908929
 20
0.682339
 40
0.003
 41
0.003
  0
LWPOLYLINE
  5
157
100
AcDbEntity
  8
0
 62
     0
100
AcDbPolyline
 90
        2
 70
     0
 39
0.003
 10
1.908929
 20
0.682339
 40
0.003
 41
0.003
 10
1.910043
 20
0.676067
 40
0.003
 41
0.003
  0
LWPOLYLINE
  5
158
100
AcDbEntity
  8
0
 62
     0
100
AcDbPolyline
 90
        2
 70
     0
 39
0.003
 10
1.910043
 20
0.676067
 40
0.003
 41
0.003
 10
1.910854
 20
0.669713
 40
0.003
 41
0.003
  0
LWPOLYLINE
  5
159
100
AcDbEntity
  8
0
 62
     0
100
AcDbPolyline
 90
        2
 70
     0
 39
0.003
 10
1.910854
 20
0.669713
 40
0.003
 41
0.003
 10
1.911343
 20
0.663276
 40
0.003
 41
0.003
  0
LWPOLYLINE
  5
15A
100
AcDbEntity
  8
0
 62
     0
100
AcDbPolyline
 90
        2
 70
     0
 39
0.003
 10
1.911343
 20
0.663276
 40
0.003
 41
0.003
 10
1.911512
 20
0.65678
 40
0.003
 41
0.003
  0
LWPOLYLINE
  5
15B
100
AcDbEntity
  8
0
 62
     0
100
AcDbPolyline
 90
        2
 70
     0
 39
0.003
 10
1.911512
 20
0.65678
 40
0.003
 41
0.003
 10
1.911343
 20
0.650276
 40
0.003
 41
0.003
  0
LWPOLYLINE
  5
15C
100
AcDbEntity
  8
0
 62
     0
100
AcDbPolyline
 90
        2
 70
     0
 39
0.003
 10
1.911343
 20
0.650276
 40
0.003
 41
0.003
 10
1.910854
 20
0.643862
 40
0.003
 41
0.003
  0
LWPOLYLINE
  5
15D
100
AcDbEntity
  8
0
 62
     0
100
AcDbPolyline
 90
        2
 70
     0
 39
0.003
 10
1.910854
 20
0.643862
 40
0.003
 41
0.003
 10
1.910043
 20
0.637535
 40
0.003
 41
0.003
  0
LWPOLYLINE
  5
15E
100
AcDbEntity
  8
0
 62
     0
100
AcDbPolyline
 90
        2
 70
     0
 39
0.003
 10
1.910043
 20
0.637535
 40
0.003
 41
0.003
 10
1.908929
 20
0.631315
 40
0.003
 41
0.003
  0
LWPOLYLINE
  5
15F
100
AcDbEntity
  8
0
 62
     0
100
AcDbPolyline
 90
        2
 70
     0
 39
0.003
 10
1.908929
 20
0.631315
 40
0.003
 41
0.003
 10
1.907508
 20
0.625197
 40
0.003
 41
0.003
  0
LWPOLYLINE
  5
160
100
AcDbEntity
  8
0
 62
     0
100
AcDbPolyline
 90
        2
 70
     0
 39
0.003
 10
1.907508
 20
0.625197
 40
0.003
 41
0.003
 10
1.905799
 20
0.619197
 40
0.003
 41
0.003
  0
LWPOLYLINE
  5
161
100
AcDbEntity
  8
0
 62
     0
100
AcDbPolyline
 90
        2
 70
     0
 39
0.003
 10
1.905799
 20
0.619197
 40
0.003
 41
0.003
 10
1.903803
 20
0.613319
 40
0.003
 41
0.003
  0
LWPOLYLINE
  5
162
100
AcDbEntity
  8
0
 62
     0
100
AcDbPolyline
 90
        2
 70
     0
 39
0.003
 10
1.903803
 20
0.613319
 40
0.003
 41
0.003
 10
1.901531
 20
0.607579
 40
0.003
 41
0.003
  0
LWPOLYLINE
  5
163
100
AcDbEntity
  8
0
 62
     0
100
AcDbPolyline
 90
        2
 70
     0
 39
0.003
 10
1.901531
 20
0.607579
 40
0.003
 41
0.003
 10
1.898984
 20
0.601969
 40
0.003
 41
0.003
  0
LWPOLYLINE
  5
164
100
AcDbEntity
  8
0
 62
     0
100
AcDbPolyline
 90
        2
 70
     0
 39
0.003
 10
1.898984
 20
0.601969
 40
0.003
 41
0.003
 10
1.896185
 20
0.596516
 40
0.003
 41
0.003
  0
LWPOLYLINE
  5
165
100
AcDbEntity
  8
0
 62
     0
100
AcDbPolyline
 90
        2
 70
     0
 39
0.003
 10
1.896185
 20
0.596516
 40
0.003
 41
0.003
 10
1.893126
 20
0.591213
 40
0.003
 41
0.003
  0
LWPOLYLINE
  5
166
100
AcDbEntity
  8
0
 62
     0
100
AcDbPolyline
 90
        2
 70
     0
 39
0.003
 10
1.893126
 20
0.591213
 40
0.003
 41
0.003
 10
1.889831
 20
0.586079
 40
0.003
 41
0.003
  0
LWPOLYLINE
  5
167
100
AcDbEntity
  8
0
 62
     0
100
AcDbPolyline
 90
        2
 70
     0
 39
0.003
 10
1.889831
 20
0.586079
 40
0.003
 41
0.003
 10
1.886291
 20
0.58111
 40
0.003
 41
0.003
  0
LWPOLYLINE
  5
168
100
AcDbEntity
  8
0
 62
     0
100
AcDbPolyline
 90
        2
 70
     0
 39
0.003
 10
1.886291
 20
0.58111
 40
0.003
 41
0.003
 10
1.882531
 20
0.576327
 40
0.003
 41
0.003
  0
LWPOLYLINE
  5
169
100
AcDbEntity
  8
0
 62
     0
100
AcDbPolyline
 90
        2
 70
     0
 39
0.003
 10
1.882531
 20
0.576327
 40
0.003
 41
0.003
 10
1.878551
 20
0.571732
 40
0.003
 41
0.003
  0
LWPOLYLINE
  5
16A
100
AcDbEntity
  8
0
 62
     0
100
AcDbPolyline
 90
        2
 70
     0
 39
0.003
 10
1.878551
 20
0.571732
 40
0.003
 41
0.003
 10
1.874358
 20
0.567335
 40
0.003
 41
0.003
  0
LWPOLYLINE
  5
16B
100
AcDbEntity
  8
0
 62
     0
100
AcDbPolyline
 90
        2
 70
     0
 39
0.003
 10
1.874358
 20
0.567335
 40
0.003
 41
0.003
 10
1.869949
 20
0.563134
 40
0.003
 41
0.003
  0
LWPOLYLINE
  5
16C
100
AcDbEntity
  8
0
 62
     0
100
AcDbPolyline
 90
        2
 70
     0
 39
0.003
 10
1.869949
 20
0.563134
 40
0.003
 41
0.003
 10
1.865354
 20
0.559154
 40
0.003
 41
0.003
  0
LWPOLYLINE
  5
16D
100
AcDbEntity
  8
0
 62
     0
100
AcDbPolyline
 90
        2
 70
     0
 39
0.003
 10
1.865354
 20
0.559154
 40
0.003
 41
0.003
 10
1.860567
 20
0.555386
 40
0.003
 41
0.003
  0
LWPOLYLINE
  5
16E
100
AcDbEntity
  8
0
 62
     0
100
AcDbPolyline
 90
        2
 70
     0
 39
0.003
 10
1.860567
 20
0.555386
 40
0.003
 41
0.003
 10
1.855606
 20
0.551854
 40
0.003
 41
0.003
  0
LWPOLYLINE
  5
16F
100
AcDbEntity
  8
0
 62
   254
100
AcDbPolyline
 90
        2
 70
     0
 39
0.003
 10
1.784917
 20
0.785874
 40
0.003
 41
0.003
 10
2.442
 20
1.155461
 40
0.003
 41
0.003
  0
LWPOLYLINE
  5
170
100
AcDbEntity
  8
0
 62
   254
100
AcDbPolyline
 90
        2
 70
     0
 39
0.003
 10
2.442
 20
1.155461
 40
0.003
 41
0.003
 10
2.444484
 20
1.205087
 40
0.003
 41
0.003
  0
LWPOLYLINE
  5
171
100
AcDbEntity
  8
0
 62
   254
100
AcDbPolyline
 90
        2
 70
     0
 39
0.003
 10
2.444484
 20
1.205087
 40
0.003
 41
0.003
 10
1.787402
 20
0.8355
 40
0.003
 41
0.003
  0
LWPOLYLINE
  5
172
100
AcDbEntity
  8
0
 62
   254
100
AcDbPolyline
 90
        2
 70
     0
 39
0.003
 10
1.787402
 20
0.8355
 40
0.003
 41
0.003
 10
1.784917
 20
0.785874
 40
0.003
 41
0.003
  0
LWPOLYLINE
  5
173
100
AcDbEntity
  8
0
 62
   254
100
AcDbPolyline
 90
        2
 70
     0
 39
0.003
 10
1.787402
 20
0.8355
 40
0.003
 41
0.003
 10
2.444484
 20
1.205087
 40
0.003
 41
0.003
  0
LWPOLYLINE
  5
174
100
AcDbEntity
  8
0
 62
   254
100
AcDbPolyline
 90
        2
 70
     0
 39
0.003
 10
2.444484
 20
1.205087
 40
0.003
 41
0.003
 10
2.444315
 20
1.253961
 40
0.003
 41
0.003
  0
LWPOLYLINE
  5
175
100
AcDbEntity
  8
0
 62
   254
100
AcDbPolyline
 90
        2
 70
     0
 39
0.003
 10
2.444315
 20
1.253961
 40
0.003
 41
0.003
 10
1.787232
 20
0.884374
 40
0.003
 41
0.003
  0
LWPOLYLINE
  5
176
100
AcDbEntity
  8
0
 62
   254
100
AcDbPolyline
 90
        2
 70
     0
 39
0.003
 10
1.787232
 20
0.884374
 40
0.003
 41
0.003
 10
1.787402
 20
0.8355
 40
0.003
 41
0.003
  0
LWPOLYLINE
  5
177
100
AcDbEntity
  8
0
 62
   254
100
AcDbPolyline
 90
        2
 70
     0
 39
0.003
 10
1.787232
 20
0.884374
 40
0.003
 41
0.003
 10
2.444315
 20
1.253961
 40
0.003
 41
0.003
  0
LWPOLYLINE
  5
178
100
AcDbEntity
  8
0
 62
   254
100
AcDbPolyline
 90
        2
 70
     0
 39
0.003
 10
2.444315
 20
1.253961
 40
0.003
 41
0.003
 10
2.441563
 20
1.302039
 40
0.003
 41
0.003
  0
LWPOLYLINE
  5
179
100
AcDbEntity
  8
0
 62
   254
100
AcDbPolyline
 90
        2
 70
     0
 39
0.003
 10
2.441563
 20
1.302039
 40
0.003
 41
0.003
 10
1.78448
 20
0.932453
 40
0.003
 41
0.003
  0
LWPOLYLINE
  5
17A
100
AcDbEntity
  8
0
 62
   254
100
AcDbPolyline
 90
        2
 70
     0
 39
0.003
 10
1.78448
 20
0.932453
 40
0.003
 41
0.003
 10
1.787232
 20
0.884374
 40
0.003
 41
0.003
  0
LWPOLYLINE
  5
17B
100
AcDbEntity
  8
0
 62
   254
100
AcDbPolyline
 90
        2
 70
     0
 39
0.003
 10
1.78448
 20
0.932453
 40
0.003
 41
0.003
 10
2.441563
 20
1.302039
 40
0.003
 41
0.003
  0
LWPOLYLINE
  5
17C
100
AcDbEntity
  8
0
 62
   254
100
AcDbPolyline
 90
        2
 70
     0
 39
0.003
 10
2.441563
 20
1.302039
 40
0.003
 41
0.003
 10
2.436315
 20
1.349287
 40
0.003
 41
0.003
  0
LWPOLYLINE
  5
17D
100
AcDbEntity
  8
0
 62
   254
100
AcDbPolyline
 90
        2
 70
     0
 39
0.003
 10
2.436315
 20
1.349287
 40
0.003
 41
0.003
 10
1.779232
 20
0.979701
 40
0.003
 41
0.003
  0
LWPOLYLINE
  5
17E
100
AcDbEntity
  8
0
 62
   254
100
AcDbPolyline
 90
        2
 70
     0
 39
0.003
 10
1.779232
 20
0.979701
 40
0.003
 41
0.003
 10
1.78448
 20
0.932453
 40
0.003
 41
0.003
  0
LWPOLYLINE
  5
17F
100
AcDbEntity
  8
0
 62
   254
100
AcDbPolyline
 90
        2
 70
     0
 39
0.003
 10
1.779232
 20
0.979701
 40
0.003
 41
0.003
 10
2.436315
 20
1.349287
 40
0.003
 41
0.003
  0
LWPOLYLINE
  5
180
100
AcDbEntity
  8
0
 62
   254
100
AcDbPolyline
 90
        2
 70
     0
 39
0.003
 10
2.436315
 20
1.349287
 40
0.003
 41
0.003
 10
2.428646
 20
1.395661
 40
0.003
 41
0.003
  0
LWPOLYLINE
  5
181
100
AcDbEntity
  8
0
 62
   254
100
AcDbPolyline
 90
        2
 70
     0
 39
0.003
 10
2.428646
 20
1.395661
 40
0.003
 41
0.003
 10
1.771563
 20
1.026075
 40
0.003
 41
0.003
  0
LWPOLYLINE
  5
182
100
AcDbEntity
  8
0
 62
   254
100
AcDbPolyline
 90
        2
 70
     0
 39
0.003
 10
1.771563
 20
1.026075
 40
0.003
 41
0.003
 10
1.779232
 20
0.979701
 40
0.003
 41
0.003
  0
LWPOLYLINE
  5
183
100
AcDbEntity
  8
0
 62
   254
100
AcDbPolyline
 90
        2
 70
     0
 39
0.003
 10
1.771563
 20
1.026075
 40
0.003
 41
0.003
 10
2.428646
 20
1.395661
 40
0.003
 41
0.003
  0
LWPOLYLINE
  5
184
100
AcDbEntity
  8
0
 62
   254
100
AcDbPolyline
 90
        2
 70
     0
 39
0.003
 10
2.428646
 20
1.395661
 40
0.003
 41
0.003
 10
2.41865
 20
1.44113
 40
0.003
 41
0.003
  0
LWPOLYLINE
  5
185
100
AcDbEntity
  8
0
 62
   254
100
AcDbPolyline
 90
        2
 70
     0
 39
0.003
 10
2.41865
 20
1.44113
 40
0.003
 41
0.003
 10
1.761567
 20
1.071543
 40
0.003
 41
0.003
  0
LWPOLYLINE
  5
186
100
AcDbEntity
  8
0
 62
   254
100
AcDbPolyline
 90
        2
 70
     0
 39
0.003
 10
1.761567
 20
1.071543
 40
0.003
 41
0.003
 10
1.771563
 20
1.026075
 40
0.003
 41
0.003
  0
LWPOLYLINE
  5
187
100
AcDbEntity
  8
0
 62
   254
100
AcDbPolyline
 90
        2
 70
     0
 39
0.003
 10
1.761567
 20
1.071543
 40
0.003
 41
0.003
 10
2.41865
 20
1.44113
 40
0.003
 41
0.003
  0
LWPOLYLINE
  5
188
100
AcDbEntity
  8
0
 62
   254
100
AcDbPolyline
 90
        2
 70
     0
 39
0.003
 10
2.41865
 20
1.44113
 40
0.003
 41
0.003
 10
2.406394
 20
1.48565
 40
0.003
 41
0.003
  0
LWPOLYLINE
  5
189
100
AcDbEntity
  8
0
 62
   254
100
AcDbPolyline
 90
        2
 70
     0
 39
0.003
 10
2.406394
 20
1.48565
 40
0.003
 41
0.003
 10
1.749311
 20
1.116063
 40
0.003
 41
0.003
  0
LWPOLYLINE
  5
18A
100
AcDbEntity
  8
0
 62
   254
100
AcDbPolyline
 90
        2
 70
     0
 39
0.003
 10
1.749311
 20
1.116063
 40
0.003
 41
0.003
 10
1.761567
 20
1.071543
 40
0.003
 41
0.003
  0
LWPOLYLINE
  5
18B
100
AcDbEntity
  8
0
 62
   254
100
AcDbPolyline
 90
        2
 70
     0
 39
0.003
 10
1.749311
 20
1.116063
 40
0.003
 41
0.003
 10
2.406394
 20
1.48565
 40
0.003
 41
0.003
  0
LWPOLYLINE
  5
18C
100
AcDbEntity
  8
0
 62
   254
100
AcDbPolyline
 90
        2
 70
     0
 39
0.003
 10
2.406394
 20
1.48565
 40
0.003
 41
0.003
 10
2.391976
 20
1.529185
 40
0.003
 41
0.003
  0
LWPOLYLINE
  5
18D
100
AcDbEntity
  8
0
 62
   254
100
AcDbPolyline
 90
        2
 70
     0
 39
0.003
 10
2.391976
 20
1.529185
 40
0.003
 41
0.003
 10
1.734894
 20
1.159598
 40
0.003
 41
0.003
  0
LWPOLYLINE
  5
18E
100
AcDbEntity
  8
0
 62
   254
100
AcDbPolyline
 90
        2
 70
     0
 39
0.003
 10
1.734894
 20
1.159598
 40
0.003
 41
0.003
 10
1.749311
 20
1.116063
 40
0.003
 41
0.003
  0
LWPOLYLINE
  5
18F
100
AcDbEntity
  8
0
 62
   254
100
AcDbPolyline
 90
        2
 70
     0
 39
0.003
 10
1.734894
 20
1.159598
 40
0.003
 41
0.003
 10
2.391976
 20
1.529185
 40
0.003
 41
0.003
  0
LWPOLYLINE
  5
190
100
AcDbEntity
  8
0
 62
   254
100
AcDbPolyline
 90
        2
 70
     0
 39
0.003
 10
2.391976
 20
1.529185
 40
0.003
 41
0.003
 10
2.375457
 20
1.571689
 40
0.003
 41
0.003
  0
LWPOLYLINE
  5
191
100
AcDbEntity
  8
0
 62
   254
100
AcDbPolyline
 90
        2
 70
     0
 39
0.003
 10
2.375457
 20
1.571689
 40
0.003
 41
0.003
 10
1.718374
 20
1.202102
 40
0.003
 41
0.003
  0
LWPOLYLINE
  5
192
100
AcDbEntity
  8
0
 62
   254
100
AcDbPolyline
 90
        2
 70
     0
 39
0.003
 10
1.718374
 20
1.202102
 40
0.003
 41
0.003
 10
1.734894
 20
1.159598
 40
0.003
 41
0.003
  0
LWPOLYLINE
  5
193
100
AcDbEntity
  8
0
 62
   254
100
AcDbPolyline
 90
        2
 70
     0
 39
0.003
 10
1.718374
 20
1.202102
 40
0.003
 41
0.003
 10
2.375457
 20
1.571689
 40
0.003
 41
0.003
  0
LWPOLYLINE
  5
194
100
AcDbEntity
  8
0
 62
   254
100
AcDbPolyline
 90
        2
 70
     0
 39
0.003
 10
2.375457
 20
1.571689
 40
0.003
 41
0.003
 10
2.356937
 20
1.613138
 40
0.003
 41
0.003
  0
LWPOLYLINE
  5
195
100
AcDbEntity
  8
0
 62
   254
100
AcDbPolyline
 90
        2
 70
     0
 39
0.003
 10
2.356937
 20
1.613138
 40
0.003
 41
0.003
 10
1.699854
 20
1.243551
 40
0.003
 41
0.003
  0
LWPOLYLINE
  5
196
100
AcDbEntity
  8
0
 62
   254
100
AcDbPolyline
 90
        2
 70
     0
 39
0.003
 10
1.699854
 20
1.243551
 40
0.003
 41
0.003
 10
1.718374
 20
1.202102
 40
0.003
 41
0.003
  0
LWPOLYLINE
  5
197
100
AcDbEntity
  8
0
 62
   254
100
AcDbPolyline
 90
        2
 70
     0
 39
0.003
 10
1.699854
 20
1.243551
 40
0.003
 41
0.003
 10
2.356937
 20
1.613138
 40
0.003
 41
0.003
  0
LWPOLYLINE
  5
198
100
AcDbEntity
  8
0
 62
   254
100
AcDbPolyline
 90
        2
 70
     0
 39
0.003
 10
2.356937
 20
1.613138
 40
0.003
 41
0.003
 10
2.336488
 20
1.653488
 40
0.003
 41
0.003
  0
LWPOLYLINE
  5
199
100
AcDbEntity
  8
0
 62
   254
100
AcDbPolyline
 90
        2
 70
     0
 39
0.003
 10
2.336488
 20
1.653488
 40
0.003
 41
0.003
 10
1.679406
 20
1.283902
 40
0.003
 41
0.003
  0
LWPOLYLINE
  5
19A
100
AcDbEntity
  8
0
 62
   254
100
AcDbPolyline
 90
        2
 70
     0
 39
0.003
 10
1.679406
 20
1.283902
 40
0.003
 41
0.003
 10
1.699854
 20
1.243551
 40
0.003
 41
0.003
  0
LWPOLYLINE
  5
19B
100
AcDbEntity
  8
0
 62
   254
100
AcDbPolyline
 90
        2
 70
     0
 39
0.003
 10
1.679406
 20
1.283902
 40
0.003
 41
0.003
 10
2.336488
 20
1.653488
 40
0.003
 41
0.003
  0
LWPOLYLINE
  5
19C
100
AcDbEntity
  8
0
 62
   254
100
AcDbPolyline
 90
        2
 70
     0
 39
0.003
 10
2.336488
 20
1.653488
 40
0.003
 41
0.003
 10
2.314201
 20
1.692705
 40
0.003
 41
0.003
  0
LWPOLYLINE
  5
19D
100
AcDbEntity
  8
0
 62
   254
100
AcDbPolyline
 90
        2
 70
     0
 39
0.003
 10
2.314201
 20
1.692705
 40
0.003
 41
0.003
 10
1.657118
 20
1.323118
 40
0.003
 41
0.003
  0
LWPOLYLINE
  5
19E
100
AcDbEntity
  8
0
 62
   254
100
AcDbPolyline
 90
        2
 70
     0
 39
0.003
 10
1.657118
 20
1.323118
 40
0.003
 41
0.003
 10
1.679406
 20
1.283902
 40
0.003
 41
0.003
  0
LWPOLYLINE
  5
19F
100
AcDbEntity
  8
0
 62
   254
100
AcDbPolyline
 90
        2
 70
     0
 39
0.003
 10
1.657118
 20
1.323118
 40
0.003
 41
0.003
 10
2.314201
 20
1.692705
 40
0.003
 41
0.003
  0
LWPOLYLINE
  5
1A0
100
AcDbEntity
  8
0
 62
   254
100
AcDbPolyline
 90
        2
 70
     0
 39
0.003
 10
2.314201
 20
1.692705
 40
0.003
 41
0.003
 10
2.290146
 20
1.73074
 40
0.003
 41
0.003
  0
LWPOLYLINE
  5
1A1
100
AcDbEntity
  8
0
 62
   254
100
AcDbPolyline
 90
        2
 70
     0
 39
0.003
 10
2.290146
 20
1.73074
 40
0.003
 41
0.003
 10
1.633063
 20
1.361154
 40
0.003
 41
0.003
  0
LWPOLYLINE
  5
1A2
100
AcDbEntity
  8
0
 62
   254
100
AcDbPolyline
 90
        2
 70
     0
 39
0.003
 10
1.633063
 20
1.361154
 40
0.003
 41
0.003
 10
1.657118
 20
1.323118
 40
0.003
 41
0.003
  0
LWPOLYLINE
  5
1A3
100
AcDbEntity
  8
0
 62
   254
100
AcDbPolyline
 90
        2
 70
     0
 39
0.003
 10
1.633063
 20
1.361154
 40
0.003
 41
0.003
 10
2.290146
 20
1.73074
 40
0.003
 41
0.003
  0
LWPOLYLINE
  5
1A4
100
AcDbEntity
  8
0
 62
   254
100
AcDbPolyline
 90
        2
 70
     0
 39
0.003
 10
2.290146
 20
1.73074
 40
0.003
 41
0.003
 10
2.264409
 20
1.767567
 40
0.003
 41
0.003
  0
LWPOLYLINE
  5
1A5
100
AcDbEntity
  8
0
 62
   254
100
AcDbPolyline
 90
        2
 70
     0
 39
0.003
 10
2.264409
 20
1.767567
 40
0.003
 41
0.003
 10
1.607327
 20
1.39798
 40
0.003
 41
0.003
  0
LWPOLYLINE
  5
1A6
100
AcDbEntity
  8
0
 62
   254
100
AcDbPolyline
 90
        2
 70
     0
 39
0.003
 10
1.607327
 20
1.39798
 40
0.003
 41
0.003
 10
1.633063
 20
1.361154
 40
0.003
 41
0.003
  0
LWPOLYLINE
  5
1A7
100
AcDbEntity
  8
0
 62
   254
100
AcDbPolyline
 90
        2
 70
     0
 39
0.003
 10
1.607327
 20
1.39798
 40
0.003
 41
0.003
 10
2.264409
 20
1.767567
 40
0.003
 41
0.003
  0
LWPOLYLINE
  5
1A8
100
AcDbEntity
  8
0
 62
   254
100
AcDbPolyline
 90
        2
 70
     0
 39
0.003
 10
2.264409
 20
1.767567
 40
0.003
 41
0.003
 10
2.237075
 20
1.803138
 40
0.003
 41
0.003
  0
LWPOLYLINE
  5
1A9
100
AcDbEntity
  8
0
 62
   254
100
AcDbPolyline
 90
        2
 70
     0
 39
0.003
 10
2.237075
 20
1.803138
 40
0.003
 41
0.003
 10
1.579992
 20
1.433551
 40
0.003
 41
0.003
  0
LWPOLYLINE
  5
1AA
100
AcDbEntity
  8
0
 62
   254
100
AcDbPolyline
 90
        2
 70
     0
 39
0.003
 10
1.579992
 20
1.433551
 40
0.003
 41
0.003
 10
1.607327
 20
1.39798
 40
0.003
 41
0.003
  0
LWPOLYLINE
  5
1AB
100
AcDbEntity
  8
0
 62
   254
100
AcDbPolyline
 90
        2
 70
     0
 39
0.003
 10
1.579992
 20
1.433551
 40
0.003
 41
0.003
 10
2.237075
 20
1.803138
 40
0.003
 41
0.003
  0
LWPOLYLINE
  5
1AC
100
AcDbEntity
  8
0
 62
   254
100
AcDbPolyline
 90
        2
 70
     0
 39
0.003
 10
2.237075
 20
1.803138
 40
0.003
 41
0.003
 10
2.208228
 20
1.837425
 40
0.003
 41
0.003
  0
LWPOLYLINE
  5
1AD
100
AcDbEntity
  8
0
 62
   254
100
AcDbPolyline
 90
        2
 70
     0
 39
0.003
 10
2.208228
 20
1.837425
 40
0.003
 41
0.003
 10
1.551146
 20
1.467839
 40
0.003
 41
0.003
  0
LWPOLYLINE
  5
1AE
100
AcDbEntity
  8
0
 62
   254
100
AcDbPolyline
 90
        2
 70
     0
 39
0.003
 10
1.551146
 20
1.467839
 40
0.003
 41
0.003
 10
1.579992
 20
1.433551
 40
0.003
 41
0.003
  0
LWPOLYLINE
  5
1AF
100
AcDbEntity
  8
0
 62
   254
100
AcDbPolyline
 90
        2
 70
     0
 39
0.003
 10
1.551146
 20
1.467839
 40
0.003
 41
0.003
 10
2.208228
 20
1.837425
 40
0.003
 41
0.003
  0
LWPOLYLINE
  5
1B0
100
AcDbEntity
  8
0
 62
   254
100
AcDbPolyline
 90
        2
 70
     0
 39
0.003
 10
2.208228
 20
1.837425
 40
0.003
 41
0.003
 10
2.177933
 20
1.870374
 40
0.003
 41
0.003
  0
LWPOLYLINE
  5
1B1
100
AcDbEntity
  8
0
 62
   254
100
AcDbPolyline
 90
        2
 70
     0
 39
0.003
 10
2.177933
 20
1.870374
 40
0.003
 41
0.003
 10
1.52085
 20
1.500787
 40
0.003
 41
0.003
  0
LWPOLYLINE
  5
1B2
100
AcDbEntity
  8
0
 62
   254
100
AcDbPolyline
 90
        2
 70
     0
 39
0.003
 10
1.52085
 20
1.500787
 40
0.003
 41
0.003
 10
1.551146
 20
1.467839
 40
0.003
 41
0.003
  0
LWPOLYLINE
  5
1B3
100
AcDbEntity
  8
0
 62
   254
100
AcDbPolyline
 90
        2
 70
     0
 39
0.003
 10
1.52085
 20
1.500787
 40
0.003
 41
0.003
 10
2.177933
 20
1.870374
 40
0.003
 41
0.003
  0
LWPOLYLINE
  5
1B4
100
AcDbEntity
  8
0
 62
   254
100
AcDbPolyline
 90
        2
 70
     0
 39
0.003
 10
2.177933
 20
1.870374
 40
0.003
 41
0.003
 10
2.146291
 20
1.901965
 40
0.003
 41
0.003
  0
LWPOLYLINE
  5
1B5
100
AcDbEntity
  8
0
 62
   254
100
AcDbPolyline
 90
        2
 70
     0
 39
0.003
 10
2.146291
 20
1.901965
 40
0.003
 41
0.003
 10
1.489209
 20
1.532378
 40
0.003
 41
0.003
  0
LWPOLYLINE
  5
1B6
100
AcDbEntity
  8
0
 62
   254
100
AcDbPolyline
 90
        2
 70
     0
 39
0.003
 10
1.489209
 20
1.532378
 40
0.003
 41
0.003
 10
1.52085
 20
1.500787
 40
0.003
 41
0.003
  0
LWPOLYLINE
  5
1B7
100
AcDbEntity
  8
0
 62
   254
100
AcDbPolyline
 90
        2
 70
     0
 39
0.003
 10
1.489209
 20
1.532378
 40
0.003
 41
0.003
 10
2.146291
 20
1.901965
 40
0.003
 41
0.003
  0
LWPOLYLINE
  5
1B8
100
AcDbEntity
  8
0
 62
   254
100
AcDbPolyline
 90
        2
 70
     0
 39
0.003
 10
2.146291
 20
1.901965
 40
0.003
 41
0.003
 10
2.113374
 20
1.932146
 40
0.003
 41
0.003
  0
LWPOLYLINE
  5
1B9
100
AcDbEntity
  8
0
 62
   254
100
AcDbPolyline
 90
        2
 70
     0
 39
0.003
 10
2.113374
 20
1.932146
 40
0.003
 41
0.003
 10
1.456291
 20
1.562559
 40
0.003
 41
0.003
  0
LWPOLYLINE
  5
1BA
100
AcDbEntity
  8
0
 62
   254
100
AcDbPolyline
 90
        2
 70
     0
 39
0.003
 10
1.456291
 20
1.562559
 40
0.003
 41
0.003
 10
1.489209
 20
1.532378
 40
0.003
 41
0.003
  0
LWPOLYLINE
  5
1BB
100
AcDbEntity
  8
0
 62
   254
100
AcDbPolyline
 90
        2
 70
     0
 39
0.003
 10
1.456291
 20
1.562559
 40
0.003
 41
0.003
 10
2.113374
 20
1.932146
 40
0.003
 41
0.003
  0
LWPOLYLINE
  5
1BC
100
AcDbEntity
  8
0
 62
   254
100
AcDbPolyline
 90
        2
 70
     0
 39
0.003
 10
2.113374
 20
1.932146
 40
0.003
 41
0.003
 10
2.079268
 20
1.960894
 40
0.003
 41
0.003
  0
LWPOLYLINE
  5
1BD
100
AcDbEntity
  8
0
 62
   254
100
AcDbPolyline
 90
        2
 70
     0
 39
0.003
 10
2.079268
 20
1.960894
 40
0.003
 41
0.003
 10
1.422185
 20
1.591307
 40
0.003
 41
0.003
  0
LWPOLYLINE
  5
1BE
100
AcDbEntity
  8
0
 62
   254
100
AcDbPolyline
 90
        2
 70
     0
 39
0.003
 10
1.422185
 20
1.591307
 40
0.003
 41
0.003
 10
1.456291
 20
1.562559
 40
0.003
 41
0.003
  0
LWPOLYLINE
  5
1BF
100
AcDbEntity
  8
0
 62
   254
100
AcDbPolyline
 90
        2
 70
     0
 39
0.003
 10
1.422185
 20
1.591307
 40
0.003
 41
0.003
 10
2.079268
 20
1.960894
 40
0.003
 41
0.003
  0
LWPOLYLINE
  5
1C0
100
AcDbEntity
  8
0
 62
   254
100
AcDbPolyline
 90
        2
 70
     0
 39
0.003
 10
2.079268
 20
1.960894
 40
0.003
 41
0.003
 10
2.044047
 20
1.988154
 40
0.003
 41
0.003
  0
LWPOLYLINE
  5
1C1
100
AcDbEntity
  8
0
 62
   254
100
AcDbPolyline
 90
        2
 70
     0
 39
0.003
 10
2.044047
 20
1.988154
 40
0.003
 41
0.003
 10
1.386965
 20
1.618567
 40
0.003
 41
0.003
  0
LWPOLYLINE
  5
1C2
100
AcDbEntity
  8
0
 62
   254
100
AcDbPolyline
 90
        2
 70
     0
 39
0.003
 10
1.386965
 20
1.618567
 40
0.003
 41
0.003
 10
1.422185
 20
1.591307
 40
0.003
 41
0.003
  0
LWPOLYLINE
  5
1C3
100
AcDbEntity
  8
0
 62
   254
100
AcDbPolyline
 90
        2
 70
     0
 39
0.003
 10
1.386965
 20
1.618567
 40
0.003
 41
0.003
 10
2.044047
 20
1.988154
 40
0.003
 41
0.003
  0
LWPOLYLINE
  5
1C4
100
AcDbEntity
  8
0
 62
   254
100
AcDbPolyline
 90
        2
 70
     0
 39
0.003
 10
2.044047
 20
1.988154
 40
0.003
 41
0.003
 10
2.007803
 20
2.013906
 40
0.003
 41
0.003
  0
LWPOLYLINE
  5
1C5
100
AcDbEntity
  8
0
 62
   254
100
AcDbPolyline
 90
        2
 70
     0
 39
0.003
 10
2.007803
 20
2.013906
 40
0.003
 41
0.003
 10
1.35072
 20
1.644319
 40
0.003
 41
0.003
  0
LWPOLYLINE
  5
1C6
100
AcDbEntity
  8
0
 62
   254
100
AcDbPolyline
 90
        2
 70
     0
 39
0.003
 10
1.35072
 20
1.644319
 40
0.003
 41
0.003
 10
1.386965
 20
1.618567
 40
0.003
 41
0.003
  0
LWPOLYLINE
  5
1C7
100
AcDbEntity
  8
0
 62
   254
100
AcDbPolyline
 90
        2
 70
     0
 39
0.003
 10
1.35072
 20
1.644319
 40
0.003
 41
0.003
 10
2.007803
 20
2.013906
 40
0.003
 41
0.003
  0
LWPOLYLINE
  5
1C8
100
AcDbEntity
  8
0
 62
   254
100
AcDbPolyline
 90
        2
 70
     0
 39
0.003
 10
2.007803
 20
2.013906
 40
0.003
 41
0.003
 10
1.97061
 20
2.038098
 40
0.003
 41
0.003
  0
LWPOLYLINE
  5
1C9
100
AcDbEntity
  8
0
 62
   254
100
AcDbPolyline
 90
        2
 70
     0
 39
0.003
 10
1.97061
 20
2.038098
 40
0.003
 41
0.003
 10
1.313528
 20
1.668512
 40
0.003
 41
0.003
  0
LWPOLYLINE
  5
1CA
100
AcDbEntity
  8
0
 62
   254
100
AcDbPolyline
 90
        2
 70
     0
 39
0.003
 10
1.313528
 20
1.668512
 40
0.003
 41
0.003
 10
1.35072
 20
1.644319
 40
0.003
 41
0.003
  0
LWPOLYLINE
  5
1CB
100
AcDbEntity
  8
0
 62
   254
100
AcDbPolyline
 90
        2
 70
     0
 39
0.003
 10
1.313528
 20
1.668512
 40
0.003
 41
0.003
 10
1.97061
 20
2.038098
 40
0.003
 41
0.003
  0
LWPOLYLINE
  5
1CC
100
AcDbEntity
  8
0
 62
   254
100
AcDbPolyline
 90
        2
 70
     0
 39
0.003
 10
1.97061
 20
2.038098
 40
0.003
 41
0.003
 10
1.932559
 20
2.060705
 40
0.003
 41
0.003
  0
LWPOLYLINE
  5
1CD
100
AcDbEntity
  8
0
 62
   254
100
AcDbPolyline
 90
        2
 70
     0
 39
0.003
 10
1.932559
 20
2.060705
 40
0.003
 41
0.003
 10
1.275476
 20
1.691118
 40
0.003
 41
0.003
  0
LWPOLYLINE
  5
1CE
100
AcDbEntity
  8
0
 62
   254
100
AcDbPolyline
 90
        2
 70
     0
 39
0.003
 10
1.275476
 20
1.691118
 40
0.003
 41
0.003
 10
1.313528
 20
1.668512
 40
0.003
 41
0.003
  0
LWPOLYLINE
  5
1CF
100
AcDbEntity
  8
0
 62
     9
100
AcDbPolyline
 90
        2
 70
     0
 39
0.003
 10
1.275476
 20
1.691118
 40
0.003
 41
0.003
 10
1.932559
 20
2.060705
 40
0.003
 41
0.003
  0
LWPOLYLINE
  5
1D0
100
AcDbEntity
  8
0
 62
     9
100
AcDbPolyline
 90
        2
 70
     0
 39
0.003
 10
1.932559
 20
2.060705
 40
0.003
 41
0.003
 10
1.893713
 20
2.081665
 40
0.003
 41
0.003
  0
LWPOLYLINE
  5
1D1
100
AcDbEntity
  8
0
 62
     9
100
AcDbPolyline
 90
        2
 70
     0
 39
0.003
 10
1.893713
 20
2.081665
 40
0.003
 41
0.003
 10
1.23663
 20
1.712079
 40
0.003
 41
0.003
  0
LWPOLYLINE
  5
1D2
100
AcDbEntity
  8
0
 62
     9
100
AcDbPolyline
 90
        2
 70
     0
 39
0.003
 10
1.23663
 20
1.712079
 40
0.003
 41
0.003
 10
1.275476
 20
1.691118
 40
0.003
 41
0.003
  0
LWPOLYLINE
  5
1D3
100
AcDbEntity
  8
0
 62
     9
100
AcDbPolyline
 90
        2
 70
     0
 39
0.003
 10
1.23663
 20
1.712079
 40
0.003
 41
0.003
 10
1.893713
 20
2.081665
 40
0.003
 41
0.003
  0
LWPOLYLINE
  5
1D4
100
AcDbEntity
  8
0
 62
     9
100
AcDbPolyline
 90
        2
 70
     0
 39
0.003
 10
1.893713
 20
2.081665
 40
0.003
 41
0.003
 10
1.854173
 20
2.100965
 40
0.003
 41
0.003
  0
LWPOLYLINE
  5
1D5
100
AcDbEntity
  8
0
 62
     9
100
AcDbPolyline
 90
        2
 70
     0
 39
0.003
 10
1.854173
 20
2.100965
 40
0.003
 41
0.003
 10
1.197091
 20
1.731378
 40
0.003
 41
0.003
  0
LWPOLYLINE
  5
1D6
100
AcDbEntity
  8
0
 62
     9
100
AcDbPolyline
 90
        2
 70
     0
 39
0.003
 10
1.197091
 20
1.731378
 40
0.003
 41
0.003
 10
1.23663
 20
1.712079
 40
0.003
 41
0.003
  0
LWPOLYLINE
  5
1D7
100
AcDbEntity
  8
0
 62
     9
100
AcDbPolyline
 90
        2
 70
     0
 39
0.003
 10
1.197091
 20
1.731378
 40
0.003
 41
0.003
 10
1.854173
 20
2.100965
 40
0.003
 41
0.003
  0
LWPOLYLINE
  5
1D8
100
AcDbEntity
  8
0
 62
     9
100
AcDbPolyline
 90
        2
 70
     0
 39
0.003
 10
1.854173
 20
2.100965
 40
0.003
 41
0.003
 10
1.814012
 20
2.118555
 40
0.003
 41
0.003
  0
LWPOLYLINE
  5
1D9
100
AcDbEntity
  8
0
 62
     9
100
AcDbPolyline
 90
        2
 70
     0
 39
0.003
 10
1.814012
 20
2.118555
 40
0.003
 41
0.003
 10
1.156929
 20
1.748969
 40
0.003
 41
0.003
  0
LWPOLYLINE
  5
1DA
100
AcDbEntity
  8
0
 62
     9
100
AcDbPolyline
 90
        2
 70
     0
 39
0.003
 10
1.156929
 20
1.748969
 40
0.003
 41
0.003
 10
1.197091
 20
1.731378
 40
0.003
 41
0.003
  0
LWPOLYLINE
  5
1DB
100
AcDbEntity
  8
0
 62
     9
100
AcDbPolyline
 90
        2
 70
     0
 39
0.003
 10
1.156929
 20
1.748969
 40
0.003
 41
0.003
 10
1.814012
 20
2.118555
 40
0.003
 41
0.003
  0
LWPOLYLINE
  5
1DC
100
AcDbEntity
  8
0
 62
     9
100
AcDbPolyline
 90
        2
 70
     0
 39
0.003
 10
1.814012
 20
2.118555
 40
0.003
 41
0.003
 10
1.773319
 20
2.134402
 40
0.003
 41
0.003
  0
LWPOLYLINE
  5
1DD
100
AcDbEntity
  8
0
 62
     9
100
AcDbPolyline
 90
        2
 70
     0
 39
0.003
 10
1.773319
 20
2.134402
 40
0.003
 41
0.003
 10
1.116236
 20
1.764815
 40
0.003
 41
0.003
  0
LWPOLYLINE
  5
1DE
100
AcDbEntity
  8
0
 62
     9
100
AcDbPolyline
 90
        2
 70
     0
 39
0.003
 10
1.116236
 20
1.764815
 40
0.003
 41
0.003
 10
1.156929
 20
1.748969
 40
0.003
 41
0.003
  0
LWPOLYLINE
  5
1DF
100
AcDbEntity
  8
0
 62
     9
100
AcDbPolyline
 90
        2
 70
     0
 39
0.003
 10
1.116236
 20
1.764815
 40
0.003
 41
0.003
 10
1.773319
 20
2.134402
 40
0.003
 41
0.003
  0
LWPOLYLINE
  5
1E0
100
AcDbEntity
  8
0
 62
     9
100
AcDbPolyline
 90
        2
 70
     0
 39
0.003
 10
1.773319
 20
2.134402
 40
0.003
 41
0.003
 10
1.732161
 20
2.148461
 40
0.003
 41
0.003
  0
LWPOLYLINE
  5
1E1
100
AcDbEntity
  8
0
 62
     9
100
AcDbPolyline
 90
        2
 70
     0
 39
0.003
 10
1.732161
 20
2.148461
 40
0.003
 41
0.003
 10
1.075079
 20
1.778874
 40
0.003
 41
0.003
  0
LWPOLYLINE
  5
1E2
100
AcDbEntity
  8
0
 62
     9
100
AcDbPolyline
 90
        2
 70
     0
 39
0.003
 10
1.075079
 20
1.778874
 40
0.003
 41
0.003
 10
1.116236
 20
1.764815
 40
0.003
 41
0.003
  0
LWPOLYLINE
  5
1E3
100
AcDbEntity
  8
0
 62
     9
100
AcDbPolyline
 90
        2
 70
     0
 39
0.003
 10
1.075079
 20
1.778874
 40
0.003
 41
0.003
 10
1.732161
 20
2.148461
 40
0.003
 41
0.003
  0
LWPOLYLINE
  5
1E4
100
AcDbEntity
  8
0
 62
     9
100
AcDbPolyline
 90
        2
 70
     0
 39
0.003
 10
1.732161
 20
2.148461
 40
0.003
 41
0.003
 10
1.690638
 20
2.160701
 40
0.003
 41
0.003
  0
LWPOLYLINE
  5
1E5
100
AcDbEntity
  8
0
 62
     9
100
AcDbPolyline
 90
        2
 70
     0
 39
0.003
 10
1.690638
 20
2.160701
 40
0.003
 41
0.003
 10
1.033555
 20
1.791114
 40
0.003
 41
0.003
  0
LWPOLYLINE
  5
1E6
100
AcDbEntity
  8
0
 62
     9
100
AcDbPolyline
 90
        2
 70
     0
 39
0.003
 10
1.033555
 20
1.791114
 40
0.003
 41
0.003
 10
1.075079
 20
1.778874
 40
0.003
 41
0.003
  0
LWPOLYLINE
  5
1E7
100
AcDbEntity
  8
0
 62
     9
100
AcDbPolyline
 90
        2
 70
     0
 39
0.003
 10
1.033555
 20
1.791114
 40
0.003
 41
0.003
 10
1.690638
 20
2.160701
 40
0.003
 41
0.003
  0
LWPOLYLINE
  5
1E8
100
AcDbEntity
  8
0
 62
     9
100
AcDbPolyline
 90
        2
 70
     0
 39
0.003
 10
1.690638
 20
2.160701
 40
0.003
 41
0.003
 10
1.648815
 20
2.171083
 40
0.003
 41
0.003
  0
LWPOLYLINE
  5
1E9
100
AcDbEntity
  8
0
 62
     9
100
AcDbPolyline
 90
        2
 70
     0
 39
0.003
 10
1.648815
 20
2.171083
 40
0.003
 41
0.003
 10
0.991732
 20
1.801496
 40
0.003
 41
0.003
  0
LWPOLYLINE
  5
1EA
100
AcDbEntity
  8
0
 62
     9
100
AcDbPolyline
 90
        2
 70
     0
 39
0.003
 10
0.991732
 20
1.801496
 40
0.003
 41
0.003
 10
1.033555
 20
1.791114
 40
0.003
 41
0.003
  0
LWPOLYLINE
  5
1EB
100
AcDbEntity
  8
0
 62
     9
100
AcDbPolyline
 90
        2
 70
     0
 39
0.003
 10
0.991732
 20
1.801496
 40
0.003
 41
0.003
 10
1.648815
 20
2.171083
 40
0.003
 41
0.003
  0
LWPOLYLINE
  5
1EC
100
AcDbEntity
  8
0
 62
     9
100
AcDbPolyline
 90
        2
 70
     0
 39
0.003
 10
1.648815
 20
2.171083
 40
0.003
 41
0.003
 10
1.606791
 20
2.179571
 40
0.003
 41
0.003
  0
LWPOLYLINE
  5
1ED
100
AcDbEntity
  8
0
 62
     9
100
AcDbPolyline
 90
        2
 70
     0
 39
0.003
 10
1.606791
 20
2.179571
 40
0.003
 41
0.003
 10
0.949709
 20
1.809984
 40
0.003
 41
0.003
  0
LWPOLYLINE
  5
1EE
100
AcDbEntity
  8
0
 62
     9
100
AcDbPolyline
 90
        2
 70
     0
 39
0.003
 10
0.949709
 20
1.809984
 40
0.003
 41
0.003
 10
0.991732
 20
1.801496
 40
0.003
 41
0.003
  0
LWPOLYLINE
  5
1EF
100
AcDbEntity
  8
0
 62
     0
100
AcDbPolyline
 90
        2
 70
     0
 39
0.003
 10
1.784917
 20
0.785874
 40
0.003
 41
0.003
 10
2.442
 20
1.155461
 40
0.003
 41
0.003
  0
LWPOLYLINE
  5
1F0
100
AcDbEntity
  8
0
 62
     0
100
AcDbPolyline
 90
        2
 70
     0
 39
0.003
 10
2.442
 20
1.155461
 40
0.003
 41
0.003
 10
2.444484
 20
1.205087
 40
0.003
 41
0.003
  0
LWPOLYLINE
  5
1F1
100
AcDbEntity
  8
0
 62
     0
100
AcDbPolyline
 90
        2
 70
     0
 39
0.003
 10
2.444484
 20
1.205087
 40
0.003
 41
0.003
 10
2.444315
 20
1.253961
 40
0.003
 41
0.003
  0
LWPOLYLINE
  5
1F2
100
AcDbEntity
  8
0
 62
     0
100
AcDbPolyline
 90
        2
 70
     0
 39
0.003
 10
2.444315
 20
1.253961
 40
0.003
 41
0.003
 10
2.441563
 20
1.302039
 40
0.003
 41
0.003
  0
LWPOLYLINE
  5
1F3
100
AcDbEntity
  8
0
 62
     0
100
AcDbPolyline
 90
        2
 70
     0
 39
0.003
 10
2.441563
 20
1.302039
 40
0.003
 41
0.003
 10
2.436315
 20
1.349287
 40
0.003
 41
0.003
  0
LWPOLYLINE
  5
1F4
100
AcDbEntity
  8
0
 62
     0
100
AcDbPolyline
 90
        2
 70
     0
 39
0.003
 10
2.436315
 20
1.349287
 40
0.003
 41
0.003
 10
2.428646
 20
1.395661
 40
0.003
 41
0.003
  0
LWPOLYLINE
  5
1F5
100
AcDbEntity
  8
0
 62
     0
100
AcDbPolyline
 90
        2
 70
     0
 39
0.003
 10
2.428646
 20
1.395661
 40
0.003
 41
0.003
 10
2.41865
 20
1.44113
 40
0.003
 41
0.003
  0
LWPOLYLINE
  5
1F6
100
AcDbEntity
  8
0
 62
     0
100
AcDbPolyline
 90
        2
 70
     0
 39
0.003
 10
2.41865
 20
1.44113
 40
0.003
 41
0.003
 10
2.406394
 20
1.48565
 40
0.003
 41
0.003
  0
LWPOLYLINE
  5
1F7
100
AcDbEntity
  8
0
 62
     0
100
AcDbPolyline
 90
        2
 70
     0
 39
0.003
 10
2.406394
 20
1.48565
 40
0.003
 41
0.003
 10
2.391976
 20
1.529185
 40
0.003
 41
0.003
  0
LWPOLYLINE
  5
1F8
100
AcDbEntity
  8
0
 62
     0
100
AcDbPolyline
 90
        2
 70
     0
 39
0.003
 10
2.391976
 20
1.529185
 40
0.003
 41
0.003
 10
2.375457
 20
1.571689
 40
0.003
 41
0.003
  0
LWPOLYLINE
  5
1F9
100
AcDbEntity
  8
0
 62
     0
100
AcDbPolyline
 90
        2
 70
     0
 39
0.003
 10
2.375457
 20
1.571689
 40
0.003
 41
0.003
 10
2.356937
 20
1.613138
 40
0.003
 41
0.003
  0
LWPOLYLINE
  5
1FA
100
AcDbEntity
  8
0
 62
     0
100
AcDbPolyline
 90
        2
 70
     0
 39
0.003
 10
2.356937
 20
1.613138
 40
0.003
 41
0.003
 10
2.336488
 20
1.653488
 40
0.003
 41
0.003
  0
LWPOLYLINE
  5
1FB
100
AcDbEntity
  8
0
 62
     0
100
AcDbPolyline
 90
        2
 70
     0
 39
0.003
 10
2.336488
 20
1.653488
 40
0.003
 41
0.003
 10
2.314201
 20
1.692705
 40
0.003
 41
0.003
  0
LWPOLYLINE
  5
1FC
100
AcDbEntity
  8
0
 62
     0
100
AcDbPolyline
 90
        2
 70
     0
 39
0.003
 10
2.314201
 20
1.692705
 40
0.003
 41
0.003
 10
2.290146
 20
1.73074
 40
0.003
 41
0.003
  0
LWPOLYLINE
  5
1FD
100
AcDbEntity
  8
0
 62
     0
100
AcDbPolyline
 90
        2
 70
     0
 39
0.003
 10
2.290146
 20
1.73074
 40
0.003
 41
0.003
 10
2.264409
 20
1.767567
 40
0.003
 41
0.003
  0
LWPOLYLINE
  5
1FE
100
AcDbEntity
  8
0
 62
     0
100
AcDbPolyline
 90
        2
 70
     0
 39
0.003
 10
2.264409
 20
1.767567
 40
0.003
 41
0.003
 10
2.237075
 20
1.803138
 40
0.003
 41
0.003
  0
LWPOLYLINE
  5
1FF
100
AcDbEntity
  8
0
 62
     0
100
AcDbPolyline
 90
        2
 70
     0
 39
0.003
 10
2.237075
 20
1.803138
 40
0.003
 41
0.003
 10
2.208228
 20
1.837425
 40
0.003
 41
0.003
  0
LWPOLYLINE
  5
200
100
AcDbEntity
  8
0
 62
     0
100
AcDbPolyline
 90
        2
 70
     0
 39
0.003
 10
2.208228
 20
1.837425
 40
0.003
 41
0.003
 10
2.177933
 20
1.870374
 40
0.003
 41
0.003
  0
LWPOLYLINE
  5
201
100
AcDbEntity
  8
0
 62
     0
100
AcDbPolyline
 90
        2
 70
     0
 39
0.003
 10
2.177933
 20
1.870374
 40
0.003
 41
0.003
 10
2.146291
 20
1.901965
 40
0.003
 41
0.003
  0
LWPOLYLINE
  5
202
100
AcDbEntity
  8
0
 62
     0
100
AcDbPolyline
 90
        2
 70
     0
 39
0.003
 10
2.146291
 20
1.901965
 40
0.003
 41
0.003
 10
2.113374
 20
1.932146
 40
0.003
 41
0.003
  0
LWPOLYLINE
  5
203
100
AcDbEntity
  8
0
 62
     0
100
AcDbPolyline
 90
        2
 70
     0
 39
0.003
 10
2.113374
 20
1.932146
 40
0.003
 41
0.003
 10
2.079268
 20
1.960894
 40
0.003
 41
0.003
  0
LWPOLYLINE
  5
204
100
AcDbEntity
  8
0
 62
     0
100
AcDbPolyline
 90
        2
 70
     0
 39
0.003
 10
2.079268
 20
1.960894
 40
0.003
 41
0.003
 10
2.044047
 20
1.988154
 40
0.003
 41
0.003
  0
LWPOLYLINE
  5
205
100
AcDbEntity
  8
0
 62
     0
100
AcDbPolyline
 90
        2
 70
     0
 39
0.003
 10
2.044047
 20
1.988154
 40
0.003
 41
0.003
 10
2.007803
 20
2.013906
 40
0.003
 41
0.003
  0
LWPOLYLINE
  5
206
100
AcDbEntity
  8
0
 62
     0
100
AcDbPolyline
 90
        2
 70
     0
 39
0.003
 10
2.007803
 20
2.013906
 40
0.003
 41
0.003
 10
1.97061
 20
2.038098
 40
0.003
 41
0.003
  0
LWPOLYLINE
  5
207
100
AcDbEntity
  8
0
 62
     0
100
AcDbPolyline
 90
        2
 70
     0
 39
0.003
 10
1.97061
 20
2.038098
 40
0.003
 41
0.003
 10
1.932559
 20
2.060705
 40
0.003
 41
0.003
  0
LWPOLYLINE
  5
208
100
AcDbEntity
  8
0
 62
     0
100
AcDbPolyline
 90
        2
 70
     0
 39
0.003
 10
1.932559
 20
2.060705
 40
0.003
 41
0.003
 10
1.893713
 20
2.081665
 40
0.003
 41
0.003
  0
LWPOLYLINE
  5
209
100
AcDbEntity
  8
0
 62
     0
100
AcDbPolyline
 90
        2
 70
     0
 39
0.003
 10
1.893713
 20
2.081665
 40
0.003
 41
0.003
 10
1.854173
 20
2.100965
 40
0.003
 41
0.003
  0
LWPOLYLINE
  5
20A
100
AcDbEntity
  8
0
 62
     0
100
AcDbPolyline
 90
        2
 70
     0
 39
0.003
 10
1.854173
 20
2.100965
 40
0.003
 41
0.003
 10
1.814012
 20
2.118555
 40
0.003
 41
0.003
  0
LWPOLYLINE
  5
20B
100
AcDbEntity
  8
0
 62
     0
100
AcDbPolyline
 90
        2
 70
     0
 39
0.003
 10
1.814012
 20
2.118555
 40
0.003
 41
0.003
 10
1.773319
 20
2.134402
 40
0.003
 41
0.003
  0
LWPOLYLINE
  5
20C
100
AcDbEntity
  8
0
 62
     0
100
AcDbPolyline
 90
        2
 70
     0
 39
0.003
 10
1.773319
 20
2.134402
 40
0.003
 41
0.003
 10
1.732161
 20
2.148461
 40
0.003
 41
0.003
  0
LWPOLYLINE
  5
20D
100
AcDbEntity
  8
0
 62
     0
100
AcDbPolyline
 90
        2
 70
     0
 39
0.003
 10
1.732161
 20
2.148461
 40
0.003
 41
0.003
 10
1.690638
 20
2.160701
 40
0.003
 41
0.003
  0
LWPOLYLINE
  5
20E
100
AcDbEntity
  8
0
 62
     0
100
AcDbPolyline
 90
        2
 70
     0
 39
0.003
 10
1.690638
 20
2.160701
 40
0.003
 41
0.003
 10
1.648815
 20
2.171083
 40
0.003
 41
0.003
  0
LWPOLYLINE
  5
20F
100
AcDbEntity
  8
0
 62
     0
100
AcDbPolyline
 90
        2
 70
     0
 39
0.003
 10
1.648815
 20
2.171083
 40
0.003
 41
0.003
 10
1.606791
 20
2.179571
 40
0.003
 41
0.003
  0
LWPOLYLINE
  5
210
100
AcDbEntity
  8
0
 62
     0
100
AcDbPolyline
 90
        2
 70
     0
 39
0.003
 10
1.606791
 20
2.179571
 40
0.003
 41
0.003
 10
0.949709
 20
1.809984
 40
0.003
 41
0.003
  0
LWPOLYLINE
  5
211
100
AcDbEntity
  8
0
 62
     0
100
AcDbPolyline
 90
        2
 70
     0
 39
0.003
 10
0.949709
 20
1.809984
 40
0.003
 41
0.003
 10
0.991732
 20
1.801496
 40
0.003
 41
0.003
  0
LWPOLYLINE
  5
212
100
AcDbEntity
  8
0
 62
     0
100
AcDbPolyline
 90
        2
 70
     0
 39
0.003
 10
0.991732
 20
1.801496
 40
0.003
 41
0.003
 10
1.033555
 20
1.791114
 40
0.003
 41
0.003
  0
LWPOLYLINE
  5
213
100
AcDbEntity
  8
0
 62
     0
100
AcDbPolyline
 90
        2
 70
     0
 39
0.003
 10
1.033555
 20
1.791114
 40
0.003
 41
0.003
 10
1.075079
 20
1.778874
 40
0.003
 41
0.003
  0
LWPOLYLINE
  5
214
100
AcDbEntity
  8
0
 62
     0
100
AcDbPolyline
 90
        2
 70
     0
 39
0.003
 10
1.075079
 20
1.778874
 40
0.003
 41
0.003
 10
1.116236
 20
1.764815
 40
0.003
 41
0.003
  0
LWPOLYLINE
  5
215
100
AcDbEntity
  8
0
 62
     0
100
AcDbPolyline
 90
        2
 70
     0
 39
0.003
 10
1.116236
 20
1.764815
 40
0.003
 41
0.003
 10
1.156929
 20
1.748969
 40
0.003
 41
0.003
  0
LWPOLYLINE
  5
216
100
AcDbEntity
  8
0
 62
     0
100
AcDbPolyline
 90
        2
 70
     0
 39
0.003
 10
1.156929
 20
1.748969
 40
0.003
 41
0.003
 10
1.197091
 20
1.731378
 40
0.003
 41
0.003
  0
LWPOLYLINE
  5
217
100
AcDbEntity
  8
0
 62
     0
100
AcDbPolyline
 90
        2
 70
     0
 39
0.003
 10
1.197091
 20
1.731378
 40
0.003
 41
0.003
 10
1.23663
 20
1.712079
 40
0.003
 41
0.003
  0
LWPOLYLINE
  5
218
100
AcDbEntity
  8
0
 62
     0
100
AcDbPolyline
 90
        2
 70
     0
 39
0.003
 10
1.23663
 20
1.712079
 40
0.003
 41
0.003
 10
1.275476
 20
1.691118
 40
0.003
 41
0.003
  0
LWPOLYLINE
  5
219
100
AcDbEntity
  8
0
 62
     0
100
AcDbPolyline
 90
        2
 70
     0
 39
0.003
 10
1.275476
 20
1.691118
 40
0.003
 41
0.003
 10
1.313528
 20
1.668512
 40
0.003
 41
0.003
  0
LWPOLYLINE
  5
21A
100
AcDbEntity
  8
0
 62
     0
100
AcDbPolyline
 90
        2
 70
     0
 39
0.003
 10
1.313528
 20
1.668512
 40
0.003
 41
0.003
 10
1.35072
 20
1.644319
 40
0.003
 41
0.003
  0
LWPOLYLINE
  5
21B
100
AcDbEntity
  8
0
 62
     0
100
AcDbPolyline
 90
        2
 70
     0
 39
0.003
 10
1.35072
 20
1.644319
 40
0.003
 41
0.003
 10
1.386965
 20
1.618567
 40
0.003
 41
0.003
  0
LWPOLYLINE
  5
21C
100
AcDbEntity
  8
0
 62
     0
100
AcDbPolyline
 90
        2
 70
     0
 39
0.003
 10
1.386965
 20
1.618567
 40
0.003
 41
0.003
 10
1.422185
 20
1.591307
 40
0.003
 41
0.003
  0
LWPOLYLINE
  5
21D
100
AcDbEntity
  8
0
 62
     0
100
AcDbPolyline
 90
        2
 70
     0
 39
0.003
 10
1.422185
 20
1.591307
 40
0.003
 41
0.003
 10
1.456291
 20
1.562559
 40
0.003
 41
0.003
  0
LWPOLYLINE
  5
21E
100
AcDbEntity
  8
0
 62
     0
100
AcDbPolyline
 90
        2
 70
     0
 39
0.003
 10
1.456291
 20
1.562559
 40
0.003
 41
0.003
 10
1.489209
 20
1.532378
 40
0.003
 41
0.003
  0
LWPOLYLINE
  5
21F
100
AcDbEntity
  8
0
 62
     0
100
AcDbPolyline
 90
        2
 70
     0
 39
0.003
 10
1.489209
 20
1.532378
 40
0.003
 41
0.003
 10
1.52085
 20
1.500787
 40
0.003
 41
0.003
  0
LWPOLYLINE
  5
220
100
AcDbEntity
  8
0
 62
     0
100
AcDbPolyline
 90
        2
 70
     0
 39
0.003
 10
1.52085
 20
1.500787
 40
0.003
 41
0.003
 10
1.551146
 20
1.467839
 40
0.003
 41
0.003
  0
LWPOLYLINE
  5
221
100
AcDbEntity
  8
0
 62
     0
100
AcDbPolyline
 90
        2
 70
     0
 39
0.003
 10
1.551146
 20
1.467839
 40
0.003
 41
0.003
 10
1.579992
 20
1.433551
 40
0.003
 41
0.003
  0
LWPOLYLINE
  5
222
100
AcDbEntity
  8
0
 62
     0
100
AcDbPolyline
 90
        2
 70
     0
 39
0.003
 10
1.579992
 20
1.433551
 40
0.003
 41
0.003
 10
1.607327
 20
1.39798
 40
0.003
 41
0.003
  0
LWPOLYLINE
  5
223
100
AcDbEntity
  8
0
 62
     0
100
AcDbPolyline
 90
        2
 70
     0
 39
0.003
 10
1.607327
 20
1.39798
 40
0.003
 41
0.003
 10
1.633063
 20
1.361154
 40
0.003
 41
0.003
  0
LWPOLYLINE
  5
224
100
AcDbEntity
  8
0
 62
     0
100
AcDbPolyline
 90
        2
 70
     0
 39
0.003
 10
1.633063
 20
1.361154
 40
0.003
 41
0.003
 10
1.657118
 20
1.323118
 40
0.003
 41
0.003
  0
LWPOLYLINE
  5
225
100
AcDbEntity
  8
0
 62
     0
100
AcDbPolyline
 90
        2
 70
     0
 39
0.003
 10
1.657118
 20
1.323118
 40
0.003
 41
0.003
 10
1.679406
 20
1.283902
 40
0.003
 41
0.003
  0
LWPOLYLINE
  5
226
100
AcDbEntity
  8
0
 62
     0
100
AcDbPolyline
 90
        2
 70
     0
 39
0.003
 10
1.679406
 20
1.283902
 40
0.003
 41
0.003
 10
1.699854
 20
1.243551
 40
0.003
 41
0.003
  0
LWPOLYLINE
  5
227
100
AcDbEntity
  8
0
 62
     0
100
AcDbPolyline
 90
        2
 70
     0
 39
0.003
 10
1.699854
 20
1.243551
 40
0.003
 41
0.003
 10
1.718374
 20
1.202102
 40
0.003
 41
0.003
  0
LWPOLYLINE
  5
228
100
AcDbEntity
  8
0
 62
     0
100
AcDbPolyline
 90
        2
 70
     0
 39
0.003
 10
1.718374
 20
1.202102
 40
0.003
 41
0.003
 10
1.734894
 20
1.159598
 40
0.003
 41
0.003
  0
LWPOLYLINE
  5
229
100
AcDbEntity
  8
0
 62
     0
100
AcDbPolyline
 90
        2
 70
     0
 39
0.003
 10
1.734894
 20
1.159598
 40
0.003
 41
0.003
 10
1.749311
 20
1.116063
 40
0.003
 41
0.003
  0
LWPOLYLINE
  5
22A
100
AcDbEntity
  8
0
 62
     0
100
AcDbPolyline
 90
        2
 70
     0
 39
0.003
 10
1.749311
 20
1.116063
 40
0.003
 41
0.003
 10
1.761567
 20
1.071543
 40
0.003
 41
0.003
  0
LWPOLYLINE
  5
22B
100
AcDbEntity
  8
0
 62
     0
100
AcDbPolyline
 90
        2
 70
     0
 39
0.003
 10
1.761567
 20
1.071543
 40
0.003
 41
0.003
 10
1.771563
 20
1.026075
 40
0.003
 41
0.003
  0
LWPOLYLINE
  5
22C
100
AcDbEntity
  8
0
 62
     0
100
AcDbPolyline
 90
        2
 70
     0
 39
0.003
 10
1.771563
 20
1.026075
 40
0.003
 41
0.003
 10
1.779232
 20
0.979701
 40
0.003
 41
0.003
  0
LWPOLYLINE
  5
22D
100
AcDbEntity
  8
0
 62
     0
100
AcDbPolyline
 90
        2
 70
     0
 39
0.003
 10
1.779232
 20
0.979701
 40
0.003
 41
0.003
 10
1.78448
 20
0.932453
 40
0.003
 41
0.003
  0
LWPOLYLINE
  5
22E
100
AcDbEntity
  8
0
 62
     0
100
AcDbPolyline
 90
        2
 70
     0
 39
0.003
 10
1.78448
 20
0.932453
 40
0.003
 41
0.003
 10
1.787232
 20
0.884374
 40
0.003
 41
0.003
  0
LWPOLYLINE
  5
22F
100
AcDbEntity
  8
0
 62
     0
100
AcDbPolyline
 90
        2
 70
     0
 39
0.003
 10
1.787232
 20
0.884374
 40
0.003
 41
0.003
 10
1.787402
 20
0.8355
 40
0.003
 41
0.003
  0
LWPOLYLINE
  5
230
100
AcDbEntity
  8
0
 62
     0
100
AcDbPolyline
 90
        2
 70
     0
 39
0.003
 10
1.787402
 20
0.8355
 40
0.003
 41
0.003
 10
1.784917
 20
0.785874
 40
0.003
 41
0.003
  0
LWPOLYLINE
  5
231
100
AcDbEntity
  8
0
 62
     9
100
AcDbPolyline
 90
        2
 70
     0
 39
0.003
 10
0.949709
 20
1.809984
 40
0.003
 41
0.003
 10
1.606791
 20
2.179571
 40
0.003
 41
0.003
  0
LWPOLYLINE
  5
232
100
AcDbEntity
  8
0
 62
     9
100
AcDbPolyline
 90
        2
 70
     0
 39
0.003
 10
1.606791
 20
2.179571
 40
0.003
 41
0.003
 10
0.294398
 20
2.397114
 40
0.003
 41
0.003
  0
LWPOLYLINE
  5
233
100
AcDbEntity
  8
0
 62
     9
100
AcDbPolyline
 90
        2
 70
     0
 39
0.003
 10
0.294398
 20
2.397114
 40
0.003
 41
0.003
 10
-0.362685
 20
2.027528
 40
0.003
 41
0.003
  0
LWPOLYLINE
  5
234
100
AcDbEntity
  8
0
 62
     9
100
AcDbPolyline
 90
        2
 70
     0
 39
0.003
 10
-0.362685
 20
2.027528
 40
0.003
 41
0.003
 10
0.949709
 20
1.809984
 40
0.003
 41
0.003
  0
LWPOLYLINE
  5
235
100
AcDbEntity
  8
0
 62
     0
100
AcDbPolyline
 90
        2
 70
     0
 39
0.003
 10
0.949709
 20
1.809984
 40
0.003
 41
0.003
 10
1.606791
 20
2.179571
 40
0.003
 41
0.003
  0
LWPOLYLINE
  5
236
100
AcDbEntity
  8
0
 62
     0
100
AcDbPolyline
 90
        2
 70
     0
 39
0.003
 10
1.606791
 20
2.179571
 40
0.003
 41
0.003
 10
0.294398
 20
2.397114
 40
0.003
 41
0.003
  0
LWPOLYLINE
  5
237
100
AcDbEntity
  8
0
 62
     0
100
AcDbPolyline
 90
        2
 70
     0
 39
0.003
 10
0.294398
 20
2.397114
 40
0.003
 41
0.003
 10
-0.362685
 20
2.027528
 40
0.003
 41
0.003
  0
LWPOLYLINE
  5
238
100
AcDbEntity
  8
0
 62
     0
100
AcDbPolyline
 90
        2
 70
     0
 39
0.003
 10
-0.362685
 20
2.027528
 40
0.003
 41
0.003
 10
0.949709
 20
1.809984
 40
0.003
 41
0.003
  0
LWPOLYLINE
  5
239
100
AcDbEntity
  8
0
 62
   252
100
AcDbPolyline
 90
        2
 70
     0
 39
0.003
 10
-0.362685
 20
2.027528
 40
0.003
 41
0.003
 10
0.294398
 20
2.397114
 40
0.003
 41
0.003
  0
LWPOLYLINE
  5
23A
100
AcDbEntity
  8
0
 62
   252
100
AcDbPolyline
 90
        2
 70
     0
 39
0.003
 10
0.294398
 20
2.397114
 40
0.003
 41
0.003
 10
-1.017839
 20
2.179575
 40
0.003
 41
0.003
  0
LWPOLYLINE
  5
23B
100
AcDbEntity
  8
0
 62
   252
100
AcDbPolyline
 90
        2
 70
     0
 39
0.003
 10
-1.017839
 20
2.179575
 40
0.003
 41
0.003
 10
-1.674921
 20
1.809988
 40
0.003
 41
0.003
  0
LWPOLYLINE
  5
23C
100
AcDbEntity
  8
0
 62
   252
100
AcDbPolyline
 90
        2
 70
     0
 39
0.003
 10
-1.674921
 20
1.809988
 40
0.003
 41
0.003
 10
-0.362685
 20
2.027528
 40
0.003
 41
0.003
  0
LWPOLYLINE
  5
23D
100
AcDbEntity
  8
0
 62
     0
100
AcDbPolyline
 90
        2
 70
     0
 39
0.003
 10
-0.362685
 20
2.027528
 40
0.003
 41
0.003
 10
0.294398
 20
2.397114
 40
0.003
 41
0.003
  0
LWPOLYLINE
  5
23E
100
AcDbEntity
  8
0
 62
     0
100
AcDbPolyline
 90
        2
 70
     0
 39
0.003
 10
0.294398
 20
2.397114
 40
0.003
 41
0.003
 10
-1.017839
 20
2.179575
 40
0.003
 41
0.003
  0
LWPOLYLINE
  5
23F
100
AcDbEntity
  8
0
 62
     0
100
AcDbPolyline
 90
        2
 70
     0
 39
0.003
 10
-1.017839
 20
2.179575
 40
0.003
 41
0.003
 10
-1.674921
 20
1.809988
 40
0.003
 41
0.003
  0
LWPOLYLINE
  5
240
100
AcDbEntity
  8
0
 62
     0
100
AcDbPolyline
 90
        2
 70
     0
 39
0.003
 10
-1.674921
 20
1.809988
 40
0.003
 41
0.003
 10
-0.362685
 20
2.027528
 40
0.003
 41
0.003
  0
LWPOLYLINE
  5
241
100
AcDbEntity
  8
0
 62
   252
100
AcDbPolyline
 90
        2
 70
     0
 39
0.003
 10
-1.674921
 20
1.809988
 40
0.003
 41
0.003
 10
-1.017839
 20
2.179575
 40
0.003
 41
0.003
  0
LWPOLYLINE
  5
242
100
AcDbEntity
  8
0
 62
   252
100
AcDbPolyline
 90
        2
 70
     0
 39
0.003
 10
-1.017839
 20
2.179575
 40
0.003
 41
0.003
 10
-1.059862
 20
2.171087
 40
0.003
 41
0.003
  0
LWPOLYLINE
  5
243
100
AcDbEntity
  8
0
 62
   252
100
AcDbPolyline
 90
        2
 70
     0
 39
0.003
 10
-1.059862
 20
2.171087
 40
0.003
 41
0.003
 10
-1.716945
 20
1.8015
 40
0.003
 41
0.003
  0
LWPOLYLINE
  5
244
100
AcDbEntity
  8
0
 62
   252
100
AcDbPolyline
 90
        2
 70
     0
 39
0.003
 10
-1.716945
 20
1.8015
 40
0.003
 41
0.003
 10
-1.674921
 20
1.809988
 40
0.003
 41
0.003
  0
LWPOLYLINE
  5
245
100
AcDbEntity
  8
0
 62
     8
100
AcDbPolyline
 90
        2
 70
     0
 39
0.003
 10
-1.716945
 20
1.8015
 40
0.003
 41
0.003
 10
-1.059862
 20
2.171087
 40
0.003
 41
0.003
  0
LWPOLYLINE
  5
246
100
AcDbEntity
  8
0
 62
     8
100
AcDbPolyline
 90
        2
 70
     0
 39
0.003
 10
-1.059862
 20
2.171087
 40
0.003
 41
0.003
 10
-1.101685
 20
2.160705
 40
0.003
 41
0.003
  0
LWPOLYLINE
  5
247
100
AcDbEntity
  8
0
 62
     8
100
AcDbPolyline
 90
        2
 70
     0
 39
0.003
 10
-1.101685
 20
2.160705
 40
0.003
 41
0.003
 10
-1.758768
 20
1.791118
 40
0.003
 41
0.003
  0
LWPOLYLINE
  5
248
100
AcDbEntity
  8
0
 62
     8
100
AcDbPolyline
 90
        2
 70
     0
 39
0.003
 10
-1.758768
 20
1.791118
 40
0.003
 41
0.003
 10
-1.716945
 20
1.8015
 40
0.003
 41
0.003
  0
LWPOLYLINE
  5
249
100
AcDbEntity
  8
0
 62
   251
100
AcDbPolyline
 90
        2
 70
     0
 39
0.003
 10
-1.758768
 20
1.791118
 40
0.003
 41
0.003
 10
-1.101685
 20
2.160705
 40
0.003
 41
0.003
  0
LWPOLYLINE
  5
24A
100
AcDbEntity
  8
0
 62
   251
100
AcDbPolyline
 90
        2
 70
     0
 39
0.003
 10
-1.101685
 20
2.160705
 40
0.003
 41
0.003
 10
-1.143209
 20
2.148465
 40
0.003
 41
0.003
  0
LWPOLYLINE
  5
24B
100
AcDbEntity
  8
0
 62
   251
100
AcDbPolyline
 90
        2
 70
     0
 39
0.003
 10
-1.143209
 20
2.148465
 40
0.003
 41
0.003
 10
-1.800291
 20
1.778878
 40
0.003
 41
0.003
  0
LWPOLYLINE
  5
24C
100
AcDbEntity
  8
0
 62
   251
100
AcDbPolyline
 90
        2
 70
     0
 39
0.003
 10
-1.800291
 20
1.778878
 40
0.003
 41
0.003
 10
-1.758768
 20
1.791118
 40
0.003
 41
0.003
  0
LWPOLYLINE
  5
24D
100
AcDbEntity
  8
0
 62
   139
100
AcDbPolyline
 90
        2
 70
     0
 39
0.003
 10
-1.800291
 20
1.778878
 40
0.003
 41
0.003
 10
-1.143209
 20
2.148465
 40
0.003
 41
0.003
  0
LWPOLYLINE
  5
24E
100
AcDbEntity
  8
0
 62
   139
100
AcDbPolyline
 90
        2
 70
     0
 39
0.003
 10
-1.143209
 20
2.148465
 40
0.003
 41
0.003
 10
-1.184366
 20
2.134406
 40
0.003
 41
0.003
  0
LWPOLYLINE
  5
24F
100
AcDbEntity
  8
0
 62
   139
100
AcDbPolyline
 90
        2
 70
     0
 39
0.003
 10
-1.184366
 20
2.134406
 40
0.003
 41
0.003
 10
-1.841449
 20
1.764819
 40
0.003
 41
0.003
  0
LWPOLYLINE
  5
250
100
AcDbEntity
  8
0
 62
   139
100
AcDbPolyline
 90
        2
 70
     0
 39
0.003
 10
-1.841449
 20
1.764819
 40
0.003
 41
0.003
 10
-1.800291
 20
1.778878
 40
0.003
 41
0.003
  0
LWPOLYLINE
  5
251
100
AcDbEntity
  8
0
 62
   119
100
AcDbPolyline
 90
        2
 70
     0
 39
0.003
 10
-1.841449
 20
1.764819
 40
0.003
 41
0.003
 10
-1.184366
 20
2.134406
 40
0.003
 41
0.003
  0
LWPOLYLINE
  5
252
100
AcDbEntity
  8
0
 62
   119
100
AcDbPolyline
 90
        2
 70
     0
 39
0.003
 10
-1.184366
 20
2.134406
 40
0.003
 41
0.003
 10
-1.225059
 20
2.118559
 40
0.003
 41
0.003
  0
LWPOLYLINE
  5
253
100
AcDbEntity
  8
0
 62
   119
100
AcDbPolyline
 90
        2
 70
     0
 39
0.003
 10
-1.225059
 20
2.118559
 40
0.003
 41
0.003
 10
-1.882142
 20
1.748972
 40
0.003
 41
0.003
  0
LWPOLYLINE
  5
254
100
AcDbEntity
  8
0
 62
   119
100
AcDbPolyline
 90
        2
 70
     0
 39
0.003
 10
-1.882142
 20
1.748972
 40
0.003
 41
0.003
 10
-1.841449
 20
1.764819
 40
0.003
 41
0.003
  0
LWPOLYLINE
  5
255
100
AcDbEntity
  8
0
 62
     0
100
AcDbPolyline
 90
        2
 70
     0
 39
0.003
 10
-1.882142
 20
1.748972
 40
0.003
 41
0.003
 10
-1.225059
 20
2.118559
 40
0.003
 41
0.003
  0
LWPOLYLINE
  5
256
100
AcDbEntity
  8
0
 62
     0
100
AcDbPolyline
 90
        2
 70
     0
 39
0.003
 10
-1.225059
 20
2.118559
 40
0.003
 41
0.003
 10
-1.26522
 20
2.100969
 40
0.003
 41
0.003
  0
LWPOLYLINE
  5
257
100
AcDbEntity
  8
0
 62
     0
100
AcDbPolyline
 90
        2
 70
     0
 39
0.003
 10
-1.26522
 20
2.100969
 40
0.003
 41
0.003
 10
-1.922303
 20
1.731382
 40
0.003
 41
0.003
  0
LWPOLYLINE
  5
258
100
AcDbEntity
  8
0
 62
     0
100
AcDbPolyline
 90
        2
 70
     0
 39
0.003
 10
-1.922303
 20
1.731382
 40
0.003
 41
0.003
 10
-1.882142
 20
1.748972
 40
0.003
 41
0.003
  0
LWPOLYLINE
  5
259
100
AcDbEntity
  8
0
 62
     0
100
AcDbPolyline
 90
        2
 70
     0
 39
0.003
 10
-1.922303
 20
1.731382
 40
0.003
 41
0.003
 10
-1.26522
 20
2.100969
 40
0.003
 41
0.003
  0
LWPOLYLINE
  5
25A
100
AcDbEntity
  8
0
 62
     0
100
AcDbPolyline
 90
        2
 70
     0
 39
0.003
 10
-1.26522
 20
2.100969
 40
0.003
 41
0.003
 10
-1.30476
 20
2.081669
 40
0.003
 41
0.003
  0
LWPOLYLINE
  5
25B
100
AcDbEntity
  8
0
 62
     0
100
AcDbPolyline
 90
        2
 70
     0
 39
0.003
 10
-1.30476
 20
2.081669
 40
0.003
 41
0.003
 10
-1.961843
 20
1.712083
 40
0.003
 41
0.003
  0
LWPOLYLINE
  5
25C
100
AcDbEntity
  8
0
 62
     0
100
AcDbPolyline
 90
        2
 70
     0
 39
0.003
 10
-1.961843
 20
1.712083
 40
0.003
 41
0.003
 10
-1.922303
 20
1.731382
 40
0.003
 41
0.003
  0
LWPOLYLINE
  5
25D
100
AcDbEntity
  8
0
 62
     0
100
AcDbPolyline
 90
        2
 70
     0
 39
0.003
 10
-1.674921
 20
1.809988
 40
0.003
 41
0.003
 10
-1.017839
 20
2.179575
 40
0.003
 41
0.003
  0
LWPOLYLINE
  5
25E
100
AcDbEntity
  8
0
 62
     0
100
AcDbPolyline
 90
        2
 70
     0
 39
0.003
 10
-1.017839
 20
2.179575
 40
0.003
 41
0.003
 10
-1.059862
 20
2.171087
 40
0.003
 41
0.003
  0
LWPOLYLINE
  5
25F
100
AcDbEntity
  8
0
 62
     0
100
AcDbPolyline
 90
        2
 70
     0
 39
0.003
 10
-1.059862
 20
2.171087
 40
0.003
 41
0.003
 10
-1.101685
 20
2.160705
 40
0.003
 41
0.003
  0
LWPOLYLINE
  5
260
100
AcDbEntity
  8
0
 62
     0
100
AcDbPolyline
 90
        2
 70
     0
 39
0.003
 10
-1.101685
 20
2.160705
 40
0.003
 41
0.003
 10
-1.143209
 20
2.148465
 40
0.003
 41
0.003
  0
LWPOLYLINE
  5
261
100
AcDbEntity
  8
0
 62
     0
100
AcDbPolyline
 90
        2
 70
     0
 39
0.003
 10
-1.143209
 20
2.148465
 40
0.003
 41
0.003
 10
-1.184366
 20
2.134406
 40
0.003
 41
0.003
  0
LWPOLYLINE
  5
262
100
AcDbEntity
  8
0
 62
     0
100
AcDbPolyline
 90
        2
 70
     0
 39
0.003
 10
-1.184366
 20
2.134406
 40
0.003
 41
0.003
 10
-1.225059
 20
2.118559
 40
0.003
 41
0.003
  0
LWPOLYLINE
  5
263
100
AcDbEntity
  8
0
 62
     0
100
AcDbPolyline
 90
        2
 70
     0
 39
0.003
 10
-1.225059
 20
2.118559
 40
0.003
 41
0.003
 10
-1.26522
 20
2.100969
 40
0.003
 41
0.003
  0
LWPOLYLINE
  5
264
100
AcDbEntity
  8
0
 62
     0
100
AcDbPolyline
 90
        2
 70
     0
 39
0.003
 10
-1.26522
 20
2.100969
 40
0.003
 41
0.003
 10
-1.30476
 20
2.081669
 40
0.003
 41
0.003
  0
LWPOLYLINE
  5
265
100
AcDbEntity
  8
0
 62
     0
100
AcDbPolyline
 90
        2
 70
     0
 39
0.003
 10
-1.30476
 20
2.081669
 40
0.003
 41
0.003
 10
-1.961843
 20
1.712083
 40
0.003
 41
0.003
  0
LWPOLYLINE
  5
266
100
AcDbEntity
  8
0
 62
     0
100
AcDbPolyline
 90
        2
 70
     0
 39
0.003
 10
-1.961843
 20
1.712083
 40
0.003
 41
0.003
 10
-1.922303
 20
1.731382
 40
0.003
 41
0.003
  0
LWPOLYLINE
  5
267
100
AcDbEntity
  8
0
 62
     0
100
AcDbPolyline
 90
        2
 70
     0
 39
0.003
 10
-1.922303
 20
1.731382
 40
0.003
 41
0.003
 10
-1.882142
 20
1.748972
 40
0.003
 41
0.003
  0
LWPOLYLINE
  5
268
100
AcDbEntity
  8
0
 62
     0
100
AcDbPolyline
 90
        2
 70
     0
 39
0.003
 10
-1.882142
 20
1.748972
 40
0.003
 41
0.003
 10
-1.841449
 20
1.764819
 40
0.003
 41
0.003
  0
LWPOLYLINE
  5
269
100
AcDbEntity
  8
0
 62
     0
100
AcDbPolyline
 90
        2
 70
     0
 39
0.003
 10
-1.841449
 20
1.764819
 40
0.003
 41
0.003
 10
-1.800291
 20
1.778878
 40
0.003
 41
0.003
  0
LWPOLYLINE
  5
26A
100
AcDbEntity
  8
0
 62
     0
100
AcDbPolyline
 90
        2
 70
     0
 39
0.003
 10
-1.800291
 20
1.778878
 40
0.003
 41
0.003
 10
-1.758768
 20
1.791118
 40
0.003
 41
0.003
  0
LWPOLYLINE
  5
26B
100
AcDbEntity
  8
0
 62
     0
100
AcDbPolyline
 90
        2
 70
     0
 39
0.003
 10
-1.758768
 20
1.791118
 40
0.003
 41
0.003
 10
-1.716945
 20
1.8015
 40
0.003
 41
0.003
  0
LWPOLYLINE
  5
26C
100
AcDbEntity
  8
0
 62
     0
100
AcDbPolyline
 90
        2
 70
     0
 39
0.003
 10
-1.716945
 20
1.8015
 40
0.003
 41
0.003
 10
-1.674921
 20
1.809988
 40
0.003
 41
0.003
  0
LWPOLYLINE
  5
26D
100
AcDbEntity
  8
0
 62
   253
100
AcDbPolyline
 90
        2
 70
     0
 39
0.003
 10
-2.51013
 20
0.785882
 40
0.003
 41
0.003
 10
-1.853047
 20
1.155469
 40
0.003
 41
0.003
  0
LWPOLYLINE
  5
26E
100
AcDbEntity
  8
0
 62
   253
100
AcDbPolyline
 90
        2
 70
     0
 39
0.003
 10
-1.853047
 20
1.155469
 40
0.003
 41
0.003
 10
-1.859539
 20
1.155291
 40
0.003
 41
0.003
  0
LWPOLYLINE
  5
26F
100
AcDbEntity
  8
0
 62
   253
100
AcDbPolyline
 90
        2
 70
     0
 39
0.003
 10
-1.859539
 20
1.155291
 40
0.003
 41
0.003
 10
-2.516622
 20
0.785705
 40
0.003
 41
0.003
  0
LWPOLYLINE
  5
270
100
AcDbEntity
  8
0
 62
   253
100
AcDbPolyline
 90
        2
 70
     0
 39
0.003
 10
-2.516622
 20
0.785705
 40
0.003
 41
0.003
 10
-2.51013
 20
0.785882
 40
0.003
 41
0.003
  0
LWPOLYLINE
  5
271
100
AcDbEntity
  8
0
 62
   253
100
AcDbPolyline
 90
        2
 70
     0
 39
0.003
 10
-2.516622
 20
0.785705
 40
0.003
 41
0.003
 10
-1.859539
 20
1.155291
 40
0.003
 41
0.003
  0
LWPOLYLINE
  5
272
100
AcDbEntity
  8
0
 62
   253
100
AcDbPolyline
 90
        2
 70
     0
 39
0.003
 10
-1.859539
 20
1.155291
 40
0.003
 41
0.003
 10
-1.865953
 20
1.154783
 40
0.003
 41
0.003
  0
LWPOLYLINE
  5
273
100
AcDbEntity
  8
0
 62
   253
100
AcDbPolyline
 90
        2
 70
     0
 39
0.003
 10
-1.865953
 20
1.154783
 40
0.003
 41
0.003
 10
-2.523035
 20
0.785197
 40
0.003
 41
0.003
  0
LWPOLYLINE
  5
274
100
AcDbEntity
  8
0
 62
   253
100
AcDbPolyline
 90
        2
 70
     0
 39
0.003
 10
-2.523035
 20
0.785197
 40
0.003
 41
0.003
 10
-2.516622
 20
0.785705
 40
0.003
 41
0.003
  0
LWPOLYLINE
  5
275
100
AcDbEntity
  8
0
 62
   253
100
AcDbPolyline
 90
        2
 70
     0
 39
0.003
 10
-2.523035
 20
0.785197
 40
0.003
 41
0.003
 10
-1.865953
 20
1.154783
 40
0.003
 41
0.003
  0
LWPOLYLINE
  5
276
100
AcDbEntity
  8
0
 62
   253
100
AcDbPolyline
 90
        2
 70
     0
 39
0.003
 10
-1.865953
 20
1.154783
 40
0.003
 41
0.003
 10
-1.872272
 20
1.153937
 40
0.003
 41
0.003
  0
LWPOLYLINE
  5
277
100
AcDbEntity
  8
0
 62
   253
100
AcDbPolyline
 90
        2
 70
     0
 39
0.003
 10
-1.872272
 20
1.153937
 40
0.003
 41
0.003
 10
-2.529354
 20
0.78435
 40
0.003
 41
0.003
  0
LWPOLYLINE
  5
278
100
AcDbEntity
  8
0
 62
   253
100
AcDbPolyline
 90
        2
 70
     0
 39
0.003
 10
-2.529354
 20
0.78435
 40
0.003
 41
0.003
 10
-2.523035
 20
0.785197
 40
0.003
 41
0.003
  0
LWPOLYLINE
  5
279
100
AcDbEntity
  8
0
 62
   252
100
AcDbPolyline
 90
        2
 70
     0
 39
0.003
 10
-2.529354
 20
0.78435
 40
0.003
 41
0.003
 10
-1.872272
 20
1.153937
 40
0.003
 41
0.003
  0
LWPOLYLINE
  5
27A
100
AcDbEntity
  8
0
 62
   252
100
AcDbPolyline
 90
        2
 70
     0
 39
0.003
 10
-1.872272
 20
1.153937
 40
0.003
 41
0.003
 10
-1.8785
 20
1.152776
 40
0.003
 41
0.003
  0
LWPOLYLINE
  5
27B
100
AcDbEntity
  8
0
 62
   252
100
AcDbPolyline
 90
        2
 70
     0
 39
0.003
 10
-1.8785
 20
1.152776
 40
0.003
 41
0.003
 10
-2.535583
 20
0.783189
 40
0.003
 41
0.003
  0
LWPOLYLINE
  5
27C
100
AcDbEntity
  8
0
 62
   252
100
AcDbPolyline
 90
        2
 70
     0
 39
0.003
 10
-2.535583
 20
0.783189
 40
0.003
 41
0.003
 10
-2.529354
 20
0.78435
 40
0.003
 41
0.003
  0
LWPOLYLINE
  5
27D
100
AcDbEntity
  8
0
 62
     8
100
AcDbPolyline
 90
        2
 70
     0
 39
0.003
 10
-2.535583
 20
0.783189
 40
0.003
 41
0.003
 10
-1.8785
 20
1.152776
 40
0.003
 41
0.003
  0
LWPOLYLINE
  5
27E
100
AcDbEntity
  8
0
 62
     8
100
AcDbPolyline
 90
        2
 70
     0
 39
0.003
 10
-1.8785
 20
1.152776
 40
0.003
 41
0.003
 10
-1.884614
 20
1.151299
 40
0.003
 41
0.003
  0
LWPOLYLINE
  5
27F
100
AcDbEntity
  8
0
 62
     8
100
AcDbPolyline
 90
        2
 70
     0
 39
0.003
 10
-1.884614
 20
1.151299
 40
0.003
 41
0.003
 10
-2.541697
 20
0.781713
 40
0.003
 41
0.003
  0
LWPOLYLINE
  5
280
100
AcDbEntity
  8
0
 62
     8
100
AcDbPolyline
 90
        2
 70
     0
 39
0.003
 10
-2.541697
 20
0.781713
 40
0.003
 41
0.003
 10
-2.535583
 20
0.783189
 40
0.003
 41
0.003
  0
LWPOLYLINE
  5
281
100
AcDbEntity
  8
0
 62
   251
100
AcDbPolyline
 90
        2
 70
     0
 39
0.003
 10
-2.541697
 20
0.781713
 40
0.003
 41
0.003
 10
-1.884614
 20
1.151299
 40
0.003
 41
0.003
  0
LWPOLYLINE
  5
282
100
AcDbEntity
  8
0
 62
   251
100
AcDbPolyline
 90
        2
 70
     0
 39
0.003
 10
-1.884614
 20
1.151299
 40
0.003
 41
0.003
 10
-1.890614
 20
1.149524
 40
0.003
 41
0.003
  0
LWPOLYLINE
  5
283
100
AcDbEntity
  8
0
 62
   251
100
AcDbPolyline
 90
        2
 70
     0
 39
0.003
 10
-1.890614
 20
1.149524
 40
0.003
 41
0.003
 10
-2.547697
 20
0.779937
 40
0.003
 41
0.003
  0
LWPOLYLINE
  5
284
100
AcDbEntity
  8
0
 62
   251
100
AcDbPolyline
 90
        2
 70
     0
 39
0.003
 10
-2.547697
 20
0.779937
 40
0.003
 41
0.003
 10
-2.541697
 20
0.781713
 40
0.003
 41
0.003
  0
LWPOLYLINE
  5
285
100
AcDbEntity
  8
0
 62
   139
100
AcDbPolyline
 90
        2
 70
     0
 39
0.003
 10
-2.547697
 20
0.779937
 40
0.003
 41
0.003
 10
-1.890614
 20
1.149524
 40
0.003
 41
0.003
  0
LWPOLYLINE
  5
286
100
AcDbEntity
  8
0
 62
   139
100
AcDbPolyline
 90
        2
 70
     0
 39
0.003
 10
-1.890614
 20
1.149524
 40
0.003
 41
0.003
 10
-1.896488
 20
1.147449
 40
0.003
 41
0.003
  0
LWPOLYLINE
  5
287
100
AcDbEntity
  8
0
 62
   139
100
AcDbPolyline
 90
        2
 70
     0
 39
0.003
 10
-1.896488
 20
1.147449
 40
0.003
 41
0.003
 10
-2.553571
 20
0.777862
 40
0.003
 41
0.003
  0
LWPOLYLINE
  5
288
100
AcDbEntity
  8
0
 62
   139
100
AcDbPolyline
 90
        2
 70
     0
 39
0.003
 10
-2.553571
 20
0.777862
 40
0.003
 41
0.003
 10
-2.547697
 20
0.779937
 40
0.003
 41
0.003
  0
LWPOLYLINE
  5
289
100
AcDbEntity
  8
0
 62
   118
100
AcDbPolyline
 90
        2
 70
     0
 39
0.003
 10
-2.553571
 20
0.777862
 40
0.003
 41
0.003
 10
-1.896488
 20
1.147449
 40
0.003
 41
0.003
  0
LWPOLYLINE
  5
28A
100
AcDbEntity
  8
0
 62
   118
100
AcDbPolyline
 90
        2
 70
     0
 39
0.003
 10
-1.896488
 20
1.147449
 40
0.003
 41
0.003
 10
-1.902236
 20
1.145098
 40
0.003
 41
0.003
  0
LWPOLYLINE
  5
28B
100
AcDbEntity
  8
0
 62
   118
100
AcDbPolyline
 90
        2
 70
     0
 39
0.003
 10
-1.902236
 20
1.145098
 40
0.003
 41
0.003
 10
-2.559319
 20
0.775512
 40
0.003
 41
0.003
  0
LWPOLYLINE
  5
28C
100
AcDbEntity
  8
0
 62
   118
100
AcDbPolyline
 90
        2
 70
     0
 39
0.003
 10
-2.559319
 20
0.775512
 40
0.003
 41
0.003
 10
-2.553571
 20
0.777862
 40
0.003
 41
0.003
  0
LWPOLYLINE
  5
28D
100
AcDbEntity
  8
0
 62
     0
100
AcDbPolyline
 90
        2
 70
     0
 39
0.003
 10
-2.559319
 20
0.775512
 40
0.003
 41
0.003
 10
-1.902236
 20
1.145098
 40
0.003
 41
0.003
  0
LWPOLYLINE
  5
28E
100
AcDbEntity
  8
0
 62
     0
100
AcDbPolyline
 90
        2
 70
     0
 39
0.003
 10
-1.902236
 20
1.145098
 40
0.003
 41
0.003
 10
-1.907835
 20
1.142461
 40
0.003
 41
0.003
  0
LWPOLYLINE
  5
28F
100
AcDbEntity
  8
0
 62
     0
100
AcDbPolyline
 90
        2
 70
     0
 39
0.003
 10
-1.907835
 20
1.142461
 40
0.003
 41
0.003
 10
-2.564917
 20
0.772874
 40
0.003
 41
0.003
  0
LWPOLYLINE
  5
290
100
AcDbEntity
  8
0
 62
     0
100
AcDbPolyline
 90
        2
 70
     0
 39
0.003
 10
-2.564917
 20
0.772874
 40
0.003
 41
0.003
 10
-2.559319
 20
0.775512
 40
0.003
 41
0.003
  0
LWPOLYLINE
  5
291
100
AcDbEntity
  8
0
 62
     0
100
AcDbPolyline
 90
        2
 70
     0
 39
0.003
 10
-2.51013
 20
0.785882
 40
0.003
 41
0.003
 10
-1.853047
 20
1.155469
 40
0.003
 41
0.003
  0
LWPOLYLINE
  5
292
100
AcDbEntity
  8
0
 62
     0
100
AcDbPolyline
 90
        2
 70
     0
 39
0.003
 10
-1.853047
 20
1.155469
 40
0.003
 41
0.003
 10
-1.859539
 20
1.155291
 40
0.003
 41
0.003
  0
LWPOLYLINE
  5
293
100
AcDbEntity
  8
0
 62
     0
100
AcDbPolyline
 90
        2
 70
     0
 39
0.003
 10
-1.859539
 20
1.155291
 40
0.003
 41
0.003
 10
-1.865953
 20
1.154783
 40
0.003
 41
0.003
  0
LWPOLYLINE
  5
294
100
AcDbEntity
  8
0
 62
     0
100
AcDbPolyline
 90
        2
 70
     0
 39
0.003
 10
-1.865953
 20
1.154783
 40
0.003
 41
0.003
 10
-1.872272
 20
1.153937
 40
0.003
 41
0.003
  0
LWPOLYLINE
  5
295
100
AcDbEntity
  8
0
 62
     0
100
AcDbPolyline
 90
        2
 70
     0
 39
0.003
 10
-1.872272
 20
1.153937
 40
0.003
 41
0.003
 10
-1.8785
 20
1.152776
 40
0.003
 41
0.003
  0
LWPOLYLINE
  5
296
100
AcDbEntity
  8
0
 62
     0
100
AcDbPolyline
 90
        2
 70
     0
 39
0.003
 10
-1.8785
 20
1.152776
 40
0.003
 41
0.003
 10
-1.884614
 20
1.151299
 40
0.003
 41
0.003
  0
LWPOLYLINE
  5
297
100
AcDbEntity
  8
0
 62
     0
100
AcDbPolyline
 90
        2
 70
     0
 39
0.003
 10
-1.884614
 20
1.151299
 40
0.003
 41
0.003
 10
-1.890614
 20
1.149524
 40
0.003
 41
0.003
  0
LWPOLYLINE
  5
298
100
AcDbEntity
  8
0
 62
     0
100
AcDbPolyline
 90
        2
 70
     0
 39
0.003
 10
-1.890614
 20
1.149524
 40
0.003
 41
0.003
 10
-1.896488
 20
1.147449
 40
0.003
 41
0.003
  0
LWPOLYLINE
  5
299
100
AcDbEntity
  8
0
 62
     0
100
AcDbPolyline
 90
        2
 70
     0
 39
0.003
 10
-1.896488
 20
1.147449
 40
0.003
 41
0.003
 10
-1.902236
 20
1.145098
 40
0.003
 41
0.003
  0
LWPOLYLINE
  5
29A
100
AcDbEntity
  8
0
 62
     0
100
AcDbPolyline
 90
        2
 70
     0
 39
0.003
 10
-1.902236
 20
1.145098
 40
0.003
 41
0.003
 10
-1.907835
 20
1.142461
 40
0.003
 41
0.003
  0
LWPOLYLINE
  5
29B
100
AcDbEntity
  8
0
 62
     0
100
AcDbPolyline
 90
        2
 70
     0
 39
0.003
 10
-1.907835
 20
1.142461
 40
0.003
 41
0.003
 10
-2.564917
 20
0.772874
 40
0.003
 41
0.003
  0
LWPOLYLINE
  5
29C
100
AcDbEntity
  8
0
 62
     0
100
AcDbPolyline
 90
        2
 70
     0
 39
0.003
 10
-2.564917
 20
0.772874
 40
0.003
 41
0.003
 10
-2.559319
 20
0.775512
 40
0.003
 41
0.003
  0
LWPOLYLINE
  5
29D
100
AcDbEntity
  8
0
 62
     0
100
AcDbPolyline
 90
        2
 70
     0
 39
0.003
 10
-2.559319
 20
0.775512
 40
0.003
 41
0.003
 10
-2.553571
 20
0.777862
 40
0.003
 41
0.003
  0
LWPOLYLINE
  5
29E
100
AcDbEntity
  8
0
 62
     0
100
AcDbPolyline
 90
        2
 70
     0
 39
0.003
 10
-2.553571
 20
0.777862
 40
0.003
 41
0.003
 10
-2.547697
 20
0.779937
 40
0.003
 41
0.003
  0
LWPOLYLINE
  5
29F
100
AcDbEntity
  8
0
 62
     0
100
AcDbPolyline
 90
        2
 70
     0
 39
0.003
 10
-2.547697
 20
0.779937
 40
0.003
 41
0.003
 10
-2.541697
 20
0.781713
 40
0.003
 41
0.003
  0
LWPOLYLINE
  5
2A0
100
AcDbEntity
  8
0
 62
     0
100
AcDbPolyline
 90
        2
 70
     0
 39
0.003
 10
-2.541697
 20
0.781713
 40
0.003
 41
0.003
 10
-2.535583
 20
0.783189
 40
0.003
 41
0.003
  0
LWPOLYLINE
  5
2A1
100
AcDbEntity
  8
0
 62
     0
100
AcDbPolyline
 90
        2
 70
     0
 39
0.003
 10
-2.535583
 20
0.783189
 40
0.003
 41
0.003
 10
-2.529354
 20
0.78435
 40
0.003
 41
0.003
  0
LWPOLYLINE
  5
2A2
100
AcDbEntity
  8
0
 62
     0
100
AcDbPolyline
 90
        2
 70
     0
 39
0.003
 10
-2.529354
 20
0.78435
 40
0.003
 41
0.003
 10
-2.523035
 20
0.785197
 40
0.003
 41
0.003
  0
LWPOLYLINE
  5
2A3
100
AcDbEntity
  8
0
 62
     0
100
AcDbPolyline
 90
        2
 70
     0
 39
0.003
 10
-2.523035
 20
0.785197
 40
0.003
 41
0.003
 10
-2.516622
 20
0.785705
 40
0.003
 41
0.003
  0
LWPOLYLINE
  5
2A4
100
AcDbEntity
  8
0
 62
     0
100
AcDbPolyline
 90
        2
 70
     0
 39
0.003
 10
-2.516622
 20
0.785705
 40
0.003
 41
0.003
 10
-2.51013
 20
0.785882
 40
0.003
 41
0.003
  0
LWPOLYLINE
  5
2A5
100
AcDbEntity
  8
0
 62
   254
100
AcDbPolyline
 90
        2
 70
     0
 39
0.003
 10
1.784917
 20
0.467524
 40
0.003
 41
0.003
 10
2.442
 20
0.83711
 40
0.003
 41
0.003
  0
LWPOLYLINE
  5
2A6
100
AcDbEntity
  8
0
 62
   254
100
AcDbPolyline
 90
        2
 70
     0
 39
0.003
 10
2.442
 20
0.83711
 40
0.003
 41
0.003
 10
2.442
 20
0.89978
 40
0.003
 41
0.003
  0
LWPOLYLINE
  5
2A7
100
AcDbEntity
  8
0
 62
   254
100
AcDbPolyline
 90
        2
 70
     0
 39
0.003
 10
2.442
 20
0.89978
 40
0.003
 41
0.003
 10
1.784917
 20
0.530193
 40
0.003
 41
0.003
  0
LWPOLYLINE
  5
2A8
100
AcDbEntity
  8
0
 62
   254
100
AcDbPolyline
 90
        2
 70
     0
 39
0.003
 10
1.784917
 20
0.530193
 40
0.003
 41
0.003
 10
1.784917
 20
0.467524
 40
0.003
 41
0.003
  0
LWPOLYLINE
  5
2A9
100
AcDbEntity
  8
0
 62
     0
100
AcDbPolyline
 90
        2
 70
     0
 39
0.003
 10
1.784917
 20
0.467524
 40
0.003
 41
0.003
 10
2.442
 20
0.83711
 40
0.003
 41
0.003
  0
LWPOLYLINE
  5
2AA
100
AcDbEntity
  8
0
 62
     0
100
AcDbPolyline
 90
        2
 70
     0
 39
0.003
 10
2.442
 20
0.83711
 40
0.003
 41
0.003
 10
2.442
 20
0.89978
 40
0.003
 41
0.003
  0
LWPOLYLINE
  5
2AB
100
AcDbEntity
  8
0
 62
     0
100
AcDbPolyline
 90
        2
 70
     0
 39
0.003
 10
2.442
 20
0.89978
 40
0.003
 41
0.003
 10
1.784917
 20
0.530193
 40
0.003
 41
0.003
  0
LWPOLYLINE
  5
2AC
100
AcDbEntity
  8
0
 62
     0
100
AcDbPolyline
 90
        2
 70
     0
 39
0.003
 10
1.784917
 20
0.530193
 40
0.003
 41
0.003
 10
1.784917
 20
0.467524
 40
0.003
 41
0.003
  0
LWPOLYLINE
  5
2AD
100
AcDbEntity
  8
0
 62
   253
100
AcDbPolyline
 90
        2
 70
     0
 39
0.003
 10
1.855606
 20
0.551854
 40
0.003
 41
0.003
 10
2.512689
 20
0.921441
 40
0.003
 41
0.003
  0
LWPOLYLINE
  5
2AE
100
AcDbEntity
  8
0
 62
   253
100
AcDbPolyline
 90
        2
 70
     0
 39
0.003
 10
2.512689
 20
0.921441
 40
0.003
 41
0.003
 10
2.51765
 20
0.924972
 40
0.003
 41
0.003
  0
LWPOLYLINE
  5
2AF
100
AcDbEntity
  8
0
 62
   253
100
AcDbPolyline
 90
        2
 70
     0
 39
0.003
 10
2.51765
 20
0.924972
 40
0.003
 41
0.003
 10
1.860567
 20
0.555386
 40
0.003
 41
0.003
  0
LWPOLYLINE
  5
2B0
100
AcDbEntity
  8
0
 62
   253
100
AcDbPolyline
 90
        2
 70
     0
 39
0.003
 10
1.860567
 20
0.555386
 40
0.003
 41
0.003
 10
1.855606
 20
0.551854
 40
0.003
 41
0.003
  0
LWPOLYLINE
  5
2B1
100
AcDbEntity
  8
0
 62
     9
100
AcDbPolyline
 90
        2
 70
     0
 39
0.003
 10
1.860567
 20
0.555386
 40
0.003
 41
0.003
 10
2.51765
 20
0.924972
 40
0.003
 41
0.003
  0
LWPOLYLINE
  5
2B2
100
AcDbEntity
  8
0
 62
     9
100
AcDbPolyline
 90
        2
 70
     0
 39
0.003
 10
2.51765
 20
0.924972
 40
0.003
 41
0.003
 10
2.522437
 20
0.92874
 40
0.003
 41
0.003
  0
LWPOLYLINE
  5
2B3
100
AcDbEntity
  8
0
 62
     9
100
AcDbPolyline
 90
        2
 70
     0
 39
0.003
 10
2.522437
 20
0.92874
 40
0.003
 41
0.003
 10
1.865354
 20
0.559154
 40
0.003
 41
0.003
  0
LWPOLYLINE
  5
2B4
100
AcDbEntity
  8
0
 62
     9
100
AcDbPolyline
 90
        2
 70
     0
 39
0.003
 10
1.865354
 20
0.559154
 40
0.003
 41
0.003
 10
1.860567
 20
0.555386
 40
0.003
 41
0.003
  0
LWPOLYLINE
  5
2B5
100
AcDbEntity
  8
0
 62
     9
100
AcDbPolyline
 90
        2
 70
     0
 39
0.003
 10
1.865354
 20
0.559154
 40
0.003
 41
0.003
 10
2.522437
 20
0.92874
 40
0.003
 41
0.003
  0
LWPOLYLINE
  5
2B6
100
AcDbEntity
  8
0
 62
     9
100
AcDbPolyline
 90
        2
 70
     0
 39
0.003
 10
2.522437
 20
0.92874
 40
0.003
 41
0.003
 10
2.527031
 20
0.93272
 40
0.003
 41
0.003
  0
LWPOLYLINE
  5
2B7
100
AcDbEntity
  8
0
 62
     9
100
AcDbPolyline
 90
        2
 70
     0
 39
0.003
 10
2.527031
 20
0.93272
 40
0.003
 41
0.003
 10
1.869949
 20
0.563134
 40
0.003
 41
0.003
  0
LWPOLYLINE
  5
2B8
100
AcDbEntity
  8
0
 62
     9
100
AcDbPolyline
 90
        2
 70
     0
 39
0.003
 10
1.869949
 20
0.563134
 40
0.003
 41
0.003
 10
1.865354
 20
0.559154
 40
0.003
 41
0.003
  0
LWPOLYLINE
  5
2B9
100
AcDbEntity
  8
0
 62
     9
100
AcDbPolyline
 90
        2
 70
     0
 39
0.003
 10
1.869949
 20
0.563134
 40
0.003
 41
0.003
 10
2.527031
 20
0.93272
 40
0.003
 41
0.003
  0
LWPOLYLINE
  5
2BA
100
AcDbEntity
  8
0
 62
     9
100
AcDbPolyline
 90
        2
 70
     0
 39
0.003
 10
2.527031
 20
0.93272
 40
0.003
 41
0.003
 10
2.531441
 20
0.936921
 40
0.003
 41
0.003
  0
LWPOLYLINE
  5
2BB
100
AcDbEntity
  8
0
 62
     9
100
AcDbPolyline
 90
        2
 70
     0
 39
0.003
 10
2.531441
 20
0.936921
 40
0.003
 41
0.003
 10
1.874358
 20
0.567335
 40
0.003
 41
0.003
  0
LWPOLYLINE
  5
2BC
100
AcDbEntity
  8
0
 62
     9
100
AcDbPolyline
 90
        2
 70
     0
 39
0.003
 10
1.874358
 20
0.567335
 40
0.003
 41
0.003
 10
1.869949
 20
0.563134
 40
0.003
 41
0.003
  0
LWPOLYLINE
  5
2BD
100
AcDbEntity
  8
0
 62
     9
100
AcDbPolyline
 90
        2
 70
     0
 39
0.003
 10
1.874358
 20
0.567335
 40
0.003
 41
0.003
 10
2.531441
 20
0.936921
 40
0.003
 41
0.003
  0
LWPOLYLINE
  5
2BE
100
AcDbEntity
  8
0
 62
     9
100
AcDbPolyline
 90
        2
 70
     0
 39
0.003
 10
2.531441
 20
0.936921
 40
0.003
 41
0.003
 10
2.535634
 20
0.941319
 40
0.003
 41
0.003
  0
LWPOLYLINE
  5
2BF
100
AcDbEntity
  8
0
 62
     9
100
AcDbPolyline
 90
        2
 70
     0
 39
0.003
 10
2.535634
 20
0.941319
 40
0.003
 41
0.003
 10
1.878551
 20
0.571732
 40
0.003
 41
0.003
  0
LWPOLYLINE
  5
2C0
100
AcDbEntity
  8
0
 62
     9
100
AcDbPolyline
 90
        2
 70
     0
 39
0.003
 10
1.878551
 20
0.571732
 40
0.003
 41
0.003
 10
1.874358
 20
0.567335
 40
0.003
 41
0.003
  0
LWPOLYLINE
  5
2C1
100
AcDbEntity
  8
0
 62
     9
100
AcDbPolyline
 90
        2
 70
     0
 39
0.003
 10
1.878551
 20
0.571732
 40
0.003
 41
0.003
 10
2.535634
 20
0.941319
 40
0.003
 41
0.003
  0
LWPOLYLINE
  5
2C2
100
AcDbEntity
  8
0
 62
     9
100
AcDbPolyline
 90
        2
 70
     0
 39
0.003
 10
2.535634
 20
0.941319
 40
0.003
 41
0.003
 10
2.539614
 20
0.945913
 40
0.003
 41
0.003
  0
LWPOLYLINE
  5
2C3
100
AcDbEntity
  8
0
 62
     9
100
AcDbPolyline
 90
        2
 70
     0
 39
0.003
 10
2.539614
 20
0.945913
 40
0.003
 41
0.003
 10
1.882531
 20
0.576327
 40
0.003
 41
0.003
  0
LWPOLYLINE
  5
2C4
100
AcDbEntity
  8
0
 62
     9
100
AcDbPolyline
 90
        2
 70
     0
 39
0.003
 10
1.882531
 20
0.576327
 40
0.003
 41
0.003
 10
1.878551
 20
0.571732
 40
0.003
 41
0.003
  0
LWPOLYLINE
  5
2C5
100
AcDbEntity
  8
0
 62
   254
100
AcDbPolyline
 90
        2
 70
     0
 39
0.003
 10
1.882531
 20
0.576327
 40
0.003
 41
0.003
 10
2.539614
 20
0.945913
 40
0.003
 41
0.003
  0
LWPOLYLINE
  5
2C6
100
AcDbEntity
  8
0
 62
   254
100
AcDbPolyline
 90
        2
 70
     0
 39
0.003
 10
2.539614
 20
0.945913
 40
0.003
 41
0.003
 10
2.543374
 20
0.950697
 40
0.003
 41
0.003
  0
LWPOLYLINE
  5
2C7
100
AcDbEntity
  8
0
 62
   254
100
AcDbPolyline
 90
        2
 70
     0
 39
0.003
 10
2.543374
 20
0.950697
 40
0.003
 41
0.003
 10
1.886291
 20
0.58111
 40
0.003
 41
0.003
  0
LWPOLYLINE
  5
2C8
100
AcDbEntity
  8
0
 62
   254
100
AcDbPolyline
 90
        2
 70
     0
 39
0.003
 10
1.886291
 20
0.58111
 40
0.003
 41
0.003
 10
1.882531
 20
0.576327
 40
0.003
 41
0.003
  0
LWPOLYLINE
  5
2C9
100
AcDbEntity
  8
0
 62
   254
100
AcDbPolyline
 90
        2
 70
     0
 39
0.003
 10
1.886291
 20
0.58111
 40
0.003
 41
0.003
 10
2.543374
 20
0.950697
 40
0.003
 41
0.003
  0
LWPOLYLINE
  5
2CA
100
AcDbEntity
  8
0
 62
   254
100
AcDbPolyline
 90
        2
 70
     0
 39
0.003
 10
2.543374
 20
0.950697
 40
0.003
 41
0.003
 10
2.546913
 20
0.955665
 40
0.003
 41
0.003
  0
LWPOLYLINE
  5
2CB
100
AcDbEntity
  8
0
 62
   254
100
AcDbPolyline
 90
        2
 70
     0
 39
0.003
 10
2.546913
 20
0.955665
 40
0.003
 41
0.003
 10
1.889831
 20
0.586079
 40
0.003
 41
0.003
  0
LWPOLYLINE
  5
2CC
100
AcDbEntity
  8
0
 62
   254
100
AcDbPolyline
 90
        2
 70
     0
 39
0.003
 10
1.889831
 20
0.586079
 40
0.003
 41
0.003
 10
1.886291
 20
0.58111
 40
0.003
 41
0.003
  0
LWPOLYLINE
  5
2CD
100
AcDbEntity
  8
0
 62
   254
100
AcDbPolyline
 90
        2
 70
     0
 39
0.003
 10
1.889831
 20
0.586079
 40
0.003
 41
0.003
 10
2.546913
 20
0.955665
 40
0.003
 41
0.003
  0
LWPOLYLINE
  5
2CE
100
AcDbEntity
  8
0
 62
   254
100
AcDbPolyline
 90
        2
 70
     0
 39
0.003
 10
2.546913
 20
0.955665
 40
0.003
 41
0.003
 10
2.550209
 20
0.960799
 40
0.003
 41
0.003
  0
LWPOLYLINE
  5
2CF
100
AcDbEntity
  8
0
 62
   254
100
AcDbPolyline
 90
        2
 70
     0
 39
0.003
 10
2.550209
 20
0.960799
 40
0.003
 41
0.003
 10
1.893126
 20
0.591213
 40
0.003
 41
0.003
  0
LWPOLYLINE
  5
2D0
100
AcDbEntity
  8
0
 62
   254
100
AcDbPolyline
 90
        2
 70
     0
 39
0.003
 10
1.893126
 20
0.591213
 40
0.003
 41
0.003
 10
1.889831
 20
0.586079
 40
0.003
 41
0.003
  0
LWPOLYLINE
  5
2D1
100
AcDbEntity
  8
0
 62
   254
100
AcDbPolyline
 90
        2
 70
     0
 39
0.003
 10
1.893126
 20
0.591213
 40
0.003
 41
0.003
 10
2.550209
 20
0.960799
 40
0.003
 41
0.003
  0
LWPOLYLINE
  5
2D2
100
AcDbEntity
  8
0
 62
   254
100
AcDbPolyline
 90
        2
 70
     0
 39
0.003
 10
2.550209
 20
0.960799
 40
0.003
 41
0.003
 10
2.553268
 20
0.966102
 40
0.003
 41
0.003
  0
LWPOLYLINE
  5
2D3
100
AcDbEntity
  8
0
 62
   254
100
AcDbPolyline
 90
        2
 70
     0
 39
0.003
 10
2.553268
 20
0.966102
 40
0.003
 41
0.003
 10
1.896185
 20
0.596516
 40
0.003
 41
0.003
  0
LWPOLYLINE
  5
2D4
100
AcDbEntity
  8
0
 62
   254
100
AcDbPolyline
 90
        2
 70
     0
 39
0.003
 10
1.896185
 20
0.596516
 40
0.003
 41
0.003
 10
1.893126
 20
0.591213
 40
0.003
 41
0.003
  0
LWPOLYLINE
  5
2D5
100
AcDbEntity
  8
0
 62
   254
100
AcDbPolyline
 90
        2
 70
     0
 39
0.003
 10
1.896185
 20
0.596516
 40
0.003
 41
0.003
 10
2.553268
 20
0.966102
 40
0.003
 41
0.003
  0
LWPOLYLINE
  5
2D6
100
AcDbEntity
  8
0
 62
   254
100
AcDbPolyline
 90
        2
 70
     0
 39
0.003
 10
2.553268
 20
0.966102
 40
0.003
 41
0.003
 10
2.556067
 20
0.971555
 40
0.003
 41
0.003
  0
LWPOLYLINE
  5
2D7
100
AcDbEntity
  8
0
 62
   254
100
AcDbPolyline
 90
        2
 70
     0
 39
0.003
 10
2.556067
 20
0.971555
 40
0.003
 41
0.003
 10
1.898984
 20
0.601969
 40
0.003
 41
0.003
  0
LWPOLYLINE
  5
2D8
100
AcDbEntity
  8
0
 62
   254
100
AcDbPolyline
 90
        2
 70
     0
 39
0.003
 10
1.898984
 20
0.601969
 40
0.003
 41
0.003
 10
1.896185
 20
0.596516
 40
0.003
 41
0.003
  0
LWPOLYLINE
  5
2D9
100
AcDbEntity
  8
0
 62
   254
100
AcDbPolyline
 90
        2
 70
     0
 39
0.003
 10
1.898984
 20
0.601969
 40
0.003
 41
0.003
 10
2.556067
 20
0.971555
 40
0.003
 41
0.003
  0
LWPOLYLINE
  5
2DA
100
AcDbEntity
  8
0
 62
   254
100
AcDbPolyline
 90
        2
 70
     0
 39
0.003
 10
2.556067
 20
0.971555
 40
0.003
 41
0.003
 10
2.558614
 20
0.977165
 40
0.003
 41
0.003
  0
LWPOLYLINE
  5
2DB
100
AcDbEntity
  8
0
 62
   254
100
AcDbPolyline
 90
        2
 70
     0
 39
0.003
 10
2.558614
 20
0.977165
 40
0.003
 41
0.003
 10
1.901531
 20
0.607579
 40
0.003
 41
0.003
  0
LWPOLYLINE
  5
2DC
100
AcDbEntity
  8
0
 62
   254
100
AcDbPolyline
 90
        2
 70
     0
 39
0.003
 10
1.901531
 20
0.607579
 40
0.003
 41
0.003
 10
1.898984
 20
0.601969
 40
0.003
 41
0.003
  0
LWPOLYLINE
  5
2DD
100
AcDbEntity
  8
0
 62
   254
100
AcDbPolyline
 90
        2
 70
     0
 39
0.003
 10
1.901531
 20
0.607579
 40
0.003
 41
0.003
 10
2.558614
 20
0.977165
 40
0.003
 41
0.003
  0
LWPOLYLINE
  5
2DE
100
AcDbEntity
  8
0
 62
   254
100
AcDbPolyline
 90
        2
 70
     0
 39
0.003
 10
2.558614
 20
0.977165
 40
0.003
 41
0.003
 10
2.560886
 20
0.982906
 40
0.003
 41
0.003
  0
LWPOLYLINE
  5
2DF
100
AcDbEntity
  8
0
 62
   254
100
AcDbPolyline
 90
        2
 70
     0
 39
0.003
 10
2.560886
 20
0.982906
 40
0.003
 41
0.003
 10
1.903803
 20
0.613319
 40
0.003
 41
0.003
  0
LWPOLYLINE
  5
2E0
100
AcDbEntity
  8
0
 62
   254
100
AcDbPolyline
 90
        2
 70
     0
 39
0.003
 10
1.903803
 20
0.613319
 40
0.003
 41
0.003
 10
1.901531
 20
0.607579
 40
0.003
 41
0.003
  0
LWPOLYLINE
  5
2E1
100
AcDbEntity
  8
0
 62
   254
100
AcDbPolyline
 90
        2
 70
     0
 39
0.003
 10
1.903803
 20
0.613319
 40
0.003
 41
0.003
 10
2.560886
 20
0.982906
 40
0.003
 41
0.003
  0
LWPOLYLINE
  5
2E2
100
AcDbEntity
  8
0
 62
   254
100
AcDbPolyline
 90
        2
 70
     0
 39
0.003
 10
2.560886
 20
0.982906
 40
0.003
 41
0.003
 10
2.562882
 20
0.988783
 40
0.003
 41
0.003
  0
LWPOLYLINE
  5
2E3
100
AcDbEntity
  8
0
 62
   254
100
AcDbPolyline
 90
        2
 70
     0
 39
0.003
 10
2.562882
 20
0.988783
 40
0.003
 41
0.003
 10
1.905799
 20
0.619197
 40
0.003
 41
0.003
  0
LWPOLYLINE
  5
2E4
100
AcDbEntity
  8
0
 62
   254
100
AcDbPolyline
 90
        2
 70
     0
 39
0.003
 10
1.905799
 20
0.619197
 40
0.003
 41
0.003
 10
1.903803
 20
0.613319
 40
0.003
 41
0.003
  0
LWPOLYLINE
  5
2E5
100
AcDbEntity
  8
0
 62
   254
100
AcDbPolyline
 90
        2
 70
     0
 39
0.003
 10
1.905799
 20
0.619197
 40
0.003
 41
0.003
 10
2.562882
 20
0.988783
 40
0.003
 41
0.003
  0
LWPOLYLINE
  5
2E6
100
AcDbEntity
  8
0
 62
   254
100
AcDbPolyline
 90
        2
 70
     0
 39
0.003
 10
2.562882
 20
0.988783
 40
0.003
 41
0.003
 10
2.564591
 20
0.994783
 40
0.003
 41
0.003
  0
LWPOLYLINE
  5
2E7
100
AcDbEntity
  8
0
 62
   254
100
AcDbPolyline
 90
        2
 70
     0
 39
0.003
 10
2.564591
 20
0.994783
 40
0.003
 41
0.003
 10
1.907508
 20
0.625197
 40
0.003
 41
0.003
  0
LWPOLYLINE
  5
2E8
100
AcDbEntity
  8
0
 62
   254
100
AcDbPolyline
 90
        2
 70
     0
 39
0.003
 10
1.907508
 20
0.625197
 40
0.003
 41
0.003
 10
1.905799
 20
0.619197
 40
0.003
 41
0.003
  0
LWPOLYLINE
  5
2E9
100
AcDbEntity
  8
0
 62
   254
100
AcDbPolyline
 90
        2
 70
     0
 39
0.003
 10
1.907508
 20
0.625197
 40
0.003
 41
0.003
 10
2.564591
 20
0.994783
 40
0.003
 41
0.003
  0
LWPOLYLINE
  5
2EA
100
AcDbEntity
  8
0
 62
   254
100
AcDbPolyline
 90
        2
 70
     0
 39
0.003
 10
2.564591
 20
0.994783
 40
0.003
 41
0.003
 10
2.566012
 20
1.000902
 40
0.003
 41
0.003
  0
LWPOLYLINE
  5
2EB
100
AcDbEntity
  8
0
 62
   254
100
AcDbPolyline
 90
        2
 70
     0
 39
0.003
 10
2.566012
 20
1.000902
 40
0.003
 41
0.003
 10
1.908929
 20
0.631315
 40
0.003
 41
0.003
  0
LWPOLYLINE
  5
2EC
100
AcDbEntity
  8
0
 62
   254
100
AcDbPolyline
 90
        2
 70
     0
 39
0.003
 10
1.908929
 20
0.631315
 40
0.003
 41
0.003
 10
1.907508
 20
0.625197
 40
0.003
 41
0.003
  0
LWPOLYLINE
  5
2ED
100
AcDbEntity
  8
0
 62
   254
100
AcDbPolyline
 90
        2
 70
     0
 39
0.003
 10
1.908929
 20
0.631315
 40
0.003
 41
0.003
 10
2.566012
 20
1.000902
 40
0.003
 41
0.003
  0
LWPOLYLINE
  5
2EE
100
AcDbEntity
  8
0
 62
   254
100
AcDbPolyline
 90
        2
 70
     0
 39
0.003
 10
2.566012
 20
1.000902
 40
0.003
 41
0.003
 10
2.567126
 20
1.007122
 40
0.003
 41
0.003
  0
LWPOLYLINE
  5
2EF
100
AcDbEntity
  8
0
 62
   254
100
AcDbPolyline
 90
        2
 70
     0
 39
0.003
 10
2.567126
 20
1.007122
 40
0.003
 41
0.003
 10
1.910043
 20
0.637535
 40
0.003
 41
0.003
  0
LWPOLYLINE
  5
2F0
100
AcDbEntity
  8
0
 62
   254
100
AcDbPolyline
 90
        2
 70
     0
 39
0.003
 10
1.910043
 20
0.637535
 40
0.003
 41
0.003
 10
1.908929
 20
0.631315
 40
0.003
 41
0.003
  0
LWPOLYLINE
  5
2F1
100
AcDbEntity
  8
0
 62
   254
100
AcDbPolyline
 90
        2
 70
     0
 39
0.003
 10
1.910043
 20
0.637535
 40
0.003
 41
0.003
 10
2.567126
 20
1.007122
 40
0.003
 41
0.003
  0
LWPOLYLINE
  5
2F2
100
AcDbEntity
  8
0
 62
   254
100
AcDbPolyline
 90
        2
 70
     0
 39
0.003
 10
2.567126
 20
1.007122
 40
0.003
 41
0.003
 10
2.567937
 20
1.013449
 40
0.003
 41
0.003
  0
LWPOLYLINE
  5
2F3
100
AcDbEntity
  8
0
 62
   254
100
AcDbPolyline
 90
        2
 70
     0
 39
0.003
 10
2.567937
 20
1.013449
 40
0.003
 41
0.003
 10
1.910854
 20
0.643862
 40
0.003
 41
0.003
  0
LWPOLYLINE
  5
2F4
100
AcDbEntity
  8
0
 62
   254
100
AcDbPolyline
 90
        2
 70
     0
 39
0.003
 10
1.910854
 20
0.643862
 40
0.003
 41
0.003
 10
1.910043
 20
0.637535
 40
0.003
 41
0.003
  0
LWPOLYLINE
  5
2F5
100
AcDbEntity
  8
0
 62
   254
100
AcDbPolyline
 90
        2
 70
     0
 39
0.003
 10
1.910854
 20
0.643862
 40
0.003
 41
0.003
 10
2.567937
 20
1.013449
 40
0.003
 41
0.003
  0
LWPOLYLINE
  5
2F6
100
AcDbEntity
  8
0
 62
   254
100
AcDbPolyline
 90
        2
 70
     0
 39
0.003
 10
2.567937
 20
1.013449
 40
0.003
 41
0.003
 10
2.568425
 20
1.019862
 40
0.003
 41
0.003
  0
LWPOLYLINE
  5
2F7
100
AcDbEntity
  8
0
 62
   254
100
AcDbPolyline
 90
        2
 70
     0
 39
0.003
 10
2.568425
 20
1.019862
 40
0.003
 41
0.003
 10
1.911343
 20
0.650276
 40
0.003
 41
0.003
  0
LWPOLYLINE
  5
2F8
100
AcDbEntity
  8
0
 62
   254
100
AcDbPolyline
 90
        2
 70
     0
 39
0.003
 10
1.911343
 20
0.650276
 40
0.003
 41
0.003
 10
1.910854
 20
0.643862
 40
0.003
 41
0.003
  0
LWPOLYLINE
  5
2F9
100
AcDbEntity
  8
0
 62
   254
100
AcDbPolyline
 90
        2
 70
     0
 39
0.003
 10
1.911343
 20
0.650276
 40
0.003
 41
0.003
 10
2.568425
 20
1.019862
 40
0.003
 41
0.003
  0
LWPOLYLINE
  5
2FA
100
AcDbEntity
  8
0
 62
   254
100
AcDbPolyline
 90
        2
 70
     0
 39
0.003
 10
2.568425
 20
1.019862
 40
0.003
 41
0.003
 10
2.568594
 20
1.026366
 40
0.003
 41
0.003
  0
LWPOLYLINE
  5
2FB
100
AcDbEntity
  8
0
 62
   254
100
AcDbPolyline
 90
        2
 70
     0
 39
0.003
 10
2.568594
 20
1.026366
 40
0.003
 41
0.003
 10
1.911512
 20
0.65678
 40
0.003
 41
0.003
  0
LWPOLYLINE
  5
2FC
100
AcDbEntity
  8
0
 62
   254
100
AcDbPolyline
 90
        2
 70
     0
 39
0.003
 10
1.911512
 20
0.65678
 40
0.003
 41
0.003
 10
1.911343
 20
0.650276
 40
0.003
 41
0.003
  0
LWPOLYLINE
  5
2FD
100
AcDbEntity
  8
0
 62
   254
100
AcDbPolyline
 90
        2
 70
     0
 39
0.003
 10
1.911512
 20
0.65678
 40
0.003
 41
0.003
 10
2.568594
 20
1.026366
 40
0.003
 41
0.003
  0
LWPOLYLINE
  5
2FE
100
AcDbEntity
  8
0
 62
   254
100
AcDbPolyline
 90
        2
 70
     0
 39
0.003
 10
2.568594
 20
1.026366
 40
0.003
 41
0.003
 10
2.568425
 20
1.032862
 40
0.003
 41
0.003
  0
LWPOLYLINE
  5
2FF
100
AcDbEntity
  8
0
 62
   254
100
AcDbPolyline
 90
        2
 70
     0
 39
0.003
 10
2.568425
 20
1.032862
 40
0.003
 41
0.003
 10
1.911343
 20
0.663276
 40
0.003
 41
0.003
  0
LWPOLYLINE
  5
300
100
AcDbEntity
  8
0
 62
   254
100
AcDbPolyline
 90
        2
 70
     0
 39
0.003
 10
1.911343
 20
0.663276
 40
0.003
 41
0.003
 10
1.911512
 20
0.65678
 40
0.003
 41
0.003
  0
LWPOLYLINE
  5
301
100
AcDbEntity
  8
0
 62
   254
100
AcDbPolyline
 90
        2
 70
     0
 39
0.003
 10
1.911343
 20
0.663276
 40
0.003
 41
0.003
 10
2.568425
 20
1.032862
 40
0.003
 41
0.003
  0
LWPOLYLINE
  5
302
100
AcDbEntity
  8
0
 62
   254
100
AcDbPolyline
 90
        2
 70
     0
 39
0.003
 10
2.568425
 20
1.032862
 40
0.003
 41
0.003
 10
2.567937
 20
1.039299
 40
0.003
 41
0.003
  0
LWPOLYLINE
  5
303
100
AcDbEntity
  8
0
 62
   254
100
AcDbPolyline
 90
        2
 70
     0
 39
0.003
 10
2.567937
 20
1.039299
 40
0.003
 41
0.003
 10
1.910854
 20
0.669713
 40
0.003
 41
0.003
  0
LWPOLYLINE
  5
304
100
AcDbEntity
  8
0
 62
   254
100
AcDbPolyline
 90
        2
 70
     0
 39
0.003
 10
1.910854
 20
0.669713
 40
0.003
 41
0.003
 10
1.911343
 20
0.663276
 40
0.003
 41
0.003
  0
LWPOLYLINE
  5
305
100
AcDbEntity
  8
0
 62
   254
100
AcDbPolyline
 90
        2
 70
     0
 39
0.003
 10
1.910854
 20
0.669713
 40
0.003
 41
0.003
 10
2.567937
 20
1.039299
 40
0.003
 41
0.003
  0
LWPOLYLINE
  5
306
100
AcDbEntity
  8
0
 62
   254
100
AcDbPolyline
 90
        2
 70
     0
 39
0.003
 10
2.567937
 20
1.039299
 40
0.003
 41
0.003
 10
2.567126
 20
1.045654
 40
0.003
 41
0.003
  0
LWPOLYLINE
  5
307
100
AcDbEntity
  8
0
 62
   254
100
AcDbPolyline
 90
        2
 70
     0
 39
0.003
 10
2.567126
 20
1.045654
 40
0.003
 41
0.003
 10
1.910043
 20
0.676067
 40
0.003
 41
0.003
  0
LWPOLYLINE
  5
308
100
AcDbEntity
  8
0
 62
   254
100
AcDbPolyline
 90
        2
 70
     0
 39
0.003
 10
1.910043
 20
0.676067
 40
0.003
 41
0.003
 10
1.910854
 20
0.669713
 40
0.003
 41
0.003
  0
LWPOLYLINE
  5
309
100
AcDbEntity
  8
0
 62
   254
100
AcDbPolyline
 90
        2
 70
     0
 39
0.003
 10
1.910043
 20
0.676067
 40
0.003
 41
0.003
 10
2.567126
 20
1.045654
 40
0.003
 41
0.003
  0
LWPOLYLINE
  5
30A
100
AcDbEntity
  8
0
 62
   254
100
AcDbPolyline
 90
        2
 70
     0
 39
0.003
 10
2.567126
 20
1.045654
 40
0.003
 41
0.003
 10
2.566012
 20
1.051925
 40
0.003
 41
0.003
  0
LWPOLYLINE
  5
30B
100
AcDbEntity
  8
0
 62
   254
100
AcDbPolyline
 90
        2
 70
     0
 39
0.003
 10
2.566012
 20
1.051925
 40
0.003
 41
0.003
 10
1.908929
 20
0.682339
 40
0.003
 41
0.003
  0
LWPOLYLINE
  5
30C
100
AcDbEntity
  8
0
 62
   254
100
AcDbPolyline
 90
        2
 70
     0
 39
0.003
 10
1.908929
 20
0.682339
 40
0.003
 41
0.003
 10
1.910043
 20
0.676067
 40
0.003
 41
0.003
  0
LWPOLYLINE
  5
30D
100
AcDbEntity
  8
0
 62
   254
100
AcDbPolyline
 90
        2
 70
     0
 39
0.003
 10
1.908929
 20
0.682339
 40
0.003
 41
0.003
 10
2.566012
 20
1.051925
 40
0.003
 41
0.003
  0
LWPOLYLINE
  5
30E
100
AcDbEntity
  8
0
 62
   254
100
AcDbPolyline
 90
        2
 70
     0
 39
0.003
 10
2.566012
 20
1.051925
 40
0.003
 41
0.003
 10
2.564591
 20
1.058091
 40
0.003
 41
0.003
  0
LWPOLYLINE
  5
30F
100
AcDbEntity
  8
0
 62
   254
100
AcDbPolyline
 90
        2
 70
     0
 39
0.003
 10
2.564591
 20
1.058091
 40
0.003
 41
0.003
 10
1.907508
 20
0.688504
 40
0.003
 41
0.003
  0
LWPOLYLINE
  5
310
100
AcDbEntity
  8
0
 62
   254
100
AcDbPolyline
 90
        2
 70
     0
 39
0.003
 10
1.907508
 20
0.688504
 40
0.003
 41
0.003
 10
1.908929
 20
0.682339
 40
0.003
 41
0.003
  0
LWPOLYLINE
  5
311
100
AcDbEntity
  8
0
 62
   254
100
AcDbPolyline
 90
        2
 70
     0
 39
0.003
 10
1.907508
 20
0.688504
 40
0.003
 41
0.003
 10
2.564591
 20
1.058091
 40
0.003
 41
0.003
  0
LWPOLYLINE
  5
312
100
AcDbEntity
  8
0
 62
   254
100
AcDbPolyline
 90
        2
 70
     0
 39
0.003
 10
2.564591
 20
1.058091
 40
0.003
 41
0.003
 10
2.562882
 20
1.064161
 40
0.003
 41
0.003
  0
LWPOLYLINE
  5
313
100
AcDbEntity
  8
0
 62
   254
100
AcDbPolyline
 90
        2
 70
     0
 39
0.003
 10
2.562882
 20
1.064161
 40
0.003
 41
0.003
 10
1.905799
 20
0.694575
 40
0.003
 41
0.003
  0
LWPOLYLINE
  5
314
100
AcDbEntity
  8
0
 62
   254
100
AcDbPolyline
 90
        2
 70
     0
 39
0.003
 10
1.905799
 20
0.694575
 40
0.003
 41
0.003
 10
1.907508
 20
0.688504
 40
0.003
 41
0.003
  0
LWPOLYLINE
  5
315
100
AcDbEntity
  8
0
 62
   254
100
AcDbPolyline
 90
        2
 70
     0
 39
0.003
 10
1.905799
 20
0.694575
 40
0.003
 41
0.003
 10
2.562882
 20
1.064161
 40
0.003
 41
0.003
  0
LWPOLYLINE
  5
316
100
AcDbEntity
  8
0
 62
   254
100
AcDbPolyline
 90
        2
 70
     0
 39
0.003
 10
2.562882
 20
1.064161
 40
0.003
 41
0.003
 10
2.560886
 20
1.070114
 40
0.003
 41
0.003
  0
LWPOLYLINE
  5
317
100
AcDbEntity
  8
0
 62
   254
100
AcDbPolyline
 90
        2
 70
     0
 39
0.003
 10
2.560886
 20
1.070114
 40
0.003
 41
0.003
 10
1.903803
 20
0.700528
 40
0.003
 41
0.003
  0
LWPOLYLINE
  5
318
100
AcDbEntity
  8
0
 62
   254
100
AcDbPolyline
 90
        2
 70
     0
 39
0.003
 10
1.903803
 20
0.700528
 40
0.003
 41
0.003
 10
1.905799
 20
0.694575
 40
0.003
 41
0.003
  0
LWPOLYLINE
  5
319
100
AcDbEntity
  8
0
 62
   254
100
AcDbPolyline
 90
        2
 70
     0
 39
0.003
 10
1.903803
 20
0.700528
 40
0.003
 41
0.003
 10
2.560886
 20
1.070114
 40
0.003
 41
0.003
  0
LWPOLYLINE
  5
31A
100
AcDbEntity
  8
0
 62
   254
100
AcDbPolyline
 90
        2
 70
     0
 39
0.003
 10
2.560886
 20
1.070114
 40
0.003
 41
0.003
 10
2.558614
 20
1.075945
 40
0.003
 41
0.003
  0
LWPOLYLINE
  5
31B
100
AcDbEntity
  8
0
 62
   254
100
AcDbPolyline
 90
        2
 70
     0
 39
0.003
 10
2.558614
 20
1.075945
 40
0.003
 41
0.003
 10
1.901531
 20
0.706358
 40
0.003
 41
0.003
  0
LWPOLYLINE
  5
31C
100
AcDbEntity
  8
0
 62
   254
100
AcDbPolyline
 90
        2
 70
     0
 39
0.003
 10
1.901531
 20
0.706358
 40
0.003
 41
0.003
 10
1.903803
 20
0.700528
 40
0.003
 41
0.003
  0
LWPOLYLINE
  5
31D
100
AcDbEntity
  8
0
 62
   254
100
AcDbPolyline
 90
        2
 70
     0
 39
0.003
 10
1.901531
 20
0.706358
 40
0.003
 41
0.003
 10
2.558614
 20
1.075945
 40
0.003
 41
0.003
  0
LWPOLYLINE
  5
31E
100
AcDbEntity
  8
0
 62
   254
100
AcDbPolyline
 90
        2
 70
     0
 39
0.003
 10
2.558614
 20
1.075945
 40
0.003
 41
0.003
 10
2.556067
 20
1.081638
 40
0.003
 41
0.003
  0
LWPOLYLINE
  5
31F
100
AcDbEntity
  8
0
 62
   254
100
AcDbPolyline
 90
        2
 70
     0
 39
0.003
 10
2.556067
 20
1.081638
 40
0.003
 41
0.003
 10
1.898984
 20
0.712051
 40
0.003
 41
0.003
  0
LWPOLYLINE
  5
320
100
AcDbEntity
  8
0
 62
   254
100
AcDbPolyline
 90
        2
 70
     0
 39
0.003
 10
1.898984
 20
0.712051
 40
0.003
 41
0.003
 10
1.901531
 20
0.706358
 40
0.003
 41
0.003
  0
LWPOLYLINE
  5
321
100
AcDbEntity
  8
0
 62
   254
100
AcDbPolyline
 90
        2
 70
     0
 39
0.003
 10
1.898984
 20
0.712051
 40
0.003
 41
0.003
 10
2.556067
 20
1.081638
 40
0.003
 41
0.003
  0
LWPOLYLINE
  5
322
100
AcDbEntity
  8
0
 62
   254
100
AcDbPolyline
 90
        2
 70
     0
 39
0.003
 10
2.556067
 20
1.081638
 40
0.003
 41
0.003
 10
2.553268
 20
1.087193
 40
0.003
 41
0.003
  0
LWPOLYLINE
  5
323
100
AcDbEntity
  8
0
 62
   254
100
AcDbPolyline
 90
        2
 70
     0
 39
0.003
 10
2.553268
 20
1.087193
 40
0.003
 41
0.003
 10
1.896185
 20
0.717606
 40
0.003
 41
0.003
  0
LWPOLYLINE
  5
324
100
AcDbEntity
  8
0
 62
   254
100
AcDbPolyline
 90
        2
 70
     0
 39
0.003
 10
1.896185
 20
0.717606
 40
0.003
 41
0.003
 10
1.898984
 20
0.712051
 40
0.003
 41
0.003
  0
LWPOLYLINE
  5
325
100
AcDbEntity
  8
0
 62
   254
100
AcDbPolyline
 90
        2
 70
     0
 39
0.003
 10
1.896185
 20
0.717606
 40
0.003
 41
0.003
 10
2.553268
 20
1.087193
 40
0.003
 41
0.003
  0
LWPOLYLINE
  5
326
100
AcDbEntity
  8
0
 62
   254
100
AcDbPolyline
 90
        2
 70
     0
 39
0.003
 10
2.553268
 20
1.087193
 40
0.003
 41
0.003
 10
2.550209
 20
1.092594
 40
0.003
 41
0.003
  0
LWPOLYLINE
  5
327
100
AcDbEntity
  8
0
 62
   254
100
AcDbPolyline
 90
        2
 70
     0
 39
0.003
 10
2.550209
 20
1.092594
 40
0.003
 41
0.003
 10
1.893126
 20
0.723008
 40
0.003
 41
0.003
  0
LWPOLYLINE
  5
328
100
AcDbEntity
  8
0
 62
   254
100
AcDbPolyline
 90
        2
 70
     0
 39
0.003
 10
1.893126
 20
0.723008
 40
0.003
 41
0.003
 10
1.896185
 20
0.717606
 40
0.003
 41
0.003
  0
LWPOLYLINE
  5
329
100
AcDbEntity
  8
0
 62
   254
100
AcDbPolyline
 90
        2
 70
     0
 39
0.003
 10
1.893126
 20
0.723008
 40
0.003
 41
0.003
 10
2.550209
 20
1.092594
 40
0.003
 41
0.003
  0
LWPOLYLINE
  5
32A
100
AcDbEntity
  8
0
 62
   254
100
AcDbPolyline
 90
        2
 70
     0
 39
0.003
 10
2.550209
 20
1.092594
 40
0.003
 41
0.003
 10
2.546913
 20
1.097843
 40
0.003
 41
0.003
  0
LWPOLYLINE
  5
32B
100
AcDbEntity
  8
0
 62
   254
100
AcDbPolyline
 90
        2
 70
     0
 39
0.003
 10
2.546913
 20
1.097843
 40
0.003
 41
0.003
 10
1.889831
 20
0.728256
 40
0.003
 41
0.003
  0
LWPOLYLINE
  5
32C
100
AcDbEntity
  8
0
 62
   254
100
AcDbPolyline
 90
        2
 70
     0
 39
0.003
 10
1.889831
 20
0.728256
 40
0.003
 41
0.003
 10
1.893126
 20
0.723008
 40
0.003
 41
0.003
  0
LWPOLYLINE
  5
32D
100
AcDbEntity
  8
0
 62
   254
100
AcDbPolyline
 90
        2
 70
     0
 39
0.003
 10
1.889831
 20
0.728256
 40
0.003
 41
0.003
 10
2.546913
 20
1.097843
 40
0.003
 41
0.003
  0
LWPOLYLINE
  5
32E
100
AcDbEntity
  8
0
 62
   254
100
AcDbPolyline
 90
        2
 70
     0
 39
0.003
 10
2.546913
 20
1.097843
 40
0.003
 41
0.003
 10
2.543374
 20
1.102917
 40
0.003
 41
0.003
  0
LWPOLYLINE
  5
32F
100
AcDbEntity
  8
0
 62
   254
100
AcDbPolyline
 90
        2
 70
     0
 39
0.003
 10
2.543374
 20
1.102917
 40
0.003
 41
0.003
 10
1.886291
 20
0.733331
 40
0.003
 41
0.003
  0
LWPOLYLINE
  5
330
100
AcDbEntity
  8
0
 62
   254
100
AcDbPolyline
 90
        2
 70
     0
 39
0.003
 10
1.886291
 20
0.733331
 40
0.003
 41
0.003
 10
1.889831
 20
0.728256
 40
0.003
 41
0.003
  0
LWPOLYLINE
  5
331
100
AcDbEntity
  8
0
 62
   254
100
AcDbPolyline
 90
        2
 70
     0
 39
0.003
 10
1.886291
 20
0.733331
 40
0.003
 41
0.003
 10
2.543374
 20
1.102917
 40
0.003
 41
0.003
  0
LWPOLYLINE
  5
332
100
AcDbEntity
  8
0
 62
   254
100
AcDbPolyline
 90
        2
 70
     0
 39
0.003
 10
2.543374
 20
1.102917
 40
0.003
 41
0.003
 10
2.539614
 20
1.107819
 40
0.003
 41
0.003
  0
LWPOLYLINE
  5
333
100
AcDbEntity
  8
0
 62
   254
100
AcDbPolyline
 90
        2
 70
     0
 39
0.003
 10
2.539614
 20
1.107819
 40
0.003
 41
0.003
 10
1.882531
 20
0.738232
 40
0.003
 41
0.003
  0
LWPOLYLINE
  5
334
100
AcDbEntity
  8
0
 62
   254
100
AcDbPolyline
 90
        2
 70
     0
 39
0.003
 10
1.882531
 20
0.738232
 40
0.003
 41
0.003
 10
1.886291
 20
0.733331
 40
0.003
 41
0.003
  0
LWPOLYLINE
  5
335
100
AcDbEntity
  8
0
 62
   254
100
AcDbPolyline
 90
        2
 70
     0
 39
0.003
 10
1.882531
 20
0.738232
 40
0.003
 41
0.003
 10
2.539614
 20
1.107819
 40
0.003
 41
0.003
  0
LWPOLYLINE
  5
336
100
AcDbEntity
  8
0
 62
   254
100
AcDbPolyline
 90
        2
 70
     0
 39
0.003
 10
2.539614
 20
1.107819
 40
0.003
 41
0.003
 10
2.535634
 20
1.112531
 40
0.003
 41
0.003
  0
LWPOLYLINE
  5
337
100
AcDbEntity
  8
0
 62
   254
100
AcDbPolyline
 90
        2
 70
     0
 39
0.003
 10
2.535634
 20
1.112531
 40
0.003
 41
0.003
 10
1.878551
 20
0.742945
 40
0.003
 41
0.003
  0
LWPOLYLINE
  5
338
100
AcDbEntity
  8
0
 62
   254
100
AcDbPolyline
 90
        2
 70
     0
 39
0.003
 10
1.878551
 20
0.742945
 40
0.003
 41
0.003
 10
1.882531
 20
0.738232
 40
0.003
 41
0.003
  0
LWPOLYLINE
  5
339
100
AcDbEntity
  8
0
 62
   254
100
AcDbPolyline
 90
        2
 70
     0
 39
0.003
 10
1.878551
 20
0.742945
 40
0.003
 41
0.003
 10
2.535634
 20
1.112531
 40
0.003
 41
0.003
  0
LWPOLYLINE
  5
33A
100
AcDbEntity
  8
0
 62
   254
100
AcDbPolyline
 90
        2
 70
     0
 39
0.003
 10
2.535634
 20
1.112531
 40
0.003
 41
0.003
 10
2.531441
 20
1.117055
 40
0.003
 41
0.003
  0
LWPOLYLINE
  5
33B
100
AcDbEntity
  8
0
 62
   254
100
AcDbPolyline
 90
        2
 70
     0
 39
0.003
 10
2.531441
 20
1.117055
 40
0.003
 41
0.003
 10
1.874358
 20
0.747469
 40
0.003
 41
0.003
  0
LWPOLYLINE
  5
33C
100
AcDbEntity
  8
0
 62
   254
100
AcDbPolyline
 90
        2
 70
     0
 39
0.003
 10
1.874358
 20
0.747469
 40
0.003
 41
0.003
 10
1.878551
 20
0.742945
 40
0.003
 41
0.003
  0
LWPOLYLINE
  5
33D
100
AcDbEntity
  8
0
 62
   254
100
AcDbPolyline
 90
        2
 70
     0
 39
0.003
 10
1.874358
 20
0.747469
 40
0.003
 41
0.003
 10
2.531441
 20
1.117055
 40
0.003
 41
0.003
  0
LWPOLYLINE
  5
33E
100
AcDbEntity
  8
0
 62
   254
100
AcDbPolyline
 90
        2
 70
     0
 39
0.003
 10
2.531441
 20
1.117055
 40
0.003
 41
0.003
 10
2.527031
 20
1.121366
 40
0.003
 41
0.003
  0
LWPOLYLINE
  5
33F
100
AcDbEntity
  8
0
 62
   254
100
AcDbPolyline
 90
        2
 70
     0
 39
0.003
 10
2.527031
 20
1.121366
 40
0.003
 41
0.003
 10
1.869949
 20
0.75178
 40
0.003
 41
0.003
  0
LWPOLYLINE
  5
340
100
AcDbEntity
  8
0
 62
   254
100
AcDbPolyline
 90
        2
 70
     0
 39
0.003
 10
1.869949
 20
0.75178
 40
0.003
 41
0.003
 10
1.874358
 20
0.747469
 40
0.003
 41
0.003
  0
LWPOLYLINE
  5
341
100
AcDbEntity
  8
0
 62
   254
100
AcDbPolyline
 90
        2
 70
     0
 39
0.003
 10
1.869949
 20
0.75178
 40
0.003
 41
0.003
 10
2.527031
 20
1.121366
 40
0.003
 41
0.003
  0
LWPOLYLINE
  5
342
100
AcDbEntity
  8
0
 62
   254
100
AcDbPolyline
 90
        2
 70
     0
 39
0.003
 10
2.527031
 20
1.121366
 40
0.003
 41
0.003
 10
2.522437
 20
1.125465
 40
0.003
 41
0.003
  0
LWPOLYLINE
  5
343
100
AcDbEntity
  8
0
 62
   254
100
AcDbPolyline
 90
        2
 70
     0
 39
0.003
 10
2.522437
 20
1.125465
 40
0.003
 41
0.003
 10
1.865354
 20
0.755878
 40
0.003
 41
0.003
  0
LWPOLYLINE
  5
344
100
AcDbEntity
  8
0
 62
   254
100
AcDbPolyline
 90
        2
 70
     0
 39
0.003
 10
1.865354
 20
0.755878
 40
0.003
 41
0.003
 10
1.869949
 20
0.75178
 40
0.003
 41
0.003
  0
LWPOLYLINE
  5
345
100
AcDbEntity
  8
0
 62
   254
100
AcDbPolyline
 90
        2
 70
     0
 39
0.003
 10
1.865354
 20
0.755878
 40
0.003
 41
0.003
 10
2.522437
 20
1.125465
 40
0.003
 41
0.003
  0
LWPOLYLINE
  5
346
100
AcDbEntity
  8
0
 62
   254
100
AcDbPolyline
 90
        2
 70
     0
 39
0.003
 10
2.522437
 20
1.125465
 40
0.003
 41
0.003
 10
2.51765
 20
1.129343
 40
0.003
 41
0.003
  0
LWPOLYLINE
  5
347
100
AcDbEntity
  8
0
 62
   254
100
AcDbPolyline
 90
        2
 70
     0
 39
0.003
 10
2.51765
 20
1.129343
 40
0.003
 41
0.003
 10
1.860567
 20
0.759756
 40
0.003
 41
0.003
  0
LWPOLYLINE
  5
348
100
AcDbEntity
  8
0
 62
   254
100
AcDbPolyline
 90
        2
 70
     0
 39
0.003
 10
1.860567
 20
0.759756
 40
0.003
 41
0.003
 10
1.865354
 20
0.755878
 40
0.003
 41
0.003
  0
LWPOLYLINE
  5
349
100
AcDbEntity
  8
0
 62
   254
100
AcDbPolyline
 90
        2
 70
     0
 39
0.003
 10
1.860567
 20
0.759756
 40
0.003
 41
0.003
 10
2.51765
 20
1.129343
 40
0.003
 41
0.003
  0
LWPOLYLINE
  5
34A
100
AcDbEntity
  8
0
 62
   254
100
AcDbPolyline
 90
        2
 70
     0
 39
0.003
 10
2.51765
 20
1.129343
 40
0.003
 41
0.003
 10
2.512689
 20
1.132992
 40
0.003
 41
0.003
  0
LWPOLYLINE
  5
34B
100
AcDbEntity
  8
0
 62
   254
100
AcDbPolyline
 90
        2
 70
     0
 39
0.003
 10
2.512689
 20
1.132992
 40
0.003
 41
0.003
 10
1.855606
 20
0.763406
 40
0.003
 41
0.003
  0
LWPOLYLINE
  5
34C
100
AcDbEntity
  8
0
 62
   254
100
AcDbPolyline
 90
        2
 70
     0
 39
0.003
 10
1.855606
 20
0.763406
 40
0.003
 41
0.003
 10
1.860567
 20
0.759756
 40
0.003
 41
0.003
  0
LWPOLYLINE
  5
34D
100
AcDbEntity
  8
0
 62
   254
100
AcDbPolyline
 90
        2
 70
     0
 39
0.003
 10
1.855606
 20
0.763406
 40
0.003
 41
0.003
 10
2.512689
 20
1.132992
 40
0.003
 41
0.003
  0
LWPOLYLINE
  5
34E
100
AcDbEntity
  8
0
 62
   254
100
AcDbPolyline
 90
        2
 70
     0
 39
0.003
 10
2.512689
 20
1.132992
 40
0.003
 41
0.003
 10
2.507547
 20
1.136394
 40
0.003
 41
0.003
  0
LWPOLYLINE
  5
34F
100
AcDbEntity
  8
0
 62
   254
100
AcDbPolyline
 90
        2
 70
     0
 39
0.003
 10
2.507547
 20
1.136394
 40
0.003
 41
0.003
 10
1.850465
 20
0.766807
 40
0.003
 41
0.003
  0
LWPOLYLINE
  5
350
100
AcDbEntity
  8
0
 62
   254
100
AcDbPolyline
 90
        2
 70
     0
 39
0.003
 10
1.850465
 20
0.766807
 40
0.003
 41
0.003
 10
1.855606
 20
0.763406
 40
0.003
 41
0.003
  0
LWPOLYLINE
  5
351
100
AcDbEntity
  8
0
 62
   254
100
AcDbPolyline
 90
        2
 70
     0
 39
0.003
 10
1.850465
 20
0.766807
 40
0.003
 41
0.003
 10
2.507547
 20
1.136394
 40
0.003
 41
0.003
  0
LWPOLYLINE
  5
352
100
AcDbEntity
  8
0
 62
   254
100
AcDbPolyline
 90
        2
 70
     0
 39
0.003
 10
2.507547
 20
1.136394
 40
0.003
 41
0.003
 10
2.502248
 20
1.139555
 40
0.003
 41
0.003
  0
LWPOLYLINE
  5
353
100
AcDbEntity
  8
0
 62
   254
100
AcDbPolyline
 90
        2
 70
     0
 39
0.003
 10
2.502248
 20
1.139555
 40
0.003
 41
0.003
 10
1.845165
 20
0.769969
 40
0.003
 41
0.003
  0
LWPOLYLINE
  5
354
100
AcDbEntity
  8
0
 62
   254
100
AcDbPolyline
 90
        2
 70
     0
 39
0.003
 10
1.845165
 20
0.769969
 40
0.003
 41
0.003
 10
1.850465
 20
0.766807
 40
0.003
 41
0.003
  0
LWPOLYLINE
  5
355
100
AcDbEntity
  8
0
 62
     9
100
AcDbPolyline
 90
        2
 70
     0
 39
0.003
 10
1.845165
 20
0.769969
 40
0.003
 41
0.003
 10
2.502248
 20
1.139555
 40
0.003
 41
0.003
  0
LWPOLYLINE
  5
356
100
AcDbEntity
  8
0
 62
     9
100
AcDbPolyline
 90
        2
 70
     0
 39
0.003
 10
2.502248
 20
1.139555
 40
0.003
 41
0.003
 10
2.496787
 20
1.142453
 40
0.003
 41
0.003
  0
LWPOLYLINE
  5
357
100
AcDbEntity
  8
0
 62
     9
100
AcDbPolyline
 90
        2
 70
     0
 39
0.003
 10
2.496787
 20
1.142453
 40
0.003
 41
0.003
 10
1.839705
 20
0.772866
 40
0.003
 41
0.003
  0
LWPOLYLINE
  5
358
100
AcDbEntity
  8
0
 62
     9
100
AcDbPolyline
 90
        2
 70
     0
 39
0.003
 10
1.839705
 20
0.772866
 40
0.003
 41
0.003
 10
1.845165
 20
0.769969
 40
0.003
 41
0.003
  0
LWPOLYLINE
  5
359
100
AcDbEntity
  8
0
 62
     9
100
AcDbPolyline
 90
        2
 70
     0
 39
0.003
 10
1.839705
 20
0.772866
 40
0.003
 41
0.003
 10
2.496787
 20
1.142453
 40
0.003
 41
0.003
  0
LWPOLYLINE
  5
35A
100
AcDbEntity
  8
0
 62
     9
100
AcDbPolyline
 90
        2
 70
     0
 39
0.003
 10
2.496787
 20
1.142453
 40
0.003
 41
0.003
 10
2.491189
 20
1.145091
 40
0.003
 41
0.003
  0
LWPOLYLINE
  5
35B
100
AcDbEntity
  8
0
 62
     9
100
AcDbPolyline
 90
        2
 70
     0
 39
0.003
 10
2.491189
 20
1.145091
 40
0.003
 41
0.003
 10
1.834106
 20
0.775504
 40
0.003
 41
0.003
  0
LWPOLYLINE
  5
35C
100
AcDbEntity
  8
0
 62
     9
100
AcDbPolyline
 90
        2
 70
     0
 39
0.003
 10
1.834106
 20
0.775504
 40
0.003
 41
0.003
 10
1.839705
 20
0.772866
 40
0.003
 41
0.003
  0
LWPOLYLINE
  5
35D
100
AcDbEntity
  8
0
 62
     9
100
AcDbPolyline
 90
        2
 70
     0
 39
0.003
 10
1.834106
 20
0.775504
 40
0.003
 41
0.003
 10
2.491189
 20
1.145091
 40
0.003
 41
0.003
  0
LWPOLYLINE
  5
35E
100
AcDbEntity
  8
0
 62
     9
100
AcDbPolyline
 90
        2
 70
     0
 39
0.003
 10
2.491189
 20
1.145091
 40
0.003
 41
0.003
 10
2.485441
 20
1.147441
 40
0.003
 41
0.003
  0
LWPOLYLINE
  5
35F
100
AcDbEntity
  8
0
 62
     9
100
AcDbPolyline
 90
        2
 70
     0
 39
0.003
 10
2.485441
 20
1.147441
 40
0.003
 41
0.003
 10
1.828358
 20
0.777854
 40
0.003
 41
0.003
  0
LWPOLYLINE
  5
360
100
AcDbEntity
  8
0
 62
     9
100
AcDbPolyline
 90
        2
 70
     0
 39
0.003
 10
1.828358
 20
0.777854
 40
0.003
 41
0.003
 10
1.834106
 20
0.775504
 40
0.003
 41
0.003
  0
LWPOLYLINE
  5
361
100
AcDbEntity
  8
0
 62
     9
100
AcDbPolyline
 90
        2
 70
     0
 39
0.003
 10
1.828358
 20
0.777854
 40
0.003
 41
0.003
 10
2.485441
 20
1.147441
 40
0.003
 41
0.003
  0
LWPOLYLINE
  5
362
100
AcDbEntity
  8
0
 62
     9
100
AcDbPolyline
 90
        2
 70
     0
 39
0.003
 10
2.485441
 20
1.147441
 40
0.003
 41
0.003
 10
2.479567
 20
1.149516
 40
0.003
 41
0.003
  0
LWPOLYLINE
  5
363
100
AcDbEntity
  8
0
 62
     9
100
AcDbPolyline
 90
        2
 70
     0
 39
0.003
 10
2.479567
 20
1.149516
 40
0.003
 41
0.003
 10
1.822484
 20
0.779929
 40
0.003
 41
0.003
  0
LWPOLYLINE
  5
364
100
AcDbEntity
  8
0
 62
     9
100
AcDbPolyline
 90
        2
 70
     0
 39
0.003
 10
1.822484
 20
0.779929
 40
0.003
 41
0.003
 10
1.828358
 20
0.777854
 40
0.003
 41
0.003
  0
LWPOLYLINE
  5
365
100
AcDbEntity
  8
0
 62
     9
100
AcDbPolyline
 90
        2
 70
     0
 39
0.003
 10
1.822484
 20
0.779929
 40
0.003
 41
0.003
 10
2.479567
 20
1.149516
 40
0.003
 41
0.003
  0
LWPOLYLINE
  5
366
100
AcDbEntity
  8
0
 62
     9
100
AcDbPolyline
 90
        2
 70
     0
 39
0.003
 10
2.479567
 20
1.149516
 40
0.003
 41
0.003
 10
2.473567
 20
1.151291
 40
0.003
 41
0.003
  0
LWPOLYLINE
  5
367
100
AcDbEntity
  8
0
 62
     9
100
AcDbPolyline
 90
        2
 70
     0
 39
0.003
 10
2.473567
 20
1.151291
 40
0.003
 41
0.003
 10
1.816484
 20
0.781705
 40
0.003
 41
0.003
  0
LWPOLYLINE
  5
368
100
AcDbEntity
  8
0
 62
     9
100
AcDbPolyline
 90
        2
 70
     0
 39
0.003
 10
1.816484
 20
0.781705
 40
0.003
 41
0.003
 10
1.822484
 20
0.779929
 40
0.003
 41
0.003
  0
LWPOLYLINE
  5
369
100
AcDbEntity
  8
0
 62
     9
100
AcDbPolyline
 90
        2
 70
     0
 39
0.003
 10
1.816484
 20
0.781705
 40
0.003
 41
0.003
 10
2.473567
 20
1.151291
 40
0.003
 41
0.003
  0
LWPOLYLINE
  5
36A
100
AcDbEntity
  8
0
 62
     9
100
AcDbPolyline
 90
        2
 70
     0
 39
0.003
 10
2.473567
 20
1.151291
 40
0.003
 41
0.003
 10
2.467453
 20
1.152768
 40
0.003
 41
0.003
  0
LWPOLYLINE
  5
36B
100
AcDbEntity
  8
0
 62
     9
100
AcDbPolyline
 90
        2
 70
     0
 39
0.003
 10
2.467453
 20
1.152768
 40
0.003
 41
0.003
 10
1.81037
 20
0.783181
 40
0.003
 41
0.003
  0
LWPOLYLINE
  5
36C
100
AcDbEntity
  8
0
 62
     9
100
AcDbPolyline
 90
        2
 70
     0
 39
0.003
 10
1.81037
 20
0.783181
 40
0.003
 41
0.003
 10
1.816484
 20
0.781705
 40
0.003
 41
0.003
  0
LWPOLYLINE
  5
36D
100
AcDbEntity
  8
0
 62
     9
100
AcDbPolyline
 90
        2
 70
     0
 39
0.003
 10
1.81037
 20
0.783181
 40
0.003
 41
0.003
 10
2.467453
 20
1.152768
 40
0.003
 41
0.003
  0
LWPOLYLINE
  5
36E
100
AcDbEntity
  8
0
 62
     9
100
AcDbPolyline
 90
        2
 70
     0
 39
0.003
 10
2.467453
 20
1.152768
 40
0.003
 41
0.003
 10
2.461224
 20
1.153929
 40
0.003
 41
0.003
  0
LWPOLYLINE
  5
36F
100
AcDbEntity
  8
0
 62
     9
100
AcDbPolyline
 90
        2
 70
     0
 39
0.003
 10
2.461224
 20
1.153929
 40
0.003
 41
0.003
 10
1.804142
 20
0.784343
 40
0.003
 41
0.003
  0
LWPOLYLINE
  5
370
100
AcDbEntity
  8
0
 62
     9
100
AcDbPolyline
 90
        2
 70
     0
 39
0.003
 10
1.804142
 20
0.784343
 40
0.003
 41
0.003
 10
1.81037
 20
0.783181
 40
0.003
 41
0.003
  0
LWPOLYLINE
  5
371
100
AcDbEntity
  8
0
 62
     9
100
AcDbPolyline
 90
        2
 70
     0
 39
0.003
 10
1.804142
 20
0.784343
 40
0.003
 41
0.003
 10
2.461224
 20
1.153929
 40
0.003
 41
0.003
  0
LWPOLYLINE
  5
372
100
AcDbEntity
  8
0
 62
     9
100
AcDbPolyline
 90
        2
 70
     0
 39
0.003
 10
2.461224
 20
1.153929
 40
0.003
 41
0.003
 10
2.454906
 20
1.154776
 40
0.003
 41
0.003
  0
LWPOLYLINE
  5
373
100
AcDbEntity
  8
0
 62
     9
100
AcDbPolyline
 90
        2
 70
     0
 39
0.003
 10
2.454906
 20
1.154776
 40
0.003
 41
0.003
 10
1.797823
 20
0.785189
 40
0.003
 41
0.003
  0
LWPOLYLINE
  5
374
100
AcDbEntity
  8
0
 62
     9
100
AcDbPolyline
 90
        2
 70
     0
 39
0.003
 10
1.797823
 20
0.785189
 40
0.003
 41
0.003
 10
1.804142
 20
0.784343
 40
0.003
 41
0.003
  0
LWPOLYLINE
  5
375
100
AcDbEntity
  8
0
 62
     9
100
AcDbPolyline
 90
        2
 70
     0
 39
0.003
 10
1.797823
 20
0.785189
 40
0.003
 41
0.003
 10
2.454906
 20
1.154776
 40
0.003
 41
0.003
  0
LWPOLYLINE
  5
376
100
AcDbEntity
  8
0
 62
     9
100
AcDbPolyline
 90
        2
 70
     0
 39
0.003
 10
2.454906
 20
1.154776
 40
0.003
 41
0.003
 10
2.448492
 20
1.155283
 40
0.003
 41
0.003
  0
LWPOLYLINE
  5
377
100
AcDbEntity
  8
0
 62
     9
100
AcDbPolyline
 90
        2
 70
     0
 39
0.003
 10
2.448492
 20
1.155283
 40
0.003
 41
0.003
 10
1.791409
 20
0.785697
 40
0.003
 41
0.003
  0
LWPOLYLINE
  5
378
100
AcDbEntity
  8
0
 62
     9
100
AcDbPolyline
 90
        2
 70
     0
 39
0.003
 10
1.791409
 20
0.785697
 40
0.003
 41
0.003
 10
1.797823
 20
0.785189
 40
0.003
 41
0.003
  0
LWPOLYLINE
  5
379
100
AcDbEntity
  8
0
 62
   253
100
AcDbPolyline
 90
        2
 70
     0
 39
0.003
 10
1.791409
 20
0.785697
 40
0.003
 41
0.003
 10
2.448492
 20
1.155283
 40
0.003
 41
0.003
  0
LWPOLYLINE
  5
37A
100
AcDbEntity
  8
0
 62
   253
100
AcDbPolyline
 90
        2
 70
     0
 39
0.003
 10
2.448492
 20
1.155283
 40
0.003
 41
0.003
 10
2.442
 20
1.155461
 40
0.003
 41
0.003
  0
LWPOLYLINE
  5
37B
100
AcDbEntity
  8
0
 62
   253
100
AcDbPolyline
 90
        2
 70
     0
 39
0.003
 10
2.442
 20
1.155461
 40
0.003
 41
0.003
 10
1.784917
 20
0.785874
 40
0.003
 41
0.003
  0
LWPOLYLINE
  5
37C
100
AcDbEntity
  8
0
 62
   253
100
AcDbPolyline
 90
        2
 70
     0
 39
0.003
 10
1.784917
 20
0.785874
 40
0.003
 41
0.003
 10
1.791409
 20
0.785697
 40
0.003
 41
0.003
  0
LWPOLYLINE
  5
37D
100
AcDbEntity
  8
0
 62
     0
100
AcDbPolyline
 90
        2
 70
     0
 39
0.003
 10
1.855606
 20
0.551854
 40
0.003
 41
0.003
 10
2.512689
 20
0.921441
 40
0.003
 41
0.003
  0
LWPOLYLINE
  5
37E
100
AcDbEntity
  8
0
 62
     0
100
AcDbPolyline
 90
        2
 70
     0
 39
0.003
 10
2.512689
 20
0.921441
 40
0.003
 41
0.003
 10
2.51765
 20
0.924972
 40
0.003
 41
0.003
  0
LWPOLYLINE
  5
37F
100
AcDbEntity
  8
0
 62
     0
100
AcDbPolyline
 90
        2
 70
     0
 39
0.003
 10
2.51765
 20
0.924972
 40
0.003
 41
0.003
 10
2.522437
 20
0.92874
 40
0.003
 41
0.003
  0
LWPOLYLINE
  5
380
100
AcDbEntity
  8
0
 62
     0
100
AcDbPolyline
 90
        2
 70
     0
 39
0.003
 10
2.522437
 20
0.92874
 40
0.003
 41
0.003
 10
2.527031
 20
0.93272
 40
0.003
 41
0.003
  0
LWPOLYLINE
  5
381
100
AcDbEntity
  8
0
 62
     0
100
AcDbPolyline
 90
        2
 70
     0
 39
0.003
 10
2.527031
 20
0.93272
 40
0.003
 41
0.003
 10
2.531441
 20
0.936921
 40
0.003
 41
0.003
  0
LWPOLYLINE
  5
382
100
AcDbEntity
  8
0
 62
     0
100
AcDbPolyline
 90
        2
 70
     0
 39
0.003
 10
2.531441
 20
0.936921
 40
0.003
 41
0.003
 10
2.535634
 20
0.941319
 40
0.003
 41
0.003
  0
LWPOLYLINE
  5
383
100
AcDbEntity
  8
0
 62
     0
100
AcDbPolyline
 90
        2
 70
     0
 39
0.003
 10
2.535634
 20
0.941319
 40
0.003
 41
0.003
 10
2.539614
 20
0.945913
 40
0.003
 41
0.003
  0
LWPOLYLINE
  5
384
100
AcDbEntity
  8
0
 62
     0
100
AcDbPolyline
 90
        2
 70
     0
 39
0.003
 10
2.539614
 20
0.945913
 40
0.003
 41
0.003
 10
2.543374
 20
0.950697
 40
0.003
 41
0.003
  0
LWPOLYLINE
  5
385
100
AcDbEntity
  8
0
 62
     0
100
AcDbPolyline
 90
        2
 70
     0
 39
0.003
 10
2.543374
 20
0.950697
 40
0.003
 41
0.003
 10
2.546913
 20
0.955665
 40
0.003
 41
0.003
  0
LWPOLYLINE
  5
386
100
AcDbEntity
  8
0
 62
     0
100
AcDbPolyline
 90
        2
 70
     0
 39
0.003
 10
2.546913
 20
0.955665
 40
0.003
 41
0.003
 10
2.550209
 20
0.960799
 40
0.003
 41
0.003
  0
LWPOLYLINE
  5
387
100
AcDbEntity
  8
0
 62
     0
100
AcDbPolyline
 90
        2
 70
     0
 39
0.003
 10
2.550209
 20
0.960799
 40
0.003
 41
0.003
 10
2.553268
 20
0.966102
 40
0.003
 41
0.003
  0
LWPOLYLINE
  5
388
100
AcDbEntity
  8
0
 62
     0
100
AcDbPolyline
 90
        2
 70
     0
 39
0.003
 10
2.553268
 20
0.966102
 40
0.003
 41
0.003
 10
2.556067
 20
0.971555
 40
0.003
 41
0.003
  0
LWPOLYLINE
  5
389
100
AcDbEntity
  8
0
 62
     0
100
AcDbPolyline
 90
        2
 70
     0
 39
0.003
 10
2.556067
 20
0.971555
 40
0.003
 41
0.003
 10
2.558614
 20
0.977165
 40
0.003
 41
0.003
  0
LWPOLYLINE
  5
38A
100
AcDbEntity
  8
0
 62
     0
100
AcDbPolyline
 90
        2
 70
     0
 39
0.003
 10
2.558614
 20
0.977165
 40
0.003
 41
0.003
 10
2.560886
 20
0.982906
 40
0.003
 41
0.003
  0
LWPOLYLINE
  5
38B
100
AcDbEntity
  8
0
 62
     0
100
AcDbPolyline
 90
        2
 70
     0
 39
0.003
 10
2.560886
 20
0.982906
 40
0.003
 41
0.003
 10
2.562882
 20
0.988783
 40
0.003
 41
0.003
  0
LWPOLYLINE
  5
38C
100
AcDbEntity
  8
0
 62
     0
100
AcDbPolyline
 90
        2
 70
     0
 39
0.003
 10
2.562882
 20
0.988783
 40
0.003
 41
0.003
 10
2.564591
 20
0.994783
 40
0.003
 41
0.003
  0
LWPOLYLINE
  5
38D
100
AcDbEntity
  8
0
 62
     0
100
AcDbPolyline
 90
        2
 70
     0
 39
0.003
 10
2.564591
 20
0.994783
 40
0.003
 41
0.003
 10
2.566012
 20
1.000902
 40
0.003
 41
0.003
  0
LWPOLYLINE
  5
38E
100
AcDbEntity
  8
0
 62
     0
100
AcDbPolyline
 90
        2
 70
     0
 39
0.003
 10
2.566012
 20
1.000902
 40
0.003
 41
0.003
 10
2.567126
 20
1.007122
 40
0.003
 41
0.003
  0
LWPOLYLINE
  5
38F
100
AcDbEntity
  8
0
 62
     0
100
AcDbPolyline
 90
        2
 70
     0
 39
0.003
 10
2.567126
 20
1.007122
 40
0.003
 41
0.003
 10
2.567937
 20
1.013449
 40
0.003
 41
0.003
  0
LWPOLYLINE
  5
390
100
AcDbEntity
  8
0
 62
     0
100
AcDbPolyline
 90
        2
 70
     0
 39
0.003
 10
2.567937
 20
1.013449
 40
0.003
 41
0.003
 10
2.568425
 20
1.019862
 40
0.003
 41
0.003
  0
LWPOLYLINE
  5
391
100
AcDbEntity
  8
0
 62
     0
100
AcDbPolyline
 90
        2
 70
     0
 39
0.003
 10
2.568425
 20
1.019862
 40
0.003
 41
0.003
 10
2.568594
 20
1.026366
 40
0.003
 41
0.003
  0
LWPOLYLINE
  5
392
100
AcDbEntity
  8
0
 62
     0
100
AcDbPolyline
 90
        2
 70
     0
 39
0.003
 10
2.568594
 20
1.026366
 40
0.003
 41
0.003
 10
2.568425
 20
1.032862
 40
0.003
 41
0.003
  0
LWPOLYLINE
  5
393
100
AcDbEntity
  8
0
 62
     0
100
AcDbPolyline
 90
        2
 70
     0
 39
0.003
 10
2.568425
 20
1.032862
 40
0.003
 41
0.003
 10
2.567937
 20
1.039299
 40
0.003
 41
0.003
  0
LWPOLYLINE
  5
394
100
AcDbEntity
  8
0
 62
     0
100
AcDbPolyline
 90
        2
 70
     0
 39
0.003
 10
2.567937
 20
1.039299
 40
0.003
 41
0.003
 10
2.567126
 20
1.045654
 40
0.003
 41
0.003
  0
LWPOLYLINE
  5
395
100
AcDbEntity
  8
0
 62
     0
100
AcDbPolyline
 90
        2
 70
     0
 39
0.003
 10
2.567126
 20
1.045654
 40
0.003
 41
0.003
 10
2.566012
 20
1.051925
 40
0.003
 41
0.003
  0
LWPOLYLINE
  5
396
100
AcDbEntity
  8
0
 62
     0
100
AcDbPolyline
 90
        2
 70
     0
 39
0.003
 10
2.566012
 20
1.051925
 40
0.003
 41
0.003
 10
2.564591
 20
1.058091
 40
0.003
 41
0.003
  0
LWPOLYLINE
  5
397
100
AcDbEntity
  8
0
 62
     0
100
AcDbPolyline
 90
        2
 70
     0
 39
0.003
 10
2.564591
 20
1.058091
 40
0.003
 41
0.003
 10
2.562882
 20
1.064161
 40
0.003
 41
0.003
  0
LWPOLYLINE
  5
398
100
AcDbEntity
  8
0
 62
     0
100
AcDbPolyline
 90
        2
 70
     0
 39
0.003
 10
2.562882
 20
1.064161
 40
0.003
 41
0.003
 10
2.560886
 20
1.070114
 40
0.003
 41
0.003
  0
LWPOLYLINE
  5
399
100
AcDbEntity
  8
0
 62
     0
100
AcDbPolyline
 90
        2
 70
     0
 39
0.003
 10
2.560886
 20
1.070114
 40
0.003
 41
0.003
 10
2.558614
 20
1.075945
 40
0.003
 41
0.003
  0
LWPOLYLINE
  5
39A
100
AcDbEntity
  8
0
 62
     0
100
AcDbPolyline
 90
        2
 70
     0
 39
0.003
 10
2.558614
 20
1.075945
 40
0.003
 41
0.003
 10
2.556067
 20
1.081638
 40
0.003
 41
0.003
  0
LWPOLYLINE
  5
39B
100
AcDbEntity
  8
0
 62
     0
100
AcDbPolyline
 90
        2
 70
     0
 39
0.003
 10
2.556067
 20
1.081638
 40
0.003
 41
0.003
 10
2.553268
 20
1.087193
 40
0.003
 41
0.003
  0
LWPOLYLINE
  5
39C
100
AcDbEntity
  8
0
 62
     0
100
AcDbPolyline
 90
        2
 70
     0
 39
0.003
 10
2.553268
 20
1.087193
 40
0.003
 41
0.003
 10
2.550209
 20
1.092594
 40
0.003
 41
0.003
  0
LWPOLYLINE
  5
39D
100
AcDbEntity
  8
0
 62
     0
100
AcDbPolyline
 90
        2
 70
     0
 39
0.003
 10
2.550209
 20
1.092594
 40
0.003
 41
0.003
 10
2.546913
 20
1.097843
 40
0.003
 41
0.003
  0
LWPOLYLINE
  5
39E
100
AcDbEntity
  8
0
 62
     0
100
AcDbPolyline
 90
        2
 70
     0
 39
0.003
 10
2.546913
 20
1.097843
 40
0.003
 41
0.003
 10
2.543374
 20
1.102917
 40
0.003
 41
0.003
  0
LWPOLYLINE
  5
39F
100
AcDbEntity
  8
0
 62
     0
100
AcDbPolyline
 90
        2
 70
     0
 39
0.003
 10
2.543374
 20
1.102917
 40
0.003
 41
0.003
 10
2.539614
 20
1.107819
 40
0.003
 41
0.003
  0
LWPOLYLINE
  5
3A0
100
AcDbEntity
  8
0
 62
     0
100
AcDbPolyline
 90
        2
 70
     0
 39
0.003
 10
2.539614
 20
1.107819
 40
0.003
 41
0.003
 10
2.535634
 20
1.112531
 40
0.003
 41
0.003
  0
LWPOLYLINE
  5
3A1
100
AcDbEntity
  8
0
 62
     0
100
AcDbPolyline
 90
        2
 70
     0
 39
0.003
 10
2.535634
 20
1.112531
 40
0.003
 41
0.003
 10
2.531441
 20
1.117055
 40
0.003
 41
0.003
  0
LWPOLYLINE
  5
3A2
100
AcDbEntity
  8
0
 62
     0
100
AcDbPolyline
 90
        2
 70
     0
 39
0.003
 10
2.531441
 20
1.117055
 40
0.003
 41
0.003
 10
2.527031
 20
1.121366
 40
0.003
 41
0.003
  0
LWPOLYLINE
  5
3A3
100
AcDbEntity
  8
0
 62
     0
100
AcDbPolyline
 90
        2
 70
     0
 39
0.003
 10
2.527031
 20
1.121366
 40
0.003
 41
0.003
 10
2.522437
 20
1.125465
 40
0.003
 41
0.003
  0
LWPOLYLINE
  5
3A4
100
AcDbEntity
  8
0
 62
     0
100
AcDbPolyline
 90
        2
 70
     0
 39
0.003
 10
2.522437
 20
1.125465
 40
0.003
 41
0.003
 10
2.51765
 20
1.129343
 40
0.003
 41
0.003
  0
LWPOLYLINE
  5
3A5
100
AcDbEntity
  8
0
 62
     0
100
AcDbPolyline
 90
        2
 70
     0
 39
0.003
 10
2.51765
 20
1.129343
 40
0.003
 41
0.003
 10
2.512689
 20
1.132992
 40
0.003
 41
0.003
  0
LWPOLYLINE
  5
3A6
100
AcDbEntity
  8
0
 62
     0
100
AcDbPolyline
 90
        2
 70
     0
 39
0.003
 10
2.512689
 20
1.132992
 40
0.003
 41
0.003
 10
2.507547
 20
1.136394
 40
0.003
 41
0.003
  0
LWPOLYLINE
  5
3A7
100
AcDbEntity
  8
0
 62
     0
100
AcDbPolyline
 90
        2
 70
     0
 39
0.003
 10
2.507547
 20
1.136394
 40
0.003
 41
0.003
 10
2.502248
 20
1.139555
 40
0.003
 41
0.003
  0
LWPOLYLINE
  5
3A8
100
AcDbEntity
  8
0
 62
     0
100
AcDbPolyline
 90
        2
 70
     0
 39
0.003
 10
2.502248
 20
1.139555
 40
0.003
 41
0.003
 10
2.496787
 20
1.142453
 40
0.003
 41
0.003
  0
LWPOLYLINE
  5
3A9
100
AcDbEntity
  8
0
 62
     0
100
AcDbPolyline
 90
        2
 70
     0
 39
0.003
 10
2.496787
 20
1.142453
 40
0.003
 41
0.003
 10
2.491189
 20
1.145091
 40
0.003
 41
0.003
  0
LWPOLYLINE
  5
3AA
100
AcDbEntity
  8
0
 62
     0
100
AcDbPolyline
 90
        2
 70
     0
 39
0.003
 10
2.491189
 20
1.145091
 40
0.003
 41
0.003
 10
2.485441
 20
1.147441
 40
0.003
 41
0.003
  0
LWPOLYLINE
  5
3AB
100
AcDbEntity
  8
0
 62
     0
100
AcDbPolyline
 90
        2
 70
     0
 39
0.003
 10
2.485441
 20
1.147441
 40
0.003
 41
0.003
 10
2.479567
 20
1.149516
 40
0.003
 41
0.003
  0
LWPOLYLINE
  5
3AC
100
AcDbEntity
  8
0
 62
     0
100
AcDbPolyline
 90
        2
 70
     0
 39
0.003
 10
2.479567
 20
1.149516
 40
0.003
 41
0.003
 10
2.473567
 20
1.151291
 40
0.003
 41
0.003
  0
LWPOLYLINE
  5
3AD
100
AcDbEntity
  8
0
 62
     0
100
AcDbPolyline
 90
        2
 70
     0
 39
0.003
 10
2.473567
 20
1.151291
 40
0.003
 41
0.003
 10
2.467453
 20
1.152768
 40
0.003
 41
0.003
  0
LWPOLYLINE
  5
3AE
100
AcDbEntity
  8
0
 62
     0
100
AcDbPolyline
 90
        2
 70
     0
 39
0.003
 10
2.467453
 20
1.152768
 40
0.003
 41
0.003
 10
2.461224
 20
1.153929
 40
0.003
 41
0.003
  0
LWPOLYLINE
  5
3AF
100
AcDbEntity
  8
0
 62
     0
100
AcDbPolyline
 90
        2
 70
     0
 39
0.003
 10
2.461224
 20
1.153929
 40
0.003
 41
0.003
 10
2.454906
 20
1.154776
 40
0.003
 41
0.003
  0
LWPOLYLINE
  5
3B0
100
AcDbEntity
  8
0
 62
     0
100
AcDbPolyline
 90
        2
 70
     0
 39
0.003
 10
2.454906
 20
1.154776
 40
0.003
 41
0.003
 10
2.448492
 20
1.155283
 40
0.003
 41
0.003
  0
LWPOLYLINE
  5
3B1
100
AcDbEntity
  8
0
 62
     0
100
AcDbPolyline
 90
        2
 70
     0
 39
0.003
 10
2.448492
 20
1.155283
 40
0.003
 41
0.003
 10
2.442
 20
1.155461
 40
0.003
 41
0.003
  0
LWPOLYLINE
  5
3B2
100
AcDbEntity
  8
0
 62
     0
100
AcDbPolyline
 90
        2
 70
     0
 39
0.003
 10
2.442
 20
1.155461
 40
0.003
 41
0.003
 10
1.784917
 20
0.785874
 40
0.003
 41
0.003
  0
LWPOLYLINE
  5
3B3
100
AcDbEntity
  8
0
 62
     0
100
AcDbPolyline
 90
        2
 70
     0
 39
0.003
 10
1.784917
 20
0.785874
 40
0.003
 41
0.003
 10
1.791409
 20
0.785697
 40
0.003
 41
0.003
  0
LWPOLYLINE
  5
3B4
100
AcDbEntity
  8
0
 62
     0
100
AcDbPolyline
 90
        2
 70
     0
 39
0.003
 10
1.791409
 20
0.785697
 40
0.003
 41
0.003
 10
1.797823
 20
0.785189
 40
0.003
 41
0.003
  0
LWPOLYLINE
  5
3B5
100
AcDbEntity
  8
0
 62
     0
100
AcDbPolyline
 90
        2
 70
     0
 39
0.003
 10
1.797823
 20
0.785189
 40
0.003
 41
0.003
 10
1.804142
 20
0.784343
 40
0.003
 41
0.003
  0
LWPOLYLINE
  5
3B6
100
AcDbEntity
  8
0
 62
     0
100
AcDbPolyline
 90
        2
 70
     0
 39
0.003
 10
1.804142
 20
0.784343
 40
0.003
 41
0.003
 10
1.81037
 20
0.783181
 40
0.003
 41
0.003
  0
LWPOLYLINE
  5
3B7
100
AcDbEntity
  8
0
 62
     0
100
AcDbPolyline
 90
        2
 70
     0
 39
0.003
 10
1.81037
 20
0.783181
 40
0.003
 41
0.003
 10
1.816484
 20
0.781705
 40
0.003
 41
0.003
  0
LWPOLYLINE
  5
3B8
100
AcDbEntity
  8
0
 62
     0
100
AcDbPolyline
 90
        2
 70
     0
 39
0.003
 10
1.816484
 20
0.781705
 40
0.003
 41
0.003
 10
1.822484
 20
0.779929
 40
0.003
 41
0.003
  0
LWPOLYLINE
  5
3B9
100
AcDbEntity
  8
0
 62
     0
100
AcDbPolyline
 90
        2
 70
     0
 39
0.003
 10
1.822484
 20
0.779929
 40
0.003
 41
0.003
 10
1.828358
 20
0.777854
 40
0.003
 41
0.003
  0
LWPOLYLINE
  5
3BA
100
AcDbEntity
  8
0
 62
     0
100
AcDbPolyline
 90
        2
 70
     0
 39
0.003
 10
1.828358
 20
0.777854
 40
0.003
 41
0.003
 10
1.834106
 20
0.775504
 40
0.003
 41
0.003
  0
LWPOLYLINE
  5
3BB
100
AcDbEntity
  8
0
 62
     0
100
AcDbPolyline
 90
        2
 70
     0
 39
0.003
 10
1.834106
 20
0.775504
 40
0.003
 41
0.003
 10
1.839705
 20
0.772866
 40
0.003
 41
0.003
  0
LWPOLYLINE
  5
3BC
100
AcDbEntity
  8
0
 62
     0
100
AcDbPolyline
 90
        2
 70
     0
 39
0.003
 10
1.839705
 20
0.772866
 40
0.003
 41
0.003
 10
1.845165
 20
0.769969
 40
0.003
 41
0.003
  0
LWPOLYLINE
  5
3BD
100
AcDbEntity
  8
0
 62
     0
100
AcDbPolyline
 90
        2
 70
     0
 39
0.003
 10
1.845165
 20
0.769969
 40
0.003
 41
0.003
 10
1.850465
 20
0.766807
 40
0.003
 41
0.003
  0
LWPOLYLINE
  5
3BE
100
AcDbEntity
  8
0
 62
     0
100
AcDbPolyline
 90
        2
 70
     0
 39
0.003
 10
1.850465
 20
0.766807
 40
0.003
 41
0.003
 10
1.855606
 20
0.763406
 40
0.003
 41
0.003
  0
LWPOLYLINE
  5
3BF
100
AcDbEntity
  8
0
 62
     0
100
AcDbPolyline
 90
        2
 70
     0
 39
0.003
 10
1.855606
 20
0.763406
 40
0.003
 41
0.003
 10
1.860567
 20
0.759756
 40
0.003
 41
0.003
  0
LWPOLYLINE
  5
3C0
100
AcDbEntity
  8
0
 62
     0
100
AcDbPolyline
 90
        2
 70
     0
 39
0.003
 10
1.860567
 20
0.759756
 40
0.003
 41
0.003
 10
1.865354
 20
0.755878
 40
0.003
 41
0.003
  0
LWPOLYLINE
  5
3C1
100
AcDbEntity
  8
0
 62
     0
100
AcDbPolyline
 90
        2
 70
     0
 39
0.003
 10
1.865354
 20
0.755878
 40
0.003
 41
0.003
 10
1.869949
 20
0.75178
 40
0.003
 41
0.003
  0
LWPOLYLINE
  5
3C2
100
AcDbEntity
  8
0
 62
     0
100
AcDbPolyline
 90
        2
 70
     0
 39
0.003
 10
1.869949
 20
0.75178
 40
0.003
 41
0.003
 10
1.874358
 20
0.747469
 40
0.003
 41
0.003
  0
LWPOLYLINE
  5
3C3
100
AcDbEntity
  8
0
 62
     0
100
AcDbPolyline
 90
        2
 70
     0
 39
0.003
 10
1.874358
 20
0.747469
 40
0.003
 41
0.003
 10
1.878551
 20
0.742945
 40
0.003
 41
0.003
  0
LWPOLYLINE
  5
3C4
100
AcDbEntity
  8
0
 62
     0
100
AcDbPolyline
 90
        2
 70
     0
 39
0.003
 10
1.878551
 20
0.742945
 40
0.003
 41
0.003
 10
1.882531
 20
0.738232
 40
0.003
 41
0.003
  0
LWPOLYLINE
  5
3C5
100
AcDbEntity
  8
0
 62
     0
100
AcDbPolyline
 90
        2
 70
     0
 39
0.003
 10
1.882531
 20
0.738232
 40
0.003
 41
0.003
 10
1.886291
 20
0.733331
 40
0.003
 41
0.003
  0
LWPOLYLINE
  5
3C6
100
AcDbEntity
  8
0
 62
     0
100
AcDbPolyline
 90
        2
 70
     0
 39
0.003
 10
1.886291
 20
0.733331
 40
0.003
 41
0.003
 10
1.889831
 20
0.728256
 40
0.003
 41
0.003
  0
LWPOLYLINE
  5
3C7
100
AcDbEntity
  8
0
 62
     0
100
AcDbPolyline
 90
        2
 70
     0
 39
0.003
 10
1.889831
 20
0.728256
 40
0.003
 41
0.003
 10
1.893126
 20
0.723008
 40
0.003
 41
0.003
  0
LWPOLYLINE
  5
3C8
100
AcDbEntity
  8
0
 62
     0
100
AcDbPolyline
 90
        2
 70
     0
 39
0.003
 10
1.893126
 20
0.723008
 40
0.003
 41
0.003
 10
1.896185
 20
0.717606
 40
0.003
 41
0.003
  0
LWPOLYLINE
  5
3C9
100
AcDbEntity
  8
0
 62
     0
100
AcDbPolyline
 90
        2
 70
     0
 39
0.003
 10
1.896185
 20
0.717606
 40
0.003
 41
0.003
 10
1.898984
 20
0.712051
 40
0.003
 41
0.003
  0
LWPOLYLINE
  5
3CA
100
AcDbEntity
  8
0
 62
     0
100
AcDbPolyline
 90
        2
 70
     0
 39
0.003
 10
1.898984
 20
0.712051
 40
0.003
 41
0.003
 10
1.901531
 20
0.706358
 40
0.003
 41
0.003
  0
LWPOLYLINE
  5
3CB
100
AcDbEntity
  8
0
 62
     0
100
AcDbPolyline
 90
        2
 70
     0
 39
0.003
 10
1.901531
 20
0.706358
 40
0.003
 41
0.003
 10
1.903803
 20
0.700528
 40
0.003
 41
0.003
  0
LWPOLYLINE
  5
3CC
100
AcDbEntity
  8
0
 62
     0
100
AcDbPolyline
 90
        2
 70
     0
 39
0.003
 10
1.903803
 20
0.700528
 40
0.003
 41
0.003
 10
1.905799
 20
0.694575
 40
0.003
 41
0.003
  0
LWPOLYLINE
  5
3CD
100
AcDbEntity
  8
0
 62
     0
100
AcDbPolyline
 90
        2
 70
     0
 39
0.003
 10
1.905799
 20
0.694575
 40
0.003
 41
0.003
 10
1.907508
 20
0.688504
 40
0.003
 41
0.003
  0
LWPOLYLINE
  5
3CE
100
AcDbEntity
  8
0
 62
     0
100
AcDbPolyline
 90
        2
 70
     0
 39
0.003
 10
1.907508
 20
0.688504
 40
0.003
 41
0.003
 10
1.908929
 20
0.682339
 40
0.003
 41
0.003
  0
LWPOLYLINE
  5
3CF
100
AcDbEntity
  8
0
 62
     0
100
AcDbPolyline
 90
        2
 70
     0
 39
0.003
 10
1.908929
 20
0.682339
 40
0.003
 41
0.003
 10
1.910043
 20
0.676067
 40
0.003
 41
0.003
  0
LWPOLYLINE
  5
3D0
100
AcDbEntity
  8
0
 62
     0
100
AcDbPolyline
 90
        2
 70
     0
 39
0.003
 10
1.910043
 20
0.676067
 40
0.003
 41
0.003
 10
1.910854
 20
0.669713
 40
0.003
 41
0.003
  0
LWPOLYLINE
  5
3D1
100
AcDbEntity
  8
0
 62
     0
100
AcDbPolyline
 90
        2
 70
     0
 39
0.003
 10
1.910854
 20
0.669713
 40
0.003
 41
0.003
 10
1.911343
 20
0.663276
 40
0.003
 41
0.003
  0
LWPOLYLINE
  5
3D2
100
AcDbEntity
  8
0
 62
     0
100
AcDbPolyline
 90
        2
 70
     0
 39
0.003
 10
1.911343
 20
0.663276
 40
0.003
 41
0.003
 10
1.911512
 20
0.65678
 40
0.003
 41
0.003
  0
LWPOLYLINE
  5
3D3
100
AcDbEntity
  8
0
 62
     0
100
AcDbPolyline
 90
        2
 70
     0
 39
0.003
 10
1.911512
 20
0.65678
 40
0.003
 41
0.003
 10
1.911343
 20
0.650276
 40
0.003
 41
0.003
  0
LWPOLYLINE
  5
3D4
100
AcDbEntity
  8
0
 62
     0
100
AcDbPolyline
 90
        2
 70
     0
 39
0.003
 10
1.911343
 20
0.650276
 40
0.003
 41
0.003
 10
1.910854
 20
0.643862
 40
0.003
 41
0.003
  0
LWPOLYLINE
  5
3D5
100
AcDbEntity
  8
0
 62
     0
100
AcDbPolyline
 90
        2
 70
     0
 39
0.003
 10
1.910854
 20
0.643862
 40
0.003
 41
0.003
 10
1.910043
 20
0.637535
 40
0.003
 41
0.003
  0
LWPOLYLINE
  5
3D6
100
AcDbEntity
  8
0
 62
     0
100
AcDbPolyline
 90
        2
 70
     0
 39
0.003
 10
1.910043
 20
0.637535
 40
0.003
 41
0.003
 10
1.908929
 20
0.631315
 40
0.003
 41
0.003
  0
LWPOLYLINE
  5
3D7
100
AcDbEntity
  8
0
 62
     0
100
AcDbPolyline
 90
        2
 70
     0
 39
0.003
 10
1.908929
 20
0.631315
 40
0.003
 41
0.003
 10
1.907508
 20
0.625197
 40
0.003
 41
0.003
  0
LWPOLYLINE
  5
3D8
100
AcDbEntity
  8
0
 62
     0
100
AcDbPolyline
 90
        2
 70
     0
 39
0.003
 10
1.907508
 20
0.625197
 40
0.003
 41
0.003
 10
1.905799
 20
0.619197
 40
0.003
 41
0.003
  0
LWPOLYLINE
  5
3D9
100
AcDbEntity
  8
0
 62
     0
100
AcDbPolyline
 90
        2
 70
     0
 39
0.003
 10
1.905799
 20
0.619197
 40
0.003
 41
0.003
 10
1.903803
 20
0.613319
 40
0.003
 41
0.003
  0
LWPOLYLINE
  5
3DA
100
AcDbEntity
  8
0
 62
     0
100
AcDbPolyline
 90
        2
 70
     0
 39
0.003
 10
1.903803
 20
0.613319
 40
0.003
 41
0.003
 10
1.901531
 20
0.607579
 40
0.003
 41
0.003
  0
LWPOLYLINE
  5
3DB
100
AcDbEntity
  8
0
 62
     0
100
AcDbPolyline
 90
        2
 70
     0
 39
0.003
 10
1.901531
 20
0.607579
 40
0.003
 41
0.003
 10
1.898984
 20
0.601969
 40
0.003
 41
0.003
  0
LWPOLYLINE
  5
3DC
100
AcDbEntity
  8
0
 62
     0
100
AcDbPolyline
 90
        2
 70
     0
 39
0.003
 10
1.898984
 20
0.601969
 40
0.003
 41
0.003
 10
1.896185
 20
0.596516
 40
0.003
 41
0.003
  0
LWPOLYLINE
  5
3DD
100
AcDbEntity
  8
0
 62
     0
100
AcDbPolyline
 90
        2
 70
     0
 39
0.003
 10
1.896185
 20
0.596516
 40
0.003
 41
0.003
 10
1.893126
 20
0.591213
 40
0.003
 41
0.003
  0
LWPOLYLINE
  5
3DE
100
AcDbEntity
  8
0
 62
     0
100
AcDbPolyline
 90
        2
 70
     0
 39
0.003
 10
1.893126
 20
0.591213
 40
0.003
 41
0.003
 10
1.889831
 20
0.586079
 40
0.003
 41
0.003
  0
LWPOLYLINE
  5
3DF
100
AcDbEntity
  8
0
 62
     0
100
AcDbPolyline
 90
        2
 70
     0
 39
0.003
 10
1.889831
 20
0.586079
 40
0.003
 41
0.003
 10
1.886291
 20
0.58111
 40
0.003
 41
0.003
  0
LWPOLYLINE
  5
3E0
100
AcDbEntity
  8
0
 62
     0
100
AcDbPolyline
 90
        2
 70
     0
 39
0.003
 10
1.886291
 20
0.58111
 40
0.003
 41
0.003
 10
1.882531
 20
0.576327
 40
0.003
 41
0.003
  0
LWPOLYLINE
  5
3E1
100
AcDbEntity
  8
0
 62
     0
100
AcDbPolyline
 90
        2
 70
     0
 39
0.003
 10
1.882531
 20
0.576327
 40
0.003
 41
0.003
 10
1.878551
 20
0.571732
 40
0.003
 41
0.003
  0
LWPOLYLINE
  5
3E2
100
AcDbEntity
  8
0
 62
     0
100
AcDbPolyline
 90
        2
 70
     0
 39
0.003
 10
1.878551
 20
0.571732
 40
0.003
 41
0.003
 10
1.874358
 20
0.567335
 40
0.003
 41
0.003
  0
LWPOLYLINE
  5
3E3
100
AcDbEntity
  8
0
 62
     0
100
AcDbPolyline
 90
        2
 70
     0
 39
0.003
 10
1.874358
 20
0.567335
 40
0.003
 41
0.003
 10
1.869949
 20
0.563134
 40
0.003
 41
0.003
  0
LWPOLYLINE
  5
3E4
100
AcDbEntity
  8
0
 62
     0
100
AcDbPolyline
 90
        2
 70
     0
 39
0.003
 10
1.869949
 20
0.563134
 40
0.003
 41
0.003
 10
1.865354
 20
0.559154
 40
0.003
 41
0.003
  0
LWPOLYLINE
  5
3E5
100
AcDbEntity
  8
0
 62
     0
100
AcDbPolyline
 90
        2
 70
     0
 39
0.003
 10
1.865354
 20
0.559154
 40
0.003
 41
0.003
 10
1.860567
 20
0.555386
 40
0.003
 41
0.003
  0
LWPOLYLINE
  5
3E6
100
AcDbEntity
  8
0
 62
     0
100
AcDbPolyline
 90
        2
 70
     0
 39
0.003
 10
1.860567
 20
0.555386
 40
0.003
 41
0.003
 10
1.855606
 20
0.551854
 40
0.003
 41
0.003
  0
LWPOLYLINE
  5
3E7
100
AcDbEntity
  8
0
 62
   254
100
AcDbPolyline
 90
        2
 70
     0
 39
0.003
 10
1.784917
 20
0.785874
 40
0.003
 41
0.003
 10
2.442
 20
1.155461
 40
0.003
 41
0.003
  0
LWPOLYLINE
  5
3E8
100
AcDbEntity
  8
0
 62
   254
100
AcDbPolyline
 90
        2
 70
     0
 39
0.003
 10
2.442
 20
1.155461
 40
0.003
 41
0.003
 10
2.444484
 20
1.205087
 40
0.003
 41
0.003
  0
LWPOLYLINE
  5
3E9
100
AcDbEntity
  8
0
 62
   254
100
AcDbPolyline
 90
        2
 70
     0
 39
0.003
 10
2.444484
 20
1.205087
 40
0.003
 41
0.003
 10
1.787402
 20
0.8355
 40
0.003
 41
0.003
  0
LWPOLYLINE
  5
3EA
100
AcDbEntity
  8
0
 62
   254
100
AcDbPolyline
 90
        2
 70
     0
 39
0.003
 10
1.787402
 20
0.8355
 40
0.003
 41
0.003
 10
1.784917
 20
0.785874
 40
0.003
 41
0.003
  0
LWPOLYLINE
  5
3EB
100
AcDbEntity
  8
0
 62
   254
100
AcDbPolyline
 90
        2
 70
     0
 39
0.003
 10
1.787402
 20
0.8355
 40
0.003
 41
0.003
 10
2.444484
 20
1.205087
 40
0.003
 41
0.003
  0
LWPOLYLINE
  5
3EC
100
AcDbEntity
  8
0
 62
   254
100
AcDbPolyline
 90
        2
 70
     0
 39
0.003
 10
2.444484
 20
1.205087
 40
0.003
 41
0.003
 10
2.444315
 20
1.253961
 40
0.003
 41
0.003
  0
LWPOLYLINE
  5
3ED
100
AcDbEntity
  8
0
 62
   254
100
AcDbPolyline
 90
        2
 70
     0
 39
0.003
 10
2.444315
 20
1.253961
 40
0.003
 41
0.003
 10
1.787232
 20
0.884374
 40
0.003
 41
0.003
  0
LWPOLYLINE
  5
3EE
100
AcDbEntity
  8
0
 62
   254
100
AcDbPolyline
 90
        2
 70
     0
 39
0.003
 10
1.787232
 20
0.884374
 40
0.003
 41
0.003
 10
1.787402
 20
0.8355
 40
0.003
 41
0.003
  0
LWPOLYLINE
  5
3EF
100
AcDbEntity
  8
0
 62
   254
100
AcDbPolyline
 90
        2
 70
     0
 39
0.003
 10
1.787232
 20
0.884374
 40
0.003
 41
0.003
 10
2.444315
 20
1.253961
 40
0.003
 41
0.003
  0
LWPOLYLINE
  5
3F0
100
AcDbEntity
  8
0
 62
   254
100
AcDbPolyline
 90
        2
 70
     0
 39
0.003
 10
2.444315
 20
1.253961
 40
0.003
 41
0.003
 10
2.441563
 20
1.302039
 40
0.003
 41
0.003
  0
LWPOLYLINE
  5
3F1
100
AcDbEntity
  8
0
 62
   254
100
AcDbPolyline
 90
        2
 70
     0
 39
0.003
 10
2.441563
 20
1.302039
 40
0.003
 41
0.003
 10
1.78448
 20
0.932453
 40
0.003
 41
0.003
  0
LWPOLYLINE
  5
3F2
100
AcDbEntity
  8
0
 62
   254
100
AcDbPolyline
 90
        2
 70
     0
 39
0.003
 10
1.78448
 20
0.932453
 40
0.003
 41
0.003
 10
1.787232
 20
0.884374
 40
0.003
 41
0.003
  0
LWPOLYLINE
  5
3F3
100
AcDbEntity
  8
0
 62
   254
100
AcDbPolyline
 90
        2
 70
     0
 39
0.003
 10
1.78448
 20
0.932453
 40
0.003
 41
0.003
 10
2.441563
 20
1.302039
 40
0.003
 41
0.003
  0
LWPOLYLINE
  5
3F4
100
AcDbEntity
  8
0
 62
   254
100
AcDbPolyline
 90
        2
 70
     0
 39
0.003
 10
2.441563
 20
1.302039
 40
0.003
 41
0.003
 10
2.436315
 20
1.349287
 40
0.003
 41
0.003
  0
LWPOLYLINE
  5
3F5
100
AcDbEntity
  8
0
 62
   254
100
AcDbPolyline
 90
        2
 70
     0
 39
0.003
 10
2.436315
 20
1.349287
 40
0.003
 41
0.003
 10
1.779232
 20
0.979701
 40
0.003
 41
0.003
  0
LWPOLYLINE
  5
3F6
100
AcDbEntity
  8
0
 62
   254
100
AcDbPolyline
 90
        2
 70
     0
 39
0.003
 10
1.779232
 20
0.979701
 40
0.003
 41
0.003
 10
1.78448
 20
0.932453
 40
0.003
 41
0.003
  0
LWPOLYLINE
  5
3F7
100
AcDbEntity
  8
0
 62
   254
100
AcDbPolyline
 90
        2
 70
     0
 39
0.003
 10
1.779232
 20
0.979701
 40
0.003
 41
0.003
 10
2.436315
 20
1.349287
 40
0.003
 41
0.003
  0
LWPOLYLINE
  5
3F8
100
AcDbEntity
  8
0
 62
   254
100
AcDbPolyline
 90
        2
 70
     0
 39
0.003
 10
2.436315
 20
1.349287
 40
0.003
 41
0.003
 10
2.428646
 20
1.395661
 40
0.003
 41
0.003
  0
LWPOLYLINE
  5
3F9
100
AcDbEntity
  8
0
 62
   254
100
AcDbPolyline
 90
        2
 70
     0
 39
0.003
 10
2.428646
 20
1.395661
 40
0.003
 41
0.003
 10
1.771563
 20
1.026075
 40
0.003
 41
0.003
  0
LWPOLYLINE
  5
3FA
100
AcDbEntity
  8
0
 62
   254
100
AcDbPolyline
 90
        2
 70
     0
 39
0.003
 10
1.771563
 20
1.026075
 40
0.003
 41
0.003
 10
1.779232
 20
0.979701
 40
0.003
 41
0.003
  0
LWPOLYLINE
  5
3FB
100
AcDbEntity
  8
0
 62
   254
100
AcDbPolyline
 90
        2
 70
     0
 39
0.003
 10
1.771563
 20
1.026075
 40
0.003
 41
0.003
 10
2.428646
 20
1.395661
 40
0.003
 41
0.003
  0
LWPOLYLINE
  5
3FC
100
AcDbEntity
  8
0
 62
   254
100
AcDbPolyline
 90
        2
 70
     0
 39
0.003
 10
2.428646
 20
1.395661
 40
0.003
 41
0.003
 10
2.41865
 20
1.44113
 40
0.003
 41
0.003
  0
LWPOLYLINE
  5
3FD
100
AcDbEntity
  8
0
 62
   254
100
AcDbPolyline
 90
        2
 70
     0
 39
0.003
 10
2.41865
 20
1.44113
 40
0.003
 41
0.003
 10
1.761567
 20
1.071543
 40
0.003
 41
0.003
  0
LWPOLYLINE
  5
3FE
100
AcDbEntity
  8
0
 62
   254
100
AcDbPolyline
 90
        2
 70
     0
 39
0.003
 10
1.761567
 20
1.071543
 40
0.003
 41
0.003
 10
1.771563
 20
1.026075
 40
0.003
 41
0.003
  0
LWPOLYLINE
  5
3FF
100
AcDbEntity
  8
0
 62
   254
100
AcDbPolyline
 90
        2
 70
     0
 39
0.003
 10
1.761567
 20
1.071543
 40
0.003
 41
0.003
 10
2.41865
 20
1.44113
 40
0.003
 41
0.003
  0
LWPOLYLINE
  5
400
100
AcDbEntity
  8
0
 62
   254
100
AcDbPolyline
 90
        2
 70
     0
 39
0.003
 10
2.41865
 20
1.44113
 40
0.003
 41
0.003
 10
2.406394
 20
1.48565
 40
0.003
 41
0.003
  0
LWPOLYLINE
  5
401
100
AcDbEntity
  8
0
 62
   254
100
AcDbPolyline
 90
        2
 70
     0
 39
0.003
 10
2.406394
 20
1.48565
 40
0.003
 41
0.003
 10
1.749311
 20
1.116063
 40
0.003
 41
0.003
  0
LWPOLYLINE
  5
402
100
AcDbEntity
  8
0
 62
   254
100
AcDbPolyline
 90
        2
 70
     0
 39
0.003
 10
1.749311
 20
1.116063
 40
0.003
 41
0.003
 10
1.761567
 20
1.071543
 40
0.003
 41
0.003
  0
LWPOLYLINE
  5
403
100
AcDbEntity
  8
0
 62
   254
100
AcDbPolyline
 90
        2
 70
     0
 39
0.003
 10
1.749311
 20
1.116063
 40
0.003
 41
0.003
 10
2.406394
 20
1.48565
 40
0.003
 41
0.003
  0
LWPOLYLINE
  5
404
100
AcDbEntity
  8
0
 62
   254
100
AcDbPolyline
 90
        2
 70
     0
 39
0.003
 10
2.406394
 20
1.48565
 40
0.003
 41
0.003
 10
2.391976
 20
1.529185
 40
0.003
 41
0.003
  0
LWPOLYLINE
  5
405
100
AcDbEntity
  8
0
 62
   254
100
AcDbPolyline
 90
        2
 70
     0
 39
0.003
 10
2.391976
 20
1.529185
 40
0.003
 41
0.003
 10
1.734894
 20
1.159598
 40
0.003
 41
0.003
  0
LWPOLYLINE
  5
406
100
AcDbEntity
  8
0
 62
   254
100
AcDbPolyline
 90
        2
 70
     0
 39
0.003
 10
1.734894
 20
1.159598
 40
0.003
 41
0.003
 10
1.749311
 20
1.116063
 40
0.003
 41
0.003
  0
LWPOLYLINE
  5
407
100
AcDbEntity
  8
0
 62
   254
100
AcDbPolyline
 90
        2
 70
     0
 39
0.003
 10
1.734894
 20
1.159598
 40
0.003
 41
0.003
 10
2.391976
 20
1.529185
 40
0.003
 41
0.003
  0
LWPOLYLINE
  5
408
100
AcDbEntity
  8
0
 62
   254
100
AcDbPolyline
 90
        2
 70
     0
 39
0.003
 10
2.391976
 20
1.529185
 40
0.003
 41
0.003
 10
2.375457
 20
1.571689
 40
0.003
 41
0.003
  0
LWPOLYLINE
  5
409
100
AcDbEntity
  8
0
 62
   254
100
AcDbPolyline
 90
        2
 70
     0
 39
0.003
 10
2.375457
 20
1.571689
 40
0.003
 41
0.003
 10
1.718374
 20
1.202102
 40
0.003
 41
0.003
  0
LWPOLYLINE
  5
40A
100
AcDbEntity
  8
0
 62
   254
100
AcDbPolyline
 90
        2
 70
     0
 39
0.003
 10
1.718374
 20
1.202102
 40
0.003
 41
0.003
 10
1.734894
 20
1.159598
 40
0.003
 41
0.003
  0
LWPOLYLINE
  5
40B
100
AcDbEntity
  8
0
 62
   254
100
AcDbPolyline
 90
        2
 70
     0
 39
0.003
 10
1.718374
 20
1.202102
 40
0.003
 41
0.003
 10
2.375457
 20
1.571689
 40
0.003
 41
0.003
  0
LWPOLYLINE
  5
40C
100
AcDbEntity
  8
0
 62
   254
100
AcDbPolyline
 90
        2
 70
     0
 39
0.003
 10
2.375457
 20
1.571689
 40
0.003
 41
0.003
 10
2.356937
 20
1.613138
 40
0.003
 41
0.003
  0
LWPOLYLINE
  5
40D
100
AcDbEntity
  8
0
 62
   254
100
AcDbPolyline
 90
        2
 70
     0
 39
0.003
 10
2.356937
 20
1.613138
 40
0.003
 41
0.003
 10
1.699854
 20
1.243551
 40
0.003
 41
0.003
  0
LWPOLYLINE
  5
40E
100
AcDbEntity
  8
0
 62
   254
100
AcDbPolyline
 90
        2
 70
     0
 39
0.003
 10
1.699854
 20
1.243551
 40
0.003
 41
0.003
 10
1.718374
 20
1.202102
 40
0.003
 41
0.003
  0
LWPOLYLINE
  5
40F
100
AcDbEntity
  8
0
 62
   254
100
AcDbPolyline
 90
        2
 70
     0
 39
0.003
 10
1.699854
 20
1.243551
 40
0.003
 41
0.003
 10
2.356937
 20
1.613138
 40
0.003
 41
0.003
  0
LWPOLYLINE
  5
410
100
AcDbEntity
  8
0
 62
   254
100
AcDbPolyline
 90
        2
 70
     0
 39
0.003
 10
2.356937
 20
1.613138
 40
0.003
 41
0.003
 10
2.336488
 20
1.653488
 40
0.003
 41
0.003
  0
LWPOLYLINE
  5
411
100
AcDbEntity
  8
0
 62
   254
100
AcDbPolyline
 90
        2
 70
     0
 39
0.003
 10
2.336488
 20
1.653488
 40
0.003
 41
0.003
 10
1.679406
 20
1.283902
 40
0.003
 41
0.003
  0
LWPOLYLINE
  5
412
100
AcDbEntity
  8
0
 62
   254
100
AcDbPolyline
 90
        2
 70
     0
 39
0.003
 10
1.679406
 20
1.283902
 40
0.003
 41
0.003
 10
1.699854
 20
1.243551
 40
0.003
 41
0.003
  0
LWPOLYLINE
  5
413
100
AcDbEntity
  8
0
 62
   254
100
AcDbPolyline
 90
        2
 70
     0
 39
0.003
 10
1.679406
 20
1.283902
 40
0.003
 41
0.003
 10
2.336488
 20
1.653488
 40
0.003
 41
0.003
  0
LWPOLYLINE
  5
414
100
AcDbEntity
  8
0
 62
   254
100
AcDbPolyline
 90
        2
 70
     0
 39
0.003
 10
2.336488
 20
1.653488
 40
0.003
 41
0.003
 10
2.314201
 20
1.692705
 40
0.003
 41
0.003
  0
LWPOLYLINE
  5
415
100
AcDbEntity
  8
0
 62
   254
100
AcDbPolyline
 90
        2
 70
     0
 39
0.003
 10
2.314201
 20
1.692705
 40
0.003
 41
0.003
 10
1.657118
 20
1.323118
 40
0.003
 41
0.003
  0
LWPOLYLINE
  5
416
100
AcDbEntity
  8
0
 62
   254
100
AcDbPolyline
 90
        2
 70
     0
 39
0.003
 10
1.657118
 20
1.323118
 40
0.003
 41
0.003
 10
1.679406
 20
1.283902
 40
0.003
 41
0.003
  0
LWPOLYLINE
  5
417
100
AcDbEntity
  8
0
 62
   254
100
AcDbPolyline
 90
        2
 70
     0
 39
0.003
 10
1.657118
 20
1.323118
 40
0.003
 41
0.003
 10
2.314201
 20
1.692705
 40
0.003
 41
0.003
  0
LWPOLYLINE
  5
418
100
AcDbEntity
  8
0
 62
   254
100
AcDbPolyline
 90
        2
 70
     0
 39
0.003
 10
2.314201
 20
1.692705
 40
0.003
 41
0.003
 10
2.290146
 20
1.73074
 40
0.003
 41
0.003
  0
LWPOLYLINE
  5
419
100
AcDbEntity
  8
0
 62
   254
100
AcDbPolyline
 90
        2
 70
     0
 39
0.003
 10
2.290146
 20
1.73074
 40
0.003
 41
0.003
 10
1.633063
 20
1.361154
 40
0.003
 41
0.003
  0
LWPOLYLINE
  5
41A
100
AcDbEntity
  8
0
 62
   254
100
AcDbPolyline
 90
        2
 70
     0
 39
0.003
 10
1.633063
 20
1.361154
 40
0.003
 41
0.003
 10
1.657118
 20
1.323118
 40
0.003
 41
0.003
  0
LWPOLYLINE
  5
41B
100
AcDbEntity
  8
0
 62
   254
100
AcDbPolyline
 90
        2
 70
     0
 39
0.003
 10
1.633063
 20
1.361154
 40
0.003
 41
0.003
 10
2.290146
 20
1.73074
 40
0.003
 41
0.003
  0
LWPOLYLINE
  5
41C
100
AcDbEntity
  8
0
 62
   254
100
AcDbPolyline
 90
        2
 70
     0
 39
0.003
 10
2.290146
 20
1.73074
 40
0.003
 41
0.003
 10
2.264409
 20
1.767567
 40
0.003
 41
0.003
  0
LWPOLYLINE
  5
41D
100
AcDbEntity
  8
0
 62
   254
100
AcDbPolyline
 90
        2
 70
     0
 39
0.003
 10
2.264409
 20
1.767567
 40
0.003
 41
0.003
 10
1.607327
 20
1.39798
 40
0.003
 41
0.003
  0
LWPOLYLINE
  5
41E
100
AcDbEntity
  8
0
 62
   254
100
AcDbPolyline
 90
        2
 70
     0
 39
0.003
 10
1.607327
 20
1.39798
 40
0.003
 41
0.003
 10
1.633063
 20
1.361154
 40
0.003
 41
0.003
  0
LWPOLYLINE
  5
41F
100
AcDbEntity
  8
0
 62
   254
100
AcDbPolyline
 90
        2
 70
     0
 39
0.003
 10
1.607327
 20
1.39798
 40
0.003
 41
0.003
 10
2.264409
 20
1.767567
 40
0.003
 41
0.003
  0
LWPOLYLINE
  5
420
100
AcDbEntity
  8
0
 62
   254
100
AcDbPolyline
 90
        2
 70
     0
 39
0.003
 10
2.264409
 20
1.767567
 40
0.003
 41
0.003
 10
2.237075
 20
1.803138
 40
0.003
 41
0.003
  0
LWPOLYLINE
  5
421
100
AcDbEntity
  8
0
 62
   254
100
AcDbPolyline
 90
        2
 70
     0
 39
0.003
 10
2.237075
 20
1.803138
 40
0.003
 41
0.003
 10
1.579992
 20
1.433551
 40
0.003
 41
0.003
  0
LWPOLYLINE
  5
422
100
AcDbEntity
  8
0
 62
   254
100
AcDbPolyline
 90
        2
 70
     0
 39
0.003
 10
1.579992
 20
1.433551
 40
0.003
 41
0.003
 10
1.607327
 20
1.39798
 40
0.003
 41
0.003
  0
LWPOLYLINE
  5
423
100
AcDbEntity
  8
0
 62
   254
100
AcDbPolyline
 90
        2
 70
     0
 39
0.003
 10
1.579992
 20
1.433551
 40
0.003
 41
0.003
 10
2.237075
 20
1.803138
 40
0.003
 41
0.003
  0
LWPOLYLINE
  5
424
100
AcDbEntity
  8
0
 62
   254
100
AcDbPolyline
 90
        2
 70
     0
 39
0.003
 10
2.237075
 20
1.803138
 40
0.003
 41
0.003
 10
2.208228
 20
1.837425
 40
0.003
 41
0.003
  0
LWPOLYLINE
  5
425
100
AcDbEntity
  8
0
 62
   254
100
AcDbPolyline
 90
        2
 70
     0
 39
0.003
 10
2.208228
 20
1.837425
 40
0.003
 41
0.003
 10
1.551146
 20
1.467839
 40
0.003
 41
0.003
  0
LWPOLYLINE
  5
426
100
AcDbEntity
  8
0
 62
   254
100
AcDbPolyline
 90
        2
 70
     0
 39
0.003
 10
1.551146
 20
1.467839
 40
0.003
 41
0.003
 10
1.579992
 20
1.433551
 40
0.003
 41
0.003
  0
LWPOLYLINE
  5
427
100
AcDbEntity
  8
0
 62
   254
100
AcDbPolyline
 90
        2
 70
     0
 39
0.003
 10
1.551146
 20
1.467839
 40
0.003
 41
0.003
 10
2.208228
 20
1.837425
 40
0.003
 41
0.003
  0
LWPOLYLINE
  5
428
100
AcDbEntity
  8
0
 62
   254
100
AcDbPolyline
 90
        2
 70
     0
 39
0.003
 10
2.208228
 20
1.837425
 40
0.003
 41
0.003
 10
2.177933
 20
1.870374
 40
0.003
 41
0.003
  0
LWPOLYLINE
  5
429
100
AcDbEntity
  8
0
 62
   254
100
AcDbPolyline
 90
        2
 70
     0
 39
0.003
 10
2.177933
 20
1.870374
 40
0.003
 41
0.003
 10
1.52085
 20
1.500787
 40
0.003
 41
0.003
  0
LWPOLYLINE
  5
42A
100
AcDbEntity
  8
0
 62
   254
100
AcDbPolyline
 90
        2
 70
     0
 39
0.003
 10
1.52085
 20
1.500787
 40
0.003
 41
0.003
 10
1.551146
 20
1.467839
 40
0.003
 41
0.003
  0
LWPOLYLINE
  5
42B
100
AcDbEntity
  8
0
 62
   254
100
AcDbPolyline
 90
        2
 70
     0
 39
0.003
 10
1.52085
 20
1.500787
 40
0.003
 41
0.003
 10
2.177933
 20
1.870374
 40
0.003
 41
0.003
  0
LWPOLYLINE
  5
42C
100
AcDbEntity
  8
0
 62
   254
100
AcDbPolyline
 90
        2
 70
     0
 39
0.003
 10
2.177933
 20
1.870374
 40
0.003
 41
0.003
 10
2.146291
 20
1.901965
 40
0.003
 41
0.003
  0
LWPOLYLINE
  5
42D
100
AcDbEntity
  8
0
 62
   254
100
AcDbPolyline
 90
        2
 70
     0
 39
0.003
 10
2.146291
 20
1.901965
 40
0.003
 41
0.003
 10
1.489209
 20
1.532378
 40
0.003
 41
0.003
  0
LWPOLYLINE
  5
42E
100
AcDbEntity
  8
0
 62
   254
100
AcDbPolyline
 90
        2
 70
     0
 39
0.003
 10
1.489209
 20
1.532378
 40
0.003
 41
0.003
 10
1.52085
 20
1.500787
 40
0.003
 41
0.003
  0
LWPOLYLINE
  5
42F
100
AcDbEntity
  8
0
 62
   254
100
AcDbPolyline
 90
        2
 70
     0
 39
0.003
 10
1.489209
 20
1.532378
 40
0.003
 41
0.003
 10
2.146291
 20
1.901965
 40
0.003
 41
0.003
  0
LWPOLYLINE
  5
430
100
AcDbEntity
  8
0
 62
   254
100
AcDbPolyline
 90
        2
 70
     0
 39
0.003
 10
2.146291
 20
1.901965
 40
0.003
 41
0.003
 10
2.113374
 20
1.932146
 40
0.003
 41
0.003
  0
LWPOLYLINE
  5
431
100
AcDbEntity
  8
0
 62
   254
100
AcDbPolyline
 90
        2
 70
     0
 39
0.003
 10
2.113374
 20
1.932146
 40
0.003
 41
0.003
 10
1.456291
 20
1.562559
 40
0.003
 41
0.003
  0
LWPOLYLINE
  5
432
100
AcDbEntity
  8
0
 62
   254
100
AcDbPolyline
 90
        2
 70
     0
 39
0.003
 10
1.456291
 20
1.562559
 40
0.003
 41
0.003
 10
1.489209
 20
1.532378
 40
0.003
 41
0.003
  0
LWPOLYLINE
  5
433
100
AcDbEntity
  8
0
 62
   254
100
AcDbPolyline
 90
        2
 70
     0
 39
0.003
 10
1.456291
 20
1.562559
 40
0.003
 41
0.003
 10
2.113374
 20
1.932146
 40
0.003
 41
0.003
  0
LWPOLYLINE
  5
434
100
AcDbEntity
  8
0
 62
   254
100
AcDbPolyline
 90
        2
 70
     0
 39
0.003
 10
2.113374
 20
1.932146
 40
0.003
 41
0.003
 10
2.079268
 20
1.960894
 40
0.003
 41
0.003
  0
LWPOLYLINE
  5
435
100
AcDbEntity
  8
0
 62
   254
100
AcDbPolyline
 90
        2
 70
     0
 39
0.003
 10
2.079268
 20
1.960894
 40
0.003
 41
0.003
 10
1.422185
 20
1.591307
 40
0.003
 41
0.003
  0
LWPOLYLINE
  5
436
100
AcDbEntity
  8
0
 62
   254
100
AcDbPolyline
 90
        2
 70
     0
 39
0.003
 10
1.422185
 20
1.591307
 40
0.003
 41
0.003
 10
1.456291
 20
1.562559
 40
0.003
 41
0.003
  0
LWPOLYLINE
  5
437
100
AcDbEntity
  8
0
 62
   254
100
AcDbPolyline
 90
        2
 70
     0
 39
0.003
 10
1.422185
 20
1.591307
 40
0.003
 41
0.003
 10
2.079268
 20
1.960894
 40
0.003
 41
0.003
  0
LWPOLYLINE
  5
438
100
AcDbEntity
  8
0
 62
   254
100
AcDbPolyline
 90
        2
 70
     0
 39
0.003
 10
2.079268
 20
1.960894
 40
0.003
 41
0.003
 10
2.044047
 20
1.988154
 40
0.003
 41
0.003
  0
LWPOLYLINE
  5
439
100
AcDbEntity
  8
0
 62
   254
100
AcDbPolyline
 90
        2
 70
     0
 39
0.003
 10
2.044047
 20
1.988154
 40
0.003
 41
0.003
 10
1.386965
 20
1.618567
 40
0.003
 41
0.003
  0
LWPOLYLINE
  5
43A
100
AcDbEntity
  8
0
 62
   254
100
AcDbPolyline
 90
        2
 70
     0
 39
0.003
 10
1.386965
 20
1.618567
 40
0.003
 41
0.003
 10
1.422185
 20
1.591307
 40
0.003
 41
0.003
  0
LWPOLYLINE
  5
43B
100
AcDbEntity
  8
0
 62
   254
100
AcDbPolyline
 90
        2
 70
     0
 39
0.003
 10
1.386965
 20
1.618567
 40
0.003
 41
0.003
 10
2.044047
 20
1.988154
 40
0.003
 41
0.003
  0
LWPOLYLINE
  5
43C
100
AcDbEntity
  8
0
 62
   254
100
AcDbPolyline
 90
        2
 70
     0
 39
0.003
 10
2.044047
 20
1.988154
 40
0.003
 41
0.003
 10
2.007803
 20
2.013906
 40
0.003
 41
0.003
  0
LWPOLYLINE
  5
43D
100
AcDbEntity
  8
0
 62
   254
100
AcDbPolyline
 90
        2
 70
     0
 39
0.003
 10
2.007803
 20
2.013906
 40
0.003
 41
0.003
 10
1.35072
 20
1.644319
 40
0.003
 41
0.003
  0
LWPOLYLINE
  5
43E
100
AcDbEntity
  8
0
 62
   254
100
AcDbPolyline
 90
        2
 70
     0
 39
0.003
 10
1.35072
 20
1.644319
 40
0.003
 41
0.003
 10
1.386965
 20
1.618567
 40
0.003
 41
0.003
  0
LWPOLYLINE
  5
43F
100
AcDbEntity
  8
0
 62
   254
100
AcDbPolyline
 90
        2
 70
     0
 39
0.003
 10
1.35072
 20
1.644319
 40
0.003
 41
0.003
 10
2.007803
 20
2.013906
 40
0.003
 41
0.003
  0
LWPOLYLINE
  5
440
100
AcDbEntity
  8
0
 62
   254
100
AcDbPolyline
 90
        2
 70
     0
 39
0.003
 10
2.007803
 20
2.013906
 40
0.003
 41
0.003
 10
1.97061
 20
2.038098
 40
0.003
 41
0.003
  0
LWPOLYLINE
  5
441
100
AcDbEntity
  8
0
 62
   254
100
AcDbPolyline
 90
        2
 70
     0
 39
0.003
 10
1.97061
 20
2.038098
 40
0.003
 41
0.003
 10
1.313528
 20
1.668512
 40
0.003
 41
0.003
  0
LWPOLYLINE
  5
442
100
AcDbEntity
  8
0
 62
   254
100
AcDbPolyline
 90
        2
 70
     0
 39
0.003
 10
1.313528
 20
1.668512
 40
0.003
 41
0.003
 10
1.35072
 20
1.644319
 40
0.003
 41
0.003
  0
LWPOLYLINE
  5
443
100
AcDbEntity
  8
0
 62
   254
100
AcDbPolyline
 90
        2
 70
     0
 39
0.003
 10
1.313528
 20
1.668512
 40
0.003
 41
0.003
 10
1.97061
 20
2.038098
 40
0.003
 41
0.003
  0
LWPOLYLINE
  5
444
100
AcDbEntity
  8
0
 62
   254
100
AcDbPolyline
 90
        2
 70
     0
 39
0.003
 10
1.97061
 20
2.038098
 40
0.003
 41
0.003
 10
1.932559
 20
2.060705
 40
0.003
 41
0.003
  0
LWPOLYLINE
  5
445
100
AcDbEntity
  8
0
 62
   254
100
AcDbPolyline
 90
        2
 70
     0
 39
0.003
 10
1.932559
 20
2.060705
 40
0.003
 41
0.003
 10
1.275476
 20
1.691118
 40
0.003
 41
0.003
  0
LWPOLYLINE
  5
446
100
AcDbEntity
  8
0
 62
   254
100
AcDbPolyline
 90
        2
 70
     0
 39
0.003
 10
1.275476
 20
1.691118
 40
0.003
 41
0.003
 10
1.313528
 20
1.668512
 40
0.003
 41
0.003
  0
LWPOLYLINE
  5
447
100
AcDbEntity
  8
0
 62
     9
100
AcDbPolyline
 90
        2
 70
     0
 39
0.003
 10
1.275476
 20
1.691118
 40
0.003
 41
0.003
 10
1.932559
 20
2.060705
 40
0.003
 41
0.003
  0
LWPOLYLINE
  5
448
100
AcDbEntity
  8
0
 62
     9
100
AcDbPolyline
 90
        2
 70
     0
 39
0.003
 10
1.932559
 20
2.060705
 40
0.003
 41
0.003
 10
1.893713
 20
2.081665
 40
0.003
 41
0.003
  0
LWPOLYLINE
  5
449
100
AcDbEntity
  8
0
 62
     9
100
AcDbPolyline
 90
        2
 70
     0
 39
0.003
 10
1.893713
 20
2.081665
 40
0.003
 41
0.003
 10
1.23663
 20
1.712079
 40
0.003
 41
0.003
  0
LWPOLYLINE
  5
44A
100
AcDbEntity
  8
0
 62
     9
100
AcDbPolyline
 90
        2
 70
     0
 39
0.003
 10
1.23663
 20
1.712079
 40
0.003
 41
0.003
 10
1.275476
 20
1.691118
 40
0.003
 41
0.003
  0
LWPOLYLINE
  5
44B
100
AcDbEntity
  8
0
 62
     9
100
AcDbPolyline
 90
        2
 70
     0
 39
0.003
 10
1.23663
 20
1.712079
 40
0.003
 41
0.003
 10
1.893713
 20
2.081665
 40
0.003
 41
0.003
  0
LWPOLYLINE
  5
44C
100
AcDbEntity
  8
0
 62
     9
100
AcDbPolyline
 90
        2
 70
     0
 39
0.003
 10
1.893713
 20
2.081665
 40
0.003
 41
0.003
 10
1.854173
 20
2.100965
 40
0.003
 41
0.003
  0
LWPOLYLINE
  5
44D
100
AcDbEntity
  8
0
 62
     9
100
AcDbPolyline
 90
        2
 70
     0
 39
0.003
 10
1.854173
 20
2.100965
 40
0.003
 41
0.003
 10
1.197091
 20
1.731378
 40
0.003
 41
0.003
  0
LWPOLYLINE
  5
44E
100
AcDbEntity
  8
0
 62
     9
100
AcDbPolyline
 90
        2
 70
     0
 39
0.003
 10
1.197091
 20
1.731378
 40
0.003
 41
0.003
 10
1.23663
 20
1.712079
 40
0.003
 41
0.003
  0
LWPOLYLINE
  5
44F
100
AcDbEntity
  8
0
 62
     9
100
AcDbPolyline
 90
        2
 70
     0
 39
0.003
 10
1.197091
 20
1.731378
 40
0.003
 41
0.003
 10
1.854173
 20
2.100965
 40
0.003
 41
0.003
  0
LWPOLYLINE
  5
450
100
AcDbEntity
  8
0
 62
     9
100
AcDbPolyline
 90
        2
 70
     0
 39
0.003
 10
1.854173
 20
2.100965
 40
0.003
 41
0.003
 10
1.814012
 20
2.118555
 40
0.003
 41
0.003
  0
LWPOLYLINE
  5
451
100
AcDbEntity
  8
0
 62
     9
100
AcDbPolyline
 90
        2
 70
     0
 39
0.003
 10
1.814012
 20
2.118555
 40
0.003
 41
0.003
 10
1.156929
 20
1.748969
 40
0.003
 41
0.003
  0
LWPOLYLINE
  5
452
100
AcDbEntity
  8
0
 62
     9
100
AcDbPolyline
 90
        2
 70
     0
 39
0.003
 10
1.156929
 20
1.748969
 40
0.003
 41
0.003
 10
1.197091
 20
1.731378
 40
0.003
 41
0.003
  0
LWPOLYLINE
  5
453
100
AcDbEntity
  8
0
 62
     9
100
AcDbPolyline
 90
        2
 70
     0
 39
0.003
 10
1.156929
 20
1.748969
 40
0.003
 41
0.003
 10
1.814012
 20
2.118555
 40
0.003
 41
0.003
  0
LWPOLYLINE
  5
454
100
AcDbEntity
  8
0
 62
     9
100
AcDbPolyline
 90
        2
 70
     0
 39
0.003
 10
1.814012
 20
2.118555
 40
0.003
 41
0.003
 10
1.773319
 20
2.134402
 40
0.003
 41
0.003
  0
LWPOLYLINE
  5
455
100
AcDbEntity
  8
0
 62
     9
100
AcDbPolyline
 90
        2
 70
     0
 39
0.003
 10
1.773319
 20
2.134402
 40
0.003
 41
0.003
 10
1.116236
 20
1.764815
 40
0.003
 41
0.003
  0
LWPOLYLINE
  5
456
100
AcDbEntity
  8
0
 62
     9
100
AcDbPolyline
 90
        2
 70
     0
 39
0.003
 10
1.116236
 20
1.764815
 40
0.003
 41
0.003
 10
1.156929
 20
1.748969
 40
0.003
 41
0.003
  0
LWPOLYLINE
  5
457
100
AcDbEntity
  8
0
 62
     9
100
AcDbPolyline
 90
        2
 70
     0
 39
0.003
 10
1.116236
 20
1.764815
 40
0.003
 41
0.003
 10
1.773319
 20
2.134402
 40
0.003
 41
0.003
  0
LWPOLYLINE
  5
458
100
AcDbEntity
  8
0
 62
     9
100
AcDbPolyline
 90
        2
 70
     0
 39
0.003
 10
1.773319
 20
2.134402
 40
0.003
 41
0.003
 10
1.732161
 20
2.148461
 40
0.003
 41
0.003
  0
LWPOLYLINE
  5
459
100
AcDbEntity
  8
0
 62
     9
100
AcDbPolyline
 90
        2
 70
     0
 39
0.003
 10
1.732161
 20
2.148461
 40
0.003
 41
0.003
 10
1.075079
 20
1.778874
 40
0.003
 41
0.003
  0
LWPOLYLINE
  5
45A
100
AcDbEntity
  8
0
 62
     9
100
AcDbPolyline
 90
        2
 70
     0
 39
0.003
 10
1.075079
 20
1.778874
 40
0.003
 41
0.003
 10
1.116236
 20
1.764815
 40
0.003
 41
0.003
  0
LWPOLYLINE
  5
45B
100
AcDbEntity
  8
0
 62
     9
100
AcDbPolyline
 90
        2
 70
     0
 39
0.003
 10
1.075079
 20
1.778874
 40
0.003
 41
0.003
 10
1.732161
 20
2.148461
 40
0.003
 41
0.003
  0
LWPOLYLINE
  5
45C
100
AcDbEntity
  8
0
 62
     9
100
AcDbPolyline
 90
        2
 70
     0
 39
0.003
 10
1.732161
 20
2.148461
 40
0.003
 41
0.003
 10
1.690638
 20
2.160701
 40
0.003
 41
0.003
  0
LWPOLYLINE
  5
45D
100
AcDbEntity
  8
0
 62
     9
100
AcDbPolyline
 90
        2
 70
     0
 39
0.003
 10
1.690638
 20
2.160701
 40
0.003
 41
0.003
 10
1.033555
 20
1.791114
 40
0.003
 41
0.003
  0
LWPOLYLINE
  5
45E
100
AcDbEntity
  8
0
 62
     9
100
AcDbPolyline
 90
        2
 70
     0
 39
0.003
 10
1.033555
 20
1.791114
 40
0.003
 41
0.003
 10
1.075079
 20
1.778874
 40
0.003
 41
0.003
  0
LWPOLYLINE
  5
45F
100
AcDbEntity
  8
0
 62
     9
100
AcDbPolyline
 90
        2
 70
     0
 39
0.003
 10
1.033555
 20
1.791114
 40
0.003
 41
0.003
 10
1.690638
 20
2.160701
 40
0.003
 41
0.003
  0
LWPOLYLINE
  5
460
100
AcDbEntity
  8
0
 62
     9
100
AcDbPolyline
 90
        2
 70
     0
 39
0.003
 10
1.690638
 20
2.160701
 40
0.003
 41
0.003
 10
1.648815
 20
2.171083
 40
0.003
 41
0.003
  0
LWPOLYLINE
  5
461
100
AcDbEntity
  8
0
 62
     9
100
AcDbPolyline
 90
        2
 70
     0
 39
0.003
 10
1.648815
 20
2.171083
 40
0.003
 41
0.003
 10
0.991732
 20
1.801496
 40
0.003
 41
0.003
  0
LWPOLYLINE
  5
462
100
AcDbEntity
  8
0
 62
     9
100
AcDbPolyline
 90
        2
 70
     0
 39
0.003
 10
0.991732
 20
1.801496
 40
0.003
 41
0.003
 10
1.033555
 20
1.791114
 40
0.003
 41
0.003
  0
LWPOLYLINE
  5
463
100
AcDbEntity
  8
0
 62
     9
100
AcDbPolyline
 90
        2
 70
     0
 39
0.003
 10
0.991732
 20
1.801496
 40
0.003
 41
0.003
 10
1.648815
 20
2.171083
 40
0.003
 41
0.003
  0
LWPOLYLINE
  5
464
100
AcDbEntity
  8
0
 62
     9
100
AcDbPolyline
 90
        2
 70
     0
 39
0.003
 10
1.648815
 20
2.171083
 40
0.003
 41
0.003
 10
1.606791
 20
2.179571
 40
0.003
 41
0.003
  0
LWPOLYLINE
  5
465
100
AcDbEntity
  8
0
 62
     9
100
AcDbPolyline
 90
        2
 70
     0
 39
0.003
 10
1.606791
 20
2.179571
 40
0.003
 41
0.003
 10
0.949709
 20
1.809984
 40
0.003
 41
0.003
  0
LWPOLYLINE
  5
466
100
AcDbEntity
  8
0
 62
     9
100
AcDbPolyline
 90
        2
 70
     0
 39
0.003
 10
0.949709
 20
1.809984
 40
0.003
 41
0.003
 10
0.991732
 20
1.801496
 40
0.003
 41
0.003
  0
LWPOLYLINE
  5
467
100
AcDbEntity
  8
0
 62
     0
100
AcDbPolyline
 90
        2
 70
     0
 39
0.003
 10
1.784917
 20
0.785874
 40
0.003
 41
0.003
 10
2.442
 20
1.155461
 40
0.003
 41
0.003
  0
LWPOLYLINE
  5
468
100
AcDbEntity
  8
0
 62
     0
100
AcDbPolyline
 90
        2
 70
     0
 39
0.003
 10
2.442
 20
1.155461
 40
0.003
 41
0.003
 10
2.444484
 20
1.205087
 40
0.003
 41
0.003
  0
LWPOLYLINE
  5
469
100
AcDbEntity
  8
0
 62
     0
100
AcDbPolyline
 90
        2
 70
     0
 39
0.003
 10
2.444484
 20
1.205087
 40
0.003
 41
0.003
 10
2.444315
 20
1.253961
 40
0.003
 41
0.003
  0
LWPOLYLINE
  5
46A
100
AcDbEntity
  8
0
 62
     0
100
AcDbPolyline
 90
        2
 70
     0
 39
0.003
 10
2.444315
 20
1.253961
 40
0.003
 41
0.003
 10
2.441563
 20
1.302039
 40
0.003
 41
0.003
  0
LWPOLYLINE
  5
46B
100
AcDbEntity
  8
0
 62
     0
100
AcDbPolyline
 90
        2
 70
     0
 39
0.003
 10
2.441563
 20
1.302039
 40
0.003
 41
0.003
 10
2.436315
 20
1.349287
 40
0.003
 41
0.003
  0
LWPOLYLINE
  5
46C
100
AcDbEntity
  8
0
 62
     0
100
AcDbPolyline
 90
        2
 70
     0
 39
0.003
 10
2.436315
 20
1.349287
 40
0.003
 41
0.003
 10
2.428646
 20
1.395661
 40
0.003
 41
0.003
  0
LWPOLYLINE
  5
46D
100
AcDbEntity
  8
0
 62
     0
100
AcDbPolyline
 90
        2
 70
     0
 39
0.003
 10
2.428646
 20
1.395661
 40
0.003
 41
0.003
 10
2.41865
 20
1.44113
 40
0.003
 41
0.003
  0
LWPOLYLINE
  5
46E
100
AcDbEntity
  8
0
 62
     0
100
AcDbPolyline
 90
        2
 70
     0
 39
0.003
 10
2.41865
 20
1.44113
 40
0.003
 41
0.003
 10
2.406394
 20
1.48565
 40
0.003
 41
0.003
  0
LWPOLYLINE
  5
46F
100
AcDbEntity
  8
0
 62
     0
100
AcDbPolyline
 90
        2
 70
     0
 39
0.003
 10
2.406394
 20
1.48565
 40
0.003
 41
0.003
 10
2.391976
 20
1.529185
 40
0.003
 41
0.003
  0
LWPOLYLINE
  5
470
100
AcDbEntity
  8
0
 62
     0
100
AcDbPolyline
 90
        2
 70
     0
 39
0.003
 10
2.391976
 20
1.529185
 40
0.003
 41
0.003
 10
2.375457
 20
1.571689
 40
0.003
 41
0.003
  0
LWPOLYLINE
  5
471
100
AcDbEntity
  8
0
 62
     0
100
AcDbPolyline
 90
        2
 70
     0
 39
0.003
 10
2.375457
 20
1.571689
 40
0.003
 41
0.003
 10
2.356937
 20
1.613138
 40
0.003
 41
0.003
  0
LWPOLYLINE
  5
472
100
AcDbEntity
  8
0
 62
     0
100
AcDbPolyline
 90
        2
 70
     0
 39
0.003
 10
2.356937
 20
1.613138
 40
0.003
 41
0.003
 10
2.336488
 20
1.653488
 40
0.003
 41
0.003
  0
LWPOLYLINE
  5
473
100
AcDbEntity
  8
0
 62
     0
100
AcDbPolyline
 90
        2
 70
     0
 39
0.003
 10
2.336488
 20
1.653488
 40
0.003
 41
0.003
 10
2.314201
 20
1.692705
 40
0.003
 41
0.003
  0
LWPOLYLINE
  5
474
100
AcDbEntity
  8
0
 62
     0
100
AcDbPolyline
 90
        2
 70
     0
 39
0.003
 10
2.314201
 20
1.692705
 40
0.003
 41
0.003
 10
2.290146
 20
1.73074
 40
0.003
 41
0.003
  0
LWPOLYLINE
  5
475
100
AcDbEntity
  8
0
 62
     0
100
AcDbPolyline
 90
        2
 70
     0
 39
0.003
 10
2.290146
 20
1.73074
 40
0.003
 41
0.003
 10
2.264409
 20
1.767567
 40
0.003
 41
0.003
  0
LWPOLYLINE
  5
476
100
AcDbEntity
  8
0
 62
     0
100
AcDbPolyline
 90
        2
 70
     0
 39
0.003
 10
2.264409
 20
1.767567
 40
0.003
 41
0.003
 10
2.237075
 20
1.803138
 40
0.003
 41
0.003
  0
LWPOLYLINE
  5
477
100
AcDbEntity
  8
0
 62
     0
100
AcDbPolyline
 90
        2
 70
     0
 39
0.003
 10
2.237075
 20
1.803138
 40
0.003
 41
0.003
 10
2.208228
 20
1.837425
 40
0.003
 41
0.003
  0
LWPOLYLINE
  5
478
100
AcDbEntity
  8
0
 62
     0
100
AcDbPolyline
 90
        2
 70
     0
 39
0.003
 10
2.208228
 20
1.837425
 40
0.003
 41
0.003
 10
2.177933
 20
1.870374
 40
0.003
 41
0.003
  0
LWPOLYLINE
  5
479
100
AcDbEntity
  8
0
 62
     0
100
AcDbPolyline
 90
        2
 70
     0
 39
0.003
 10
2.177933
 20
1.870374
 40
0.003
 41
0.003
 10
2.146291
 20
1.901965
 40
0.003
 41
0.003
  0
LWPOLYLINE
  5
47A
100
AcDbEntity
  8
0
 62
     0
100
AcDbPolyline
 90
        2
 70
     0
 39
0.003
 10
2.146291
 20
1.901965
 40
0.003
 41
0.003
 10
2.113374
 20
1.932146
 40
0.003
 41
0.003
  0
LWPOLYLINE
  5
47B
100
AcDbEntity
  8
0
 62
     0
100
AcDbPolyline
 90
        2
 70
     0
 39
0.003
 10
2.113374
 20
1.932146
 40
0.003
 41
0.003
 10
2.079268
 20
1.960894
 40
0.003
 41
0.003
  0
LWPOLYLINE
  5
47C
100
AcDbEntity
  8
0
 62
     0
100
AcDbPolyline
 90
        2
 70
     0
 39
0.003
 10
2.079268
 20
1.960894
 40
0.003
 41
0.003
 10
2.044047
 20
1.988154
 40
0.003
 41
0.003
  0
LWPOLYLINE
  5
47D
100
AcDbEntity
  8
0
 62
     0
100
AcDbPolyline
 90
        2
 70
     0
 39
0.003
 10
2.044047
 20
1.988154
 40
0.003
 41
0.003
 10
2.007803
 20
2.013906
 40
0.003
 41
0.003
  0
LWPOLYLINE
  5
47E
100
AcDbEntity
  8
0
 62
     0
100
AcDbPolyline
 90
        2
 70
     0
 39
0.003
 10
2.007803
 20
2.013906
 40
0.003
 41
0.003
 10
1.97061
 20
2.038098
 40
0.003
 41
0.003
  0
LWPOLYLINE
  5
47F
100
AcDbEntity
  8
0
 62
     0
100
AcDbPolyline
 90
        2
 70
     0
 39
0.003
 10
1.97061
 20
2.038098
 40
0.003
 41
0.003
 10
1.932559
 20
2.060705
 40
0.003
 41
0.003
  0
LWPOLYLINE
  5
480
100
AcDbEntity
  8
0
 62
     0
100
AcDbPolyline
 90
        2
 70
     0
 39
0.003
 10
1.932559
 20
2.060705
 40
0.003
 41
0.003
 10
1.893713
 20
2.081665
 40
0.003
 41
0.003
  0
LWPOLYLINE
  5
481
100
AcDbEntity
  8
0
 62
     0
100
AcDbPolyline
 90
        2
 70
     0
 39
0.003
 10
1.893713
 20
2.081665
 40
0.003
 41
0.003
 10
1.854173
 20
2.100965
 40
0.003
 41
0.003
  0
LWPOLYLINE
  5
482
100
AcDbEntity
  8
0
 62
     0
100
AcDbPolyline
 90
        2
 70
     0
 39
0.003
 10
1.854173
 20
2.100965
 40
0.003
 41
0.003
 10
1.814012
 20
2.118555
 40
0.003
 41
0.003
  0
LWPOLYLINE
  5
483
100
AcDbEntity
  8
0
 62
     0
100
AcDbPolyline
 90
        2
 70
     0
 39
0.003
 10
1.814012
 20
2.118555
 40
0.003
 41
0.003
 10
1.773319
 20
2.134402
 40
0.003
 41
0.003
  0
LWPOLYLINE
  5
484
100
AcDbEntity
  8
0
 62
     0
100
AcDbPolyline
 90
        2
 70
     0
 39
0.003
 10
1.773319
 20
2.134402
 40
0.003
 41
0.003
 10
1.732161
 20
2.148461
 40
0.003
 41
0.003
  0
LWPOLYLINE
  5
485
100
AcDbEntity
  8
0
 62
     0
100
AcDbPolyline
 90
        2
 70
     0
 39
0.003
 10
1.732161
 20
2.148461
 40
0.003
 41
0.003
 10
1.690638
 20
2.160701
 40
0.003
 41
0.003
  0
LWPOLYLINE
  5
486
100
AcDbEntity
  8
0
 62
     0
100
AcDbPolyline
 90
        2
 70
     0
 39
0.003
 10
1.690638
 20
2.160701
 40
0.003
 41
0.003
 10
1.648815
 20
2.171083
 40
0.003
 41
0.003
  0
LWPOLYLINE
  5
487
100
AcDbEntity
  8
0
 62
     0
100
AcDbPolyline
 90
        2
 70
     0
 39
0.003
 10
1.648815
 20
2.171083
 40
0.003
 41
0.003
 10
1.606791
 20
2.179571
 40
0.003
 41
0.003
  0
LWPOLYLINE
  5
488
100
AcDbEntity
  8
0
 62
     0
100
AcDbPolyline
 90
        2
 70
     0
 39
0.003
 10
1.606791
 20
2.179571
 40
0.003
 41
0.003
 10
0.949709
 20
1.809984
 40
0.003
 41
0.003
  0
LWPOLYLINE
  5
489
100
AcDbEntity
  8
0
 62
     0
100
AcDbPolyline
 90
        2
 70
     0
 39
0.003
 10
0.949709
 20
1.809984
 40
0.003
 41
0.003
 10
0.991732
 20
1.801496
 40
0.003
 41
0.003
  0
LWPOLYLINE
  5
48A
100
AcDbEntity
  8
0
 62
     0
100
AcDbPolyline
 90
        2
 70
     0
 39
0.003
 10
0.991732
 20
1.801496
 40
0.003
 41
0.003
 10
1.033555
 20
1.791114
 40
0.003
 41
0.003
  0
LWPOLYLINE
  5
48B
100
AcDbEntity
  8
0
 62
     0
100
AcDbPolyline
 90
        2
 70
     0
 39
0.003
 10
1.033555
 20
1.791114
 40
0.003
 41
0.003
 10
1.075079
 20
1.778874
 40
0.003
 41
0.003
  0
LWPOLYLINE
  5
48C
100
AcDbEntity
  8
0
 62
     0
100
AcDbPolyline
 90
        2
 70
     0
 39
0.003
 10
1.075079
 20
1.778874
 40
0.003
 41
0.003
 10
1.116236
 20
1.764815
 40
0.003
 41
0.003
  0
LWPOLYLINE
  5
48D
100
AcDbEntity
  8
0
 62
     0
100
AcDbPolyline
 90
        2
 70
     0
 39
0.003
 10
1.116236
 20
1.764815
 40
0.003
 41
0.003
 10
1.156929
 20
1.748969
 40
0.003
 41
0.003
  0
LWPOLYLINE
  5
48E
100
AcDbEntity
  8
0
 62
     0
100
AcDbPolyline
 90
        2
 70
     0
 39
0.003
 10
1.156929
 20
1.748969
 40
0.003
 41
0.003
 10
1.197091
 20
1.731378
 40
0.003
 41
0.003
  0
LWPOLYLINE
  5
48F
100
AcDbEntity
  8
0
 62
     0
100
AcDbPolyline
 90
        2
 70
     0
 39
0.003
 10
1.197091
 20
1.731378
 40
0.003
 41
0.003
 10
1.23663
 20
1.712079
 40
0.003
 41
0.003
  0
LWPOLYLINE
  5
490
100
AcDbEntity
  8
0
 62
     0
100
AcDbPolyline
 90
        2
 70
     0
 39
0.003
 10
1.23663
 20
1.712079
 40
0.003
 41
0.003
 10
1.275476
 20
1.691118
 40
0.003
 41
0.003
  0
LWPOLYLINE
  5
491
100
AcDbEntity
  8
0
 62
     0
100
AcDbPolyline
 90
        2
 70
     0
 39
0.003
 10
1.275476
 20
1.691118
 40
0.003
 41
0.003
 10
1.313528
 20
1.668512
 40
0.003
 41
0.003
  0
LWPOLYLINE
  5
492
100
AcDbEntity
  8
0
 62
     0
100
AcDbPolyline
 90
        2
 70
     0
 39
0.003
 10
1.313528
 20
1.668512
 40
0.003
 41
0.003
 10
1.35072
 20
1.644319
 40
0.003
 41
0.003
  0
LWPOLYLINE
  5
493
100
AcDbEntity
  8
0
 62
     0
100
AcDbPolyline
 90
        2
 70
     0
 39
0.003
 10
1.35072
 20
1.644319
 40
0.003
 41
0.003
 10
1.386965
 20
1.618567
 40
0.003
 41
0.003
  0
LWPOLYLINE
  5
494
100
AcDbEntity
  8
0
 62
     0
100
AcDbPolyline
 90
        2
 70
     0
 39
0.003
 10
1.386965
 20
1.618567
 40
0.003
 41
0.003
 10
1.422185
 20
1.591307
 40
0.003
 41
0.003
  0
LWPOLYLINE
  5
495
100
AcDbEntity
  8
0
 62
     0
100
AcDbPolyline
 90
        2
 70
     0
 39
0.003
 10
1.422185
 20
1.591307
 40
0.003
 41
0.003
 10
1.456291
 20
1.562559
 40
0.003
 41
0.003
  0
LWPOLYLINE
  5
496
100
AcDbEntity
  8
0
 62
     0
100
AcDbPolyline
 90
        2
 70
     0
 39
0.003
 10
1.456291
 20
1.562559
 40
0.003
 41
0.003
 10
1.489209
 20
1.532378
 40
0.003
 41
0.003
  0
LWPOLYLINE
  5
497
100
AcDbEntity
  8
0
 62
     0
100
AcDbPolyline
 90
        2
 70
     0
 39
0.003
 10
1.489209
 20
1.532378
 40
0.003
 41
0.003
 10
1.52085
 20
1.500787
 40
0.003
 41
0.003
  0
LWPOLYLINE
  5
498
100
AcDbEntity
  8
0
 62
     0
100
AcDbPolyline
 90
        2
 70
     0
 39
0.003
 10
1.52085
 20
1.500787
 40
0.003
 41
0.003
 10
1.551146
 20
1.467839
 40
0.003
 41
0.003
  0
LWPOLYLINE
  5
499
100
AcDbEntity
  8
0
 62
     0
100
AcDbPolyline
 90
        2
 70
     0
 39
0.003
 10
1.551146
 20
1.467839
 40
0.003
 41
0.003
 10
1.579992
 20
1.433551
 40
0.003
 41
0.003
  0
LWPOLYLINE
  5
49A
100
AcDbEntity
  8
0
 62
     0
100
AcDbPolyline
 90
        2
 70
     0
 39
0.003
 10
1.579992
 20
1.433551
 40
0.003
 41
0.003
 10
1.607327
 20
1.39798
 40
0.003
 41
0.003
  0
LWPOLYLINE
  5
49B
100
AcDbEntity
  8
0
 62
     0
100
AcDbPolyline
 90
        2
 70
     0
 39
0.003
 10
1.607327
 20
1.39798
 40
0.003
 41
0.003
 10
1.633063
 20
1.361154
 40
0.003
 41
0.003
  0
LWPOLYLINE
  5
49C
100
AcDbEntity
  8
0
 62
     0
100
AcDbPolyline
 90
        2
 70
     0
 39
0.003
 10
1.633063
 20
1.361154
 40
0.003
 41
0.003
 10
1.657118
 20
1.323118
 40
0.003
 41
0.003
  0
LWPOLYLINE
  5
49D
100
AcDbEntity
  8
0
 62
     0
100
AcDbPolyline
 90
        2
 70
     0
 39
0.003
 10
1.657118
 20
1.323118
 40
0.003
 41
0.003
 10
1.679406
 20
1.283902
 40
0.003
 41
0.003
  0
LWPOLYLINE
  5
49E
100
AcDbEntity
  8
0
 62
     0
100
AcDbPolyline
 90
        2
 70
     0
 39
0.003
 10
1.679406
 20
1.283902
 40
0.003
 41
0.003
 10
1.699854
 20
1.243551
 40
0.003
 41
0.003
  0
LWPOLYLINE
  5
49F
100
AcDbEntity
  8
0
 62
     0
100
AcDbPolyline
 90
        2
 70
     0
 39
0.003
 10
1.699854
 20
1.243551
 40
0.003
 41
0.003
 10
1.718374
 20
1.202102
 40
0.003
 41
0.003
  0
LWPOLYLINE
  5
4A0
100
AcDbEntity
  8
0
 62
     0
100
AcDbPolyline
 90
        2
 70
     0
 39
0.003
 10
1.718374
 20
1.202102
 40
0.003
 41
0.003
 10
1.734894
 20
1.159598
 40
0.003
 41
0.003
  0
LWPOLYLINE
  5
4A1
100
AcDbEntity
  8
0
 62
     0
100
AcDbPolyline
 90
        2
 70
     0
 39
0.003
 10
1.734894
 20
1.159598
 40
0.003
 41
0.003
 10
1.749311
 20
1.116063
 40
0.003
 41
0.003
  0
LWPOLYLINE
  5
4A2
100
AcDbEntity
  8
0
 62
     0
100
AcDbPolyline
 90
        2
 70
     0
 39
0.003
 10
1.749311
 20
1.116063
 40
0.003
 41
0.003
 10
1.761567
 20
1.071543
 40
0.003
 41
0.003
  0
LWPOLYLINE
  5
4A3
100
AcDbEntity
  8
0
 62
     0
100
AcDbPolyline
 90
        2
 70
     0
 39
0.003
 10
1.761567
 20
1.071543
 40
0.003
 41
0.003
 10
1.771563
 20
1.026075
 40
0.003
 41
0.003
  0
LWPOLYLINE
  5
4A4
100
AcDbEntity
  8
0
 62
     0
100
AcDbPolyline
 90
        2
 70
     0
 39
0.003
 10
1.771563
 20
1.026075
 40
0.003
 41
0.003
 10
1.779232
 20
0.979701
 40
0.003
 41
0.003
  0
LWPOLYLINE
  5
4A5
100
AcDbEntity
  8
0
 62
     0
100
AcDbPolyline
 90
        2
 70
     0
 39
0.003
 10
1.779232
 20
0.979701
 40
0.003
 41
0.003
 10
1.78448
 20
0.932453
 40
0.003
 41
0.003
  0
LWPOLYLINE
  5
4A6
100
AcDbEntity
  8
0
 62
     0
100
AcDbPolyline
 90
        2
 70
     0
 39
0.003
 10
1.78448
 20
0.932453
 40
0.003
 41
0.003
 10
1.787232
 20
0.884374
 40
0.003
 41
0.003
  0
LWPOLYLINE
  5
4A7
100
AcDbEntity
  8
0
 62
     0
100
AcDbPolyline
 90
        2
 70
     0
 39
0.003
 10
1.787232
 20
0.884374
 40
0.003
 41
0.003
 10
1.787402
 20
0.8355
 40
0.003
 41
0.003
  0
LWPOLYLINE
  5
4A8
100
AcDbEntity
  8
0
 62
     0
100
AcDbPolyline
 90
        2
 70
     0
 39
0.003
 10
1.787402
 20
0.8355
 40
0.003
 41
0.003
 10
1.784917
 20
0.785874
 40
0.003
 41
0.003
  0
LWPOLYLINE
  5
4A9
100
AcDbEntity
  8
0
 62
     9
100
AcDbPolyline
 90
        2
 70
     0
 39
0.003
 10
0.949709
 20
1.809984
 40
0.003
 41
0.003
 10
1.606791
 20
2.179571
 40
0.003
 41
0.003
  0
LWPOLYLINE
  5
4AA
100
AcDbEntity
  8
0
 62
     9
100
AcDbPolyline
 90
        2
 70
     0
 39
0.003
 10
1.606791
 20
2.179571
 40
0.003
 41
0.003
 10
0.294398
 20
2.397114
 40
0.003
 41
0.003
  0
LWPOLYLINE
  5
4AB
100
AcDbEntity
  8
0
 62
     9
100
AcDbPolyline
 90
        2
 70
     0
 39
0.003
 10
0.294398
 20
2.397114
 40
0.003
 41
0.003
 10
-0.362685
 20
2.027528
 40
0.003
 41
0.003
  0
LWPOLYLINE
  5
4AC
100
AcDbEntity
  8
0
 62
     9
100
AcDbPolyline
 90
        2
 70
     0
 39
0.003
 10
-0.362685
 20
2.027528
 40
0.003
 41
0.003
 10
0.949709
 20
1.809984
 40
0.003
 41
0.003
  0
LWPOLYLINE
  5
4AD
100
AcDbEntity
  8
0
 62
     0
100
AcDbPolyline
 90
        2
 70
     0
 39
0.003
 10
0.949709
 20
1.809984
 40
0.003
 41
0.003
 10
1.606791
 20
2.179571
 40
0.003
 41
0.003
  0
LWPOLYLINE
  5
4AE
100
AcDbEntity
  8
0
 62
     0
100
AcDbPolyline
 90
        2
 70
     0
 39
0.003
 10
1.606791
 20
2.179571
 40
0.003
 41
0.003
 10
0.294398
 20
2.397114
 40
0.003
 41
0.003
  0
LWPOLYLINE
  5
4AF
100
AcDbEntity
  8
0
 62
     0
100
AcDbPolyline
 90
        2
 70
     0
 39
0.003
 10
0.294398
 20
2.397114
 40
0.003
 41
0.003
 10
-0.362685
 20
2.027528
 40
0.003
 41
0.003
  0
LWPOLYLINE
  5
4B0
100
AcDbEntity
  8
0
 62
     0
100
AcDbPolyline
 90
        2
 70
     0
 39
0.003
 10
-0.362685
 20
2.027528
 40
0.003
 41
0.003
 10
0.949709
 20
1.809984
 40
0.003
 41
0.003
  0
LWPOLYLINE
  5
4B1
100
AcDbEntity
  8
0
 62
   252
100
AcDbPolyline
 90
        2
 70
     0
 39
0.003
 10
-0.362685
 20
2.027528
 40
0.003
 41
0.003
 10
0.294398
 20
2.397114
 40
0.003
 41
0.003
  0
LWPOLYLINE
  5
4B2
100
AcDbEntity
  8
0
 62
   252
100
AcDbPolyline
 90
        2
 70
     0
 39
0.003
 10
0.294398
 20
2.397114
 40
0.003
 41
0.003
 10
-1.017839
 20
2.179575
 40
0.003
 41
0.003
  0
LWPOLYLINE
  5
4B3
100
AcDbEntity
  8
0
 62
   252
100
AcDbPolyline
 90
        2
 70
     0
 39
0.003
 10
-1.017839
 20
2.179575
 40
0.003
 41
0.003
 10
-1.674921
 20
1.809988
 40
0.003
 41
0.003
  0
LWPOLYLINE
  5
4B4
100
AcDbEntity
  8
0
 62
   252
100
AcDbPolyline
 90
        2
 70
     0
 39
0.003
 10
-1.674921
 20
1.809988
 40
0.003
 41
0.003
 10
-0.362685
 20
2.027528
 40
0.003
 41
0.003
  0
LWPOLYLINE
  5
4B5
100
AcDbEntity
  8
0
 62
     0
100
AcDbPolyline
 90
        2
 70
     0
 39
0.003
 10
-0.362685
 20
2.027528
 40
0.003
 41
0.003
 10
0.294398
 20
2.397114
 40
0.003
 41
0.003
  0
LWPOLYLINE
  5
4B6
100
AcDbEntity
  8
0
 62
     0
100
AcDbPolyline
 90
        2
 70
     0
 39
0.003
 10
0.294398
 20
2.397114
 40
0.003
 41
0.003
 10
-1.017839
 20
2.179575
 40
0.003
 41
0.003
  0
LWPOLYLINE
  5
4B7
100
AcDbEntity
  8
0
 62
     0
100
AcDbPolyline
 90
        2
 70
     0
 39
0.003
 10
-1.017839
 20
2.179575
 40
0.003
 41
0.003
 10
-1.674921
 20
1.809988
 40
0.003
 41
0.003
  0
LWPOLYLINE
  5
4B8
100
AcDbEntity
  8
0
 62
     0
100
AcDbPolyline
 90
        2
 70
     0
 39
0.003
 10
-1.674921
 20
1.809988
 40
0.003
 41
0.003
 10
-0.362685
 20
2.027528
 40
0.003
 41
0.003
  0
LWPOLYLINE
  5
4B9
100
AcDbEntity
  8
0
 62
   252
100
AcDbPolyline
 90
        2
 70
     0
 39
0.003
 10
-1.674921
 20
1.809988
 40
0.003
 41
0.003
 10
-1.017839
 20
2.179575
 40
0.003
 41
0.003
  0
LWPOLYLINE
  5
4BA
100
AcDbEntity
  8
0
 62
   252
100
AcDbPolyline
 90
        2
 70
     0
 39
0.003
 10
-1.017839
 20
2.179575
 40
0.003
 41
0.003
 10
-1.059862
 20
2.171087
 40
0.003
 41
0.003
  0
LWPOLYLINE
  5
4BB
100
AcDbEntity
  8
0
 62
   252
100
AcDbPolyline
 90
        2
 70
     0
 39
0.003
 10
-1.059862
 20
2.171087
 40
0.003
 41
0.003
 10
-1.716945
 20
1.8015
 40
0.003
 41
0.003
  0
LWPOLYLINE
  5
4BC
100
AcDbEntity
  8
0
 62
   252
100
AcDbPolyline
 90
        2
 70
     0
 39
0.003
 10
-1.716945
 20
1.8015
 40
0.003
 41
0.003
 10
-1.674921
 20
1.809988
 40
0.003
 41
0.003
  0
LWPOLYLINE
  5
4BD
100
AcDbEntity
  8
0
 62
     8
100
AcDbPolyline
 90
        2
 70
     0
 39
0.003
 10
-1.716945
 20
1.8015
 40
0.003
 41
0.003
 10
-1.059862
 20
2.171087
 40
0.003
 41
0.003
  0
LWPOLYLINE
  5
4BE
100
AcDbEntity
  8
0
 62
     8
100
AcDbPolyline
 90
        2
 70
     0
 39
0.003
 10
-1.059862
 20
2.171087
 40
0.003
 41
0.003
 10
-1.101685
 20
2.160705
 40
0.003
 41
0.003
  0
LWPOLYLINE
  5
4BF
100
AcDbEntity
  8
0
 62
     8
100
AcDbPolyline
 90
        2
 70
     0
 39
0.003
 10
-1.101685
 20
2.160705
 40
0.003
 41
0.003
 10
-1.758768
 20
1.791118
 40
0.003
 41
0.003
  0
LWPOLYLINE
  5
4C0
100
AcDbEntity
  8
0
 62
     8
100
AcDbPolyline
 90
        2
 70
     0
 39
0.003
 10
-1.758768
 20
1.791118
 40
0.003
 41
0.003
 10
-1.716945
 20
1.8015
 40
0.003
 41
0.003
  0
LWPOLYLINE
  5
4C1
100
AcDbEntity
  8
0
 62
   251
100
AcDbPolyline
 90
        2
 70
     0
 39
0.003
 10
-1.758768
 20
1.791118
 40
0.003
 41
0.003
 10
-1.101685
 20
2.160705
 40
0.003
 41
0.003
  0
LWPOLYLINE
  5
4C2
100
AcDbEntity
  8
0
 62
   251
100
AcDbPolyline
 90
        2
 70
     0
 39
0.003
 10
-1.101685
 20
2.160705
 40
0.003
 41
0.003
 10
-1.143209
 20
2.148465
 40
0.003
 41
0.003
  0
LWPOLYLINE
  5
4C3
100
AcDbEntity
  8
0
 62
   251
100
AcDbPolyline
 90
        2
 70
     0
 39
0.003
 10
-1.143209
 20
2.148465
 40
0.003
 41
0.003
 10
-1.800291
 20
1.778878
 40
0.003
 41
0.003
  0
LWPOLYLINE
  5
4C4
100
AcDbEntity
  8
0
 62
   251
100
AcDbPolyline
 90
        2
 70
     0
 39
0.003
 10
-1.800291
 20
1.778878
 40
0.003
 41
0.003
 10
-1.758768
 20
1.791118
 40
0.003
 41
0.003
  0
LWPOLYLINE
  5
4C5
100
AcDbEntity
  8
0
 62
   139
100
AcDbPolyline
 90
        2
 70
     0
 39
0.003
 10
-1.800291
 20
1.778878
 40
0.003
 41
0.003
 10
-1.143209
 20
2.148465
 40
0.003
 41
0.003
  0
LWPOLYLINE
  5
4C6
100
AcDbEntity
  8
0
 62
   139
100
AcDbPolyline
 90
        2
 70
     0
 39
0.003
 10
-1.143209
 20
2.148465
 40
0.003
 41
0.003
 10
-1.184366
 20
2.134406
 40
0.003
 41
0.003
  0
LWPOLYLINE
  5
4C7
100
AcDbEntity
  8
0
 62
   139
100
AcDbPolyline
 90
        2
 70
     0
 39
0.003
 10
-1.184366
 20
2.134406
 40
0.003
 41
0.003
 10
-1.841449
 20
1.764819
 40
0.003
 41
0.003
  0
LWPOLYLINE
  5
4C8
100
AcDbEntity
  8
0
 62
   139
100
AcDbPolyline
 90
        2
 70
     0
 39
0.003
 10
-1.841449
 20
1.764819
 40
0.003
 41
0.003
 10
-1.800291
 20
1.778878
 40
0.003
 41
0.003
  0
LWPOLYLINE
  5
4C9
100
AcDbEntity
  8
0
 62
   119
100
AcDbPolyline
 90
        2
 70
     0
 39
0.003
 10
-1.841449
 20
1.764819
 40
0.003
 41
0.003
 10
-1.184366
 20
2.134406
 40
0.003
 41
0.003
  0
LWPOLYLINE
  5
4CA
100
AcDbEntity
  8
0
 62
   119
100
AcDbPolyline
 90
        2
 70
     0
 39
0.003
 10
-1.184366
 20
2.134406
 40
0.003
 41
0.003
 10
-1.225059
 20
2.118559
 40
0.003
 41
0.003
  0
LWPOLYLINE
  5
4CB
100
AcDbEntity
  8
0
 62
   119
100
AcDbPolyline
 90
        2
 70
     0
 39
0.003
 10
-1.225059
 20
2.118559
 40
0.003
 41
0.003
 10
-1.882142
 20
1.748972
 40
0.003
 41
0.003
  0
LWPOLYLINE
  5
4CC
100
AcDbEntity
  8
0
 62
   119
100
AcDbPolyline
 90
        2
 70
     0
 39
0.003
 10
-1.882142
 20
1.748972
 40
0.003
 41
0.003
 10
-1.841449
 20
1.764819
 40
0.003
 41
0.003
  0
LWPOLYLINE
  5
4CD
100
AcDbEntity
  8
0
 62
     0
100
AcDbPolyline
 90
        2
 70
     0
 39
0.003
 10
-1.882142
 20
1.748972
 40
0.003
 41
0.003
 10
-1.225059
 20
2.118559
 40
0.003
 41
0.003
  0
LWPOLYLINE
  5
4CE
100
AcDbEntity
  8
0
 62
     0
100
AcDbPolyline
 90
        2
 70
     0
 39
0.003
 10
-1.225059
 20
2.118559
 40
0.003
 41
0.003
 10
-1.26522
 20
2.100969
 40
0.003
 41
0.003
  0
LWPOLYLINE
  5
4CF
100
AcDbEntity
  8
0
 62
     0
100
AcDbPolyline
 90
        2
 70
     0
 39
0.003
 10
-1.26522
 20
2.100969
 40
0.003
 41
0.003
 10
-1.922303
 20
1.731382
 40
0.003
 41
0.003
  0
LWPOLYLINE
  5
4D0
100
AcDbEntity
  8
0
 62
     0
100
AcDbPolyline
 90
        2
 70
     0
 39
0.003
 10
-1.922303
 20
1.731382
 40
0.003
 41
0.003
 10
-1.882142
 20
1.748972
 40
0.003
 41
0.003
  0
LWPOLYLINE
  5
4D1
100
AcDbEntity
  8
0
 62
     0
100
AcDbPolyline
 90
        2
 70
     0
 39
0.003
 10
-1.922303
 20
1.731382
 40
0.003
 41
0.003
 10
-1.26522
 20
2.100969
 40
0.003
 41
0.003
  0
LWPOLYLINE
  5
4D2
100
AcDbEntity
  8
0
 62
     0
100
AcDbPolyline
 90
        2
 70
     0
 39
0.003
 10
-1.26522
 20
2.100969
 40
0.003
 41
0.003
 10
-1.30476
 20
2.081669
 40
0.003
 41
0.003
  0
LWPOLYLINE
  5
4D3
100
AcDbEntity
  8
0
 62
     0
100
AcDbPolyline
 90
        2
 70
     0
 39
0.003
 10
-1.30476
 20
2.081669
 40
0.003
 41
0.003
 10
-1.961843
 20
1.712083
 40
0.003
 41
0.003
  0
LWPOLYLINE
  5
4D4
100
AcDbEntity
  8
0
 62
     0
100
AcDbPolyline
 90
        2
 70
     0
 39
0.003
 10
-1.961843
 20
1.712083
 40
0.003
 41
0.003
 10
-1.922303
 20
1.731382
 40
0.003
 41
0.003
  0
LWPOLYLINE
  5
4D5
100
AcDbEntity
  8
0
 62
     0
100
AcDbPolyline
 90
        2
 70
     0
 39
0.003
 10
-1.674921
 20
1.809988
 40
0.003
 41
0.003
 10
-1.017839
 20
2.179575
 40
0.003
 41
0.003
  0
LWPOLYLINE
  5
4D6
100
AcDbEntity
  8
0
 62
     0
100
AcDbPolyline
 90
        2
 70
     0
 39
0.003
 10
-1.017839
 20
2.179575
 40
0.003
 41
0.003
 10
-1.059862
 20
2.171087
 40
0.003
 41
0.003
  0
LWPOLYLINE
  5
4D7
100
AcDbEntity
  8
0
 62
     0
100
AcDbPolyline
 90
        2
 70
     0
 39
0.003
 10
-1.059862
 20
2.171087
 40
0.003
 41
0.003
 10
-1.101685
 20
2.160705
 40
0.003
 41
0.003
  0
LWPOLYLINE
  5
4D8
100
AcDbEntity
  8
0
 62
     0
100
AcDbPolyline
 90
        2
 70
     0
 39
0.003
 10
-1.101685
 20
2.160705
 40
0.003
 41
0.003
 10
-1.143209
 20
2.148465
 40
0.003
 41
0.003
  0
LWPOLYLINE
  5
4D9
100
AcDbEntity
  8
0
 62
     0
100
AcDbPolyline
 90
        2
 70
     0
 39
0.003
 10
-1.143209
 20
2.148465
 40
0.003
 41
0.003
 10
-1.184366
 20
2.134406
 40
0.003
 41
0.003
  0
LWPOLYLINE
  5
4DA
100
AcDbEntity
  8
0
 62
     0
100
AcDbPolyline
 90
        2
 70
     0
 39
0.003
 10
-1.184366
 20
2.134406
 40
0.003
 41
0.003
 10
-1.225059
 20
2.118559
 40
0.003
 41
0.003
  0
LWPOLYLINE
  5
4DB
100
AcDbEntity
  8
0
 62
     0
100
AcDbPolyline
 90
        2
 70
     0
 39
0.003
 10
-1.225059
 20
2.118559
 40
0.003
 41
0.003
 10
-1.26522
 20
2.100969
 40
0.003
 41
0.003
  0
LWPOLYLINE
  5
4DC
100
AcDbEntity
  8
0
 62
     0
100
AcDbPolyline
 90
        2
 70
     0
 39
0.003
 10
-1.26522
 20
2.100969
 40
0.003
 41
0.003
 10
-1.30476
 20
2.081669
 40
0.003
 41
0.003
  0
LWPOLYLINE
  5
4DD
100
AcDbEntity
  8
0
 62
     0
100
AcDbPolyline
 90
        2
 70
     0
 39
0.003
 10
-1.30476
 20
2.081669
 40
0.003
 41
0.003
 10
-1.961843
 20
1.712083
 40
0.003
 41
0.003
  0
LWPOLYLINE
  5
4DE
100
AcDbEntity
  8
0
 62
     0
100
AcDbPolyline
 90
        2
 70
     0
 39
0.003
 10
-1.961843
 20
1.712083
 40
0.003
 41
0.003
 10
-1.922303
 20
1.731382
 40
0.003
 41
0.003
  0
LWPOLYLINE
  5
4DF
100
AcDbEntity
  8
0
 62
     0
100
AcDbPolyline
 90
        2
 70
     0
 39
0.003
 10
-1.922303
 20
1.731382
 40
0.003
 41
0.003
 10
-1.882142
 20
1.748972
 40
0.003
 41
0.003
  0
LWPOLYLINE
  5
4E0
100
AcDbEntity
  8
0
 62
     0
100
AcDbPolyline
 90
        2
 70
     0
 39
0.003
 10
-1.882142
 20
1.748972
 40
0.003
 41
0.003
 10
-1.841449
 20
1.764819
 40
0.003
 41
0.003
  0
LWPOLYLINE
  5
4E1
100
AcDbEntity
  8
0
 62
     0
100
AcDbPolyline
 90
        2
 70
     0
 39
0.003
 10
-1.841449
 20
1.764819
 40
0.003
 41
0.003
 10
-1.800291
 20
1.778878
 40
0.003
 41
0.003
  0
LWPOLYLINE
  5
4E2
100
AcDbEntity
  8
0
 62
     0
100
AcDbPolyline
 90
        2
 70
     0
 39
0.003
 10
-1.800291
 20
1.778878
 40
0.003
 41
0.003
 10
-1.758768
 20
1.791118
 40
0.003
 41
0.003
  0
LWPOLYLINE
  5
4E3
100
AcDbEntity
  8
0
 62
     0
100
AcDbPolyline
 90
        2
 70
     0
 39
0.003
 10
-1.758768
 20
1.791118
 40
0.003
 41
0.003
 10
-1.716945
 20
1.8015
 40
0.003
 41
0.003
  0
LWPOLYLINE
  5
4E4
100
AcDbEntity
  8
0
 62
     0
100
AcDbPolyline
 90
        2
 70
     0
 39
0.003
 10
-1.716945
 20
1.8015
 40
0.003
 41
0.003
 10
-1.674921
 20
1.809988
 40
0.003
 41
0.003
  0
LWPOLYLINE
  5
4E5
100
AcDbEntity
  8
0
 62
   253
100
AcDbPolyline
 90
        2
 70
     0
 39
0.003
 10
-2.51013
 20
0.785882
 40
0.003
 41
0.003
 10
-1.853047
 20
1.155469
 40
0.003
 41
0.003
  0
LWPOLYLINE
  5
4E6
100
AcDbEntity
  8
0
 62
   253
100
AcDbPolyline
 90
        2
 70
     0
 39
0.003
 10
-1.853047
 20
1.155469
 40
0.003
 41
0.003
 10
-1.859539
 20
1.155291
 40
0.003
 41
0.003
  0
LWPOLYLINE
  5
4E7
100
AcDbEntity
  8
0
 62
   253
100
AcDbPolyline
 90
        2
 70
     0
 39
0.003
 10
-1.859539
 20
1.155291
 40
0.003
 41
0.003
 10
-2.516622
 20
0.785705
 40
0.003
 41
0.003
  0
LWPOLYLINE
  5
4E8
100
AcDbEntity
  8
0
 62
   253
100
AcDbPolyline
 90
        2
 70
     0
 39
0.003
 10
-2.516622
 20
0.785705
 40
0.003
 41
0.003
 10
-2.51013
 20
0.785882
 40
0.003
 41
0.003
  0
LWPOLYLINE
  5
4E9
100
AcDbEntity
  8
0
 62
   253
100
AcDbPolyline
 90
        2
 70
     0
 39
0.003
 10
-2.516622
 20
0.785705
 40
0.003
 41
0.003
 10
-1.859539
 20
1.155291
 40
0.003
 41
0.003
  0
LWPOLYLINE
  5
4EA
100
AcDbEntity
  8
0
 62
   253
100
AcDbPolyline
 90
        2
 70
     0
 39
0.003
 10
-1.859539
 20
1.155291
 40
0.003
 41
0.003
 10
-1.865953
 20
1.154783
 40
0.003
 41
0.003
  0
LWPOLYLINE
  5
4EB
100
AcDbEntity
  8
0
 62
   253
100
AcDbPolyline
 90
        2
 70
     0
 39
0.003
 10
-1.865953
 20
1.154783
 40
0.003
 41
0.003
 10
-2.523035
 20
0.785197
 40
0.003
 41
0.003
  0
LWPOLYLINE
  5
4EC
100
AcDbEntity
  8
0
 62
   253
100
AcDbPolyline
 90
        2
 70
     0
 39
0.003
 10
-2.523035
 20
0.785197
 40
0.003
 41
0.003
 10
-2.516622
 20
0.785705
 40
0.003
 41
0.003
  0
LWPOLYLINE
  5
4ED
100
AcDbEntity
  8
0
 62
   253
100
AcDbPolyline
 90
        2
 70
     0
 39
0.003
 10
-2.523035
 20
0.785197
 40
0.003
 41
0.003
 10
-1.865953
 20
1.154783
 40
0.003
 41
0.003
  0
LWPOLYLINE
  5
4EE
100
AcDbEntity
  8
0
 62
   253
100
AcDbPolyline
 90
        2
 70
     0
 39
0.003
 10
-1.865953
 20
1.154783
 40
0.003
 41
0.003
 10
-1.872272
 20
1.153937
 40
0.003
 41
0.003
  0
LWPOLYLINE
  5
4EF
100
AcDbEntity
  8
0
 62
   253
100
AcDbPolyline
 90
        2
 70
     0
 39
0.003
 10
-1.872272
 20
1.153937
 40
0.003
 41
0.003
 10
-2.529354
 20
0.78435
 40
0.003
 41
0.003
  0
LWPOLYLINE
  5
4F0
100
AcDbEntity
  8
0
 62
   253
100
AcDbPolyline
 90
        2
 70
     0
 39
0.003
 10
-2.529354
 20
0.78435
 40
0.003
 41
0.003
 10
-2.523035
 20
0.785197
 40
0.003
 41
0.003
  0
LWPOLYLINE
  5
4F1
100
AcDbEntity
  8
0
 62
   252
100
AcDbPolyline
 90
        2
 70
     0
 39
0.003
 10
-2.529354
 20
0.78435
 40
0.003
 41
0.003
 10
-1.872272
 20
1.153937
 40
0.003
 41
0.003
  0
LWPOLYLINE
  5
4F2
100
AcDbEntity
  8
0
 62
   252
100
AcDbPolyline
 90
        2
 70
     0
 39
0.003
 10
-1.872272
 20
1.153937
 40
0.003
 41
0.003
 10
-1.8785
 20
1.152776
 40
0.003
 41
0.003
  0
LWPOLYLINE
  5
4F3
100
AcDbEntity
  8
0
 62
   252
100
AcDbPolyline
 90
        2
 70
     0
 39
0.003
 10
-1.8785
 20
1.152776
 40
0.003
 41
0.003
 10
-2.535583
 20
0.783189
 40
0.003
 41
0.003
  0
LWPOLYLINE
  5
4F4
100
AcDbEntity
  8
0
 62
   252
100
AcDbPolyline
 90
        2
 70
     0
 39
0.003
 10
-2.535583
 20
0.783189
 40
0.003
 41
0.003
 10
-2.529354
 20
0.78435
 40
0.003
 41
0.003
  0
LWPOLYLINE
  5
4F5
100
AcDbEntity
  8
0
 62
     8
100
AcDbPolyline
 90
        2
 70
     0
 39
0.003
 10
-2.535583
 20
0.783189
 40
0.003
 41
0.003
 10
-1.8785
 20
1.152776
 40
0.003
 41
0.003
  0
LWPOLYLINE
  5
4F6
100
AcDbEntity
  8
0
 62
     8
100
AcDbPolyline
 90
        2
 70
     0
 39
0.003
 10
-1.8785
 20
1.152776
 40
0.003
 41
0.003
 10
-1.884614
 20
1.151299
 40
0.003
 41
0.003
  0
LWPOLYLINE
  5
4F7
100
AcDbEntity
  8
0
 62
     8
100
AcDbPolyline
 90
        2
 70
     0
 39
0.003
 10
-1.884614
 20
1.151299
 40
0.003
 41
0.003
 10
-2.541697
 20
0.781713
 40
0.003
 41
0.003
  0
LWPOLYLINE
  5
4F8
100
AcDbEntity
  8
0
 62
     8
100
AcDbPolyline
 90
        2
 70
     0
 39
0.003
 10
-2.541697
 20
0.781713
 40
0.003
 41
0.003
 10
-2.535583
 20
0.783189
 40
0.003
 41
0.003
  0
LWPOLYLINE
  5
4F9
100
AcDbEntity
  8
0
 62
   251
100
AcDbPolyline
 90
        2
 70
     0
 39
0.003
 10
-2.541697
 20
0.781713
 40
0.003
 41
0.003
 10
-1.884614
 20
1.151299
 40
0.003
 41
0.003
  0
LWPOLYLINE
  5
4FA
100
AcDbEntity
  8
0
 62
   251
100
AcDbPolyline
 90
        2
 70
     0
 39
0.003
 10
-1.884614
 20
1.151299
 40
0.003
 41
0.003
 10
-1.890614
 20
1.149524
 40
0.003
 41
0.003
  0
LWPOLYLINE
  5
4FB
100
AcDbEntity
  8
0
 62
   251
100
AcDbPolyline
 90
        2
 70
     0
 39
0.003
 10
-1.890614
 20
1.149524
 40
0.003
 41
0.003
 10
-2.547697
 20
0.779937
 40
0.003
 41
0.003
  0
LWPOLYLINE
  5
4FC
100
AcDbEntity
  8
0
 62
   251
100
AcDbPolyline
 90
        2
 70
     0
 39
0.003
 10
-2.547697
 20
0.779937
 40
0.003
 41
0.003
 10
-2.541697
 20
0.781713
 40
0.003
 41
0.003
  0
LWPOLYLINE
  5
4FD
100
AcDbEntity
  8
0
 62
   139
100
AcDbPolyline
 90
        2
 70
     0
 39
0.003
 10
-2.547697
 20
0.779937
 40
0.003
 41
0.003
 10
-1.890614
 20
1.149524
 40
0.003
 41
0.003
  0
LWPOLYLINE
  5
4FE
100
AcDbEntity
  8
0
 62
   139
100
AcDbPolyline
 90
        2
 70
     0
 39
0.003
 10
-1.890614
 20
1.149524
 40
0.003
 41
0.003
 10
-1.896488
 20
1.147449
 40
0.003
 41
0.003
  0
LWPOLYLINE
  5
4FF
100
AcDbEntity
  8
0
 62
   139
100
AcDbPolyline
 90
        2
 70
     0
 39
0.003
 10
-1.896488
 20
1.147449
 40
0.003
 41
0.003
 10
-2.553571
 20
0.777862
 40
0.003
 41
0.003
  0
LWPOLYLINE
  5
500
100
AcDbEntity
  8
0
 62
   139
100
AcDbPolyline
 90
        2
 70
     0
 39
0.003
 10
-2.553571
 20
0.777862
 40
0.003
 41
0.003
 10
-2.547697
 20
0.779937
 40
0.003
 41
0.003
  0
LWPOLYLINE
  5
501
100
AcDbEntity
  8
0
 62
   118
100
AcDbPolyline
 90
        2
 70
     0
 39
0.003
 10
-2.553571
 20
0.777862
 40
0.003
 41
0.003
 10
-1.896488
 20
1.147449
 40
0.003
 41
0.003
  0
LWPOLYLINE
  5
502
100
AcDbEntity
  8
0
 62
   118
100
AcDbPolyline
 90
        2
 70
     0
 39
0.003
 10
-1.896488
 20
1.147449
 40
0.003
 41
0.003
 10
-1.902236
 20
1.145098
 40
0.003
 41
0.003
  0
LWPOLYLINE
  5
503
100
AcDbEntity
  8
0
 62
   118
100
AcDbPolyline
 90
        2
 70
     0
 39
0.003
 10
-1.902236
 20
1.145098
 40
0.003
 41
0.003
 10
-2.559319
 20
0.775512
 40
0.003
 41
0.003
  0
LWPOLYLINE
  5
504
100
AcDbEntity
  8
0
 62
   118
100
AcDbPolyline
 90
        2
 70
     0
 39
0.003
 10
-2.559319
 20
0.775512
 40
0.003
 41
0.003
 10
-2.553571
 20
0.777862
 40
0.003
 41
0.003
  0
LWPOLYLINE
  5
505
100
AcDbEntity
  8
0
 62
     0
100
AcDbPolyline
 90
        2
 70
     0
 39
0.003
 10
-2.559319
 20
0.775512
 40
0.003
 41
0.003
 10
-1.902236
 20
1.145098
 40
0.003
 41
0.003
  0
LWPOLYLINE
  5
506
100
AcDbEntity
  8
0
 62
     0
100
AcDbPolyline
 90
        2
 70
     0
 39
0.003
 10
-1.902236
 20
1.145098
 40
0.003
 41
0.003
 10
-1.907835
 20
1.142461
 40
0.003
 41
0.003
  0
LWPOLYLINE
  5
507
100
AcDbEntity
  8
0
 62
     0
100
AcDbPolyline
 90
        2
 70
     0
 39
0.003
 10
-1.907835
 20
1.142461
 40
0.003
 41
0.003
 10
-2.564917
 20
0.772874
 40
0.003
 41
0.003
  0
LWPOLYLINE
  5
508
100
AcDbEntity
  8
0
 62
     0
100
AcDbPolyline
 90
        2
 70
     0
 39
0.003
 10
-2.564917
 20
0.772874
 40
0.003
 41
0.003
 10
-2.559319
 20
0.775512
 40
0.003
 41
0.003
  0
LWPOLYLINE
  5
509
100
AcDbEntity
  8
0
 62
     0
100
AcDbPolyline
 90
        2
 70
     0
 39
0.003
 10
-2.51013
 20
0.785882
 40
0.003
 41
0.003
 10
-1.853047
 20
1.155469
 40
0.003
 41
0.003
  0
LWPOLYLINE
  5
50A
100
AcDbEntity
  8
0
 62
     0
100
AcDbPolyline
 90
        2
 70
     0
 39
0.003
 10
-1.853047
 20
1.155469
 40
0.003
 41
0.003
 10
-1.859539
 20
1.155291
 40
0.003
 41
0.003
  0
LWPOLYLINE
  5
50B
100
AcDbEntity
  8
0
 62
     0
100
AcDbPolyline
 90
        2
 70
     0
 39
0.003
 10
-1.859539
 20
1.155291
 40
0.003
 41
0.003
 10
-1.865953
 20
1.154783
 40
0.003
 41
0.003
  0
LWPOLYLINE
  5
50C
100
AcDbEntity
  8
0
 62
     0
100
AcDbPolyline
 90
        2
 70
     0
 39
0.003
 10
-1.865953
 20
1.154783
 40
0.003
 41
0.003
 10
-1.872272
 20
1.153937
 40
0.003
 41
0.003
  0
LWPOLYLINE
  5
50D
100
AcDbEntity
  8
0
 62
     0
100
AcDbPolyline
 90
        2
 70
     0
 39
0.003
 10
-1.872272
 20
1.153937
 40
0.003
 41
0.003
 10
-1.8785
 20
1.152776
 40
0.003
 41
0.003
  0
LWPOLYLINE
  5
50E
100
AcDbEntity
  8
0
 62
     0
100
AcDbPolyline
 90
        2
 70
     0
 39
0.003
 10
-1.8785
 20
1.152776
 40
0.003
 41
0.003
 10
-1.884614
 20
1.151299
 40
0.003
 41
0.003
  0
LWPOLYLINE
  5
50F
100
AcDbEntity
  8
0
 62
     0
100
AcDbPolyline
 90
        2
 70
     0
 39
0.003
 10
-1.884614
 20
1.151299
 40
0.003
 41
0.003
 10
-1.890614
 20
1.149524
 40
0.003
 41
0.003
  0
LWPOLYLINE
  5
510
100
AcDbEntity
  8
0
 62
     0
100
AcDbPolyline
 90
        2
 70
     0
 39
0.003
 10
-1.890614
 20
1.149524
 40
0.003
 41
0.003
 10
-1.896488
 20
1.147449
 40
0.003
 41
0.003
  0
LWPOLYLINE
  5
511
100
AcDbEntity
  8
0
 62
     0
100
AcDbPolyline
 90
        2
 70
     0
 39
0.003
 10
-1.896488
 20
1.147449
 40
0.003
 41
0.003
 10
-1.902236
 20
1.145098
 40
0.003
 41
0.003
  0
LWPOLYLINE
  5
512
100
AcDbEntity
  8
0
 62
     0
100
AcDbPolyline
 90
        2
 70
     0
 39
0.003
 10
-1.902236
 20
1.145098
 40
0.003
 41
0.003
 10
-1.907835
 20
1.142461
 40
0.003
 41
0.003
  0
LWPOLYLINE
  5
513
100
AcDbEntity
  8
0
 62
     0
100
AcDbPolyline
 90
        2
 70
     0
 39
0.003
 10
-1.907835
 20
1.142461
 40
0.003
 41
0.003
 10
-2.564917
 20
0.772874
 40
0.003
 41
0.003
  0
LWPOLYLINE
  5
514
100
AcDbEntity
  8
0
 62
     0
100
AcDbPolyline
 90
        2
 70
     0
 39
0.003
 10
-2.564917
 20
0.772874
 40
0.003
 41
0.003
 10
-2.559319
 20
0.775512
 40
0.003
 41
0.003
  0
LWPOLYLINE
  5
515
100
AcDbEntity
  8
0
 62
     0
100
AcDbPolyline
 90
        2
 70
     0
 39
0.003
 10
-2.559319
 20
0.775512
 40
0.003
 41
0.003
 10
-2.553571
 20
0.777862
 40
0.003
 41
0.003
  0
LWPOLYLINE
  5
516
100
AcDbEntity
  8
0
 62
     0
100
AcDbPolyline
 90
        2
 70
     0
 39
0.003
 10
-2.553571
 20
0.777862
 40
0.003
 41
0.003
 10
-2.547697
 20
0.779937
 40
0.003
 41
0.003
  0
LWPOLYLINE
  5
517
100
AcDbEntity
  8
0
 62
     0
100
AcDbPolyline
 90
        2
 70
     0
 39
0.003
 10
-2.547697
 20
0.779937
 40
0.003
 41
0.003
 10
-2.541697
 20
0.781713
 40
0.003
 41
0.003
  0
LWPOLYLINE
  5
518
100
AcDbEntity
  8
0
 62
     0
100
AcDbPolyline
 90
        2
 70
     0
 39
0.003
 10
-2.541697
 20
0.781713
 40
0.003
 41
0.003
 10
-2.535583
 20
0.783189
 40
0.003
 41
0.003
  0
LWPOLYLINE
  5
519
100
AcDbEntity
  8
0
 62
     0
100
AcDbPolyline
 90
        2
 70
     0
 39
0.003
 10
-2.535583
 20
0.783189
 40
0.003
 41
0.003
 10
-2.529354
 20
0.78435
 40
0.003
 41
0.003
  0
LWPOLYLINE
  5
51A
100
AcDbEntity
  8
0
 62
     0
100
AcDbPolyline
 90
        2
 70
     0
 39
0.003
 10
-2.529354
 20
0.78435
 40
0.003
 41
0.003
 10
-2.523035
 20
0.785197
 40
0.003
 41
0.003
  0
LWPOLYLINE
  5
51B
100
AcDbEntity
  8
0
 62
     0
100
AcDbPolyline
 90
        2
 70
     0
 39
0.003
 10
-2.523035
 20
0.785197
 40
0.003
 41
0.003
 10
-2.516622
 20
0.785705
 40
0.003
 41
0.003
  0
LWPOLYLINE
  5
51C
100
AcDbEntity
  8
0
 62
     0
100
AcDbPolyline
 90
        2
 70
     0
 39
0.003
 10
-2.516622
 20
0.785705
 40
0.003
 41
0.003
 10
-2.51013
 20
0.785882
 40
0.003
 41
0.003
  0
LWPOLYLINE
  5
51D
100
AcDbEntity
  8
0
 62
     7
100
AcDbPolyline
 90
        2
 70
     0
 39
0.003
 10
1.784917
 20
0.467524
 40
0.003
 41
0.003
 10
1.784917
 20
0.530193
 40
0.003
 41
0.003
  0
SPLINE
  5
51E
100
AcDbEntity
  8
0
 62
     7
100
AcDbSpline
210
0.0
220
0.0
230
1.0
 70
     0
 71
     3
 72
     0
 73
     0
 74
    48
 44
0.0000000001
 11
1.7849173228346458
 21
0.5301929133858268
 31
0.0
 11
1.7978228346456693
 21
0.5308425196850394
 31
0.0
 11
1.8103700787401575
 21
0.5327677165354331
 31
0.0
 11
1.8224842519685038
 21
0.5358937007874016
 31
0.0
 11
1.8341062992125985
 21
0.5401614173228346
 31
0.0
 11
1.8451653543307087
 21
0.5455
 31
0.0
 11
1.8556062992125983
 21
0.5518543307086614
 31
0.0
 11
1.8653543307086615
 21
0.5591535433070867
 31
0.0
 11
1.8743582677165354
 21
0.5673346456692914
 31
0.0
 11
1.8825314960629922
 21
0.5763267716535433
 31
0.0
 11
1.8898307086614172
 21
0.5860787401574803
 31
0.0
 11
1.8961850393700788
 21
0.5965157480314961
 31
0.0
 11
1.9015314960629921
 21
0.6075787401574804
 31
0.0
 11
1.9057992125984251
 21
0.6191968503937008
 31
0.0
 11
1.9089291338582677
 21
0.6313149606299212
 31
0.0
 11
1.9108543307086614
 21
0.6438622047244095
 31
0.0
 11
1.911511811023622
 21
0.6567795275590551
 31
0.0
 11
1.9108543307086614
 21
0.6697125984251968
 31
0.0
 11
1.9089291338582677
 21
0.6823385826771654
 31
0.0
 11
1.9057992125984251
 21
0.6945748031496063
 31
0.0
 11
1.9015314960629921
 21
0.7063582677165354
 31
0.0
 11
1.8961850393700788
 21
0.7176062992125984
 31
0.0
 11
1.8898307086614172
 21
0.7282559055118111
 31
0.0
 11
1.8825314960629922
 21
0.7382322834645669
 31
0.0
 11
1.8743582677165354
 21
0.7474685039370079
 31
0.0
 11
1.8653543307086615
 21
0.7558779527559055
 31
0.0
 11
1.8556062992125983
 21
0.7634055118110237
 31
0.0
 11
1.8451653543307087
 21
0.7699685039370079
 31
0.0
 11
1.8341062992125985
 21
0.775503937007874
 31
0.0
 11
1.8224842519685038
 21
0.7799291338582677
 31
0.0
 11
1.8103700787401575
 21
0.7831811023622047
 31
0.0
 11
1.7978228346456693
 21
0.7851889763779527
 31
0.0
 11
1.7849173228346458
 21
0.7858740157480315
 31
0.0
 11
1.7872322834645669
 21
0.8843740157480315
 31
0.0
 11
1.7792322834645669
 21
0.9797007874015749
 31
0.0
 11
1.7615669291338583
 21
1.0715433070866143
 31
0.0
 11
1.7348937007874017
 21
1.1595984251968503
 31
0.0
 11
1.6998543307086613
 21
1.2435511811023623
 31
0.0
 11
1.6571181102362205
 21
1.3231181102362204
 31
0.0
 11
1.6073267716535433
 21
1.39798031496063
 31
0.0
 11
1.5511456692913386
 21
1.4678385826771654
 31
0.0
 11
1.4892086614173228
 21
1.5323779527559056
 31
0.0
 11
1.4221850393700788
 21
1.5913070866141732
 31
0.0
 11
1.350720472440945
 21
1.6443188976377954
 31
0.0
 11
1.2754763779527558
 21
1.6911181102362205
 31
0.0
 11
1.1970905511811023
 21
1.7313779527559054
 31
0.0
 11
1.116236220472441
 21
1.7648149606299213
 31
0.0
 11
1.0335551181102363
 21
1.7911141732283464
 31
0.0
  0
LWPOLYLINE
  5
51F
100
AcDbEntity
  8
0
 62
     7
100
AcDbPolyline
 90
        2
 70
     0
 39
0.003
 10
1.033555
 20
1.791114
 40
0.003
 41
0.003
 10
0.949709
 20
1.809984
 40
0.003
 41
0.003
  0
LWPOLYLINE
  5
520
100
AcDbEntity
  8
0
 62
     7
100
AcDbPolyline
 90
        2
 70
     0
 39
0.003
 10
0.949709
 20
1.809984
 40
0.003
 41
0.003
 10
-0.362685
 20
2.027528
 40
0.003
 41
0.003
  0
LWPOLYLINE
  5
521
100
AcDbEntity
  8
0
 62
     7
100
AcDbPolyline
 90
        2
 70
     0
 39
0.003
 10
-0.362685
 20
2.027528
 40
0.003
 41
0.003
 10
-1.674921
 20
1.809988
 40
0.003
 41
0.003
  0
SPLINE
  5
522
100
AcDbEntity
  8
0
 62
     7
100
AcDbSpline
210
0.0
220
0.0
230
1.0
 70
     0
 71
     3
 72
     0
 73
     0
 74
    48
 44
0.0000000001
 11
-1.6749212598425196
 21
1.809988188976378
 31
0.0
 11
-1.7587677165354332
 21
1.7911181102362204
 31
0.0
 11
-1.8414488188976379
 21
1.7648188976377952
 31
0.0
 11
-1.9223031496062992
 21
1.7313818897637796
 31
0.0
 11
-2.000688976377953
 21
1.6911220472440944
 31
0.0
 11
-2.0759330708661419
 21
1.6443228346456693
 31
0.0
 11
-2.1473976377952755
 21
1.5913110236220473
 31
0.0
 11
-2.2144212598425197
 21
1.5323818897637795
 31
0.0
 11
-2.2763582677165353
 21
1.4678425196850393
 31
0.0
 11
-2.3325393700787402
 21
1.397984251968504
 31
0.0
 11
-2.3823307086614172
 21
1.3231259842519685
 31
0.0
 11
-2.4250669291338585
 21
1.2435590551181102
 31
0.0
 11
-2.4601062992125984
 21
1.1596062992125984
 31
0.0
 11
-2.486779527559055
 21
1.0715511811023621
 31
0.0
 11
-2.5044448818897638
 21
0.9797086614173228
 31
0.0
 11
-2.5124448818897638
 21
0.8843818897637795
 31
0.0
 11
-2.5101299212598427
 21
0.7858818897637795
 31
0.0
 11
-2.523035433070866
 21
0.7851968503937008
 31
0.0
 11
-2.5355826771653542
 21
0.7831889763779527
 31
0.0
 11
-2.547696850393701
 21
0.7799370078740158
 31
0.0
 11
-2.5593188976377954
 21
0.7755118110236221
 31
0.0
 11
-2.5703779527559054
 21
0.7699763779527559
 31
0.0
 11
-2.5808188976377955
 21
0.7634133858267717
 31
0.0
 11
-2.5905669291338582
 21
0.7558858267716535
 31
0.0
 11
-2.5995708661417325
 21
0.7474763779527559
 31
0.0
 11
-2.6077440944881891
 21
0.7382401574803149
 31
0.0
 11
-2.6150433070866144
 21
0.7282637795275591
 31
0.0
 11
-2.6213976377952757
 21
0.7176141732283464
 31
0.0
 11
-2.6267440944881888
 21
0.7063661417322835
 31
0.0
 11
-2.631011811023622
 21
0.6945826771653544
 31
0.0
 11
-2.6341417322834646
 21
0.6823425196850393
 31
0.0
 11
-2.6360669291338583
 21
0.6697165354330709
 31
0.0
 11
-2.6367244094488189
 21
0.6567834645669292
 31
0.0
 11
-2.6360669291338583
 21
0.6438661417322835
 31
0.0
 11
-2.6341417322834646
 21
0.6313188976377953
 31
0.0
 11
-2.631011811023622
 21
0.6192007874015748
 31
0.0
 11
-2.6267440944881888
 21
0.6075826771653543
 31
0.0
 11
-2.6213976377952757
 21
0.59651968503937
 31
0.0
 11
-2.6150433070866144
 21
0.5860826771653543
 31
0.0
 11
-2.6077440944881891
 21
0.5763307086614173
 31
0.0
 11
-2.5995708661417325
 21
0.5673385826771653
 31
0.0
 11
-2.5905669291338582
 21
0.5591574803149606
 31
0.0
 11
-2.5808188976377955
 21
0.5518582677165355
 31
0.0
 11
-2.5703779527559054
 21
0.545503937007874
 31
0.0
 11
-2.5593188976377954
 21
0.5401653543307087
 31
0.0
 11
-2.547696850393701
 21
0.5358976377952756
 31
0.0
 11
-2.5355826771653542
 21
0.5327716535433071
 31
0.0
 11
-2.523035433070866
 21
0.5308464566929134
 31
0.0
  0
LWPOLYLINE
  5
523
100
AcDbEntity
  8
0
 62
     7
100
AcDbPolyline
 90
        2
 70
     0
 39
0.003
 10
-2.523035
 20
0.530846
 40
0.003
 41
0.003
 10
-2.51013
 20
0.530197
 40
0.003
 41
0.003
  0
LWPOLYLINE
  5
524
100
AcDbEntity
  8
0
 62
     7
100
AcDbPolyline
 90
        2
 70
     0
 39
0.003
 10
-2.51013
 20
0.530197
 40
0.003
 41
0.003
 10
-2.51013
 20
0.467524
 40
0.003
 41
0.003
  0
LWPOLYLINE
  5
525
100
AcDbEntity
  8
0
 62
     7
100
AcDbPolyline
 90
        2
 70
     0
 39
0.003
 10
-2.51013
 20
0.467524
 40
0.003
 41
0.003
 10
1.784917
 20
0.467524
 40
0.003
 41
0.003
  0
MTEXT
  5
526
100
AcDbEntity
  8
0
 62
     0
100
AcDbMText
 10
-1.421154
 20
0.557504
 30
0.0
 40
0.166665
 41
0.0
 71
     1
 72
     1
  1
{\fBookman Old Style|b0|i0|c0|p32;BA  1398}
 73
     1
 44
1.0
  0
MTEXT
  5
527
100
AcDbEntity
  8
0
 62
     0
100
AcDbMText
 10
-1.421154
 20
0.370004
 30
0.0
 40
0.166665
 41
0.0
 71
     1
 72
     1
  1
{\fBookman Old Style|b0|i0|c0|p32;1-9/16" x 4-1/2"}
 73
     1
 44
1.0
  0
MTEXT
  5
528
100
AcDbEntity
  8
0
 62
     0
100
AcDbMText
 10
-1.210705
 20
3.270551
 30
0.0
 40
0.166665
 41
0.0
 71
     1
 72
     1
  1
{\fBookman Old Style|b0|i0|c0|p32;BA  1398}
 73
     1
 44
1.0
  0
MTEXT
  5
529
100
AcDbEntity
  8
0
 62
     0
100
AcDbMText
 10
-1.210705
 20
3.083051
 30
0.0
 40
0.166665
 41
0.0
 71
     1
 72
     1
  1
{\fBookman Old Style|b0|i0|c0|p32;1-9/16" x 4-1/2"}
 73
     1
 44
1.0
  0
ENDSEC
  0
SECTION
  2
OBJECTS
  0
DICTIONARY
  5
19
100
AcDbDictionary
280
     0
281
     1
  3
ACAD_GROUP
350
1A
  3
ACAD_MLINESTYLE
350
1B
  3
ACAD_LAYOUT
350
1E
  3
ACAD_PLOTSETTINGS
350
22
  3
ACAD_PLOTSTYLENAME
350
1F
  3
ACAD_WIPEOUT_VARS
350
23
  0
DICTIONARY
  5
1A
102
{ACAD_REACTORS
330
19
102
}
100
AcDbDictionary
280
     0
281
     1
  0
DICTIONARY
  5
1B
102
{ACAD_REACTORS
330
19
102
}
100
AcDbDictionary
280
     0
281
     1
  3
Standard
350
1C
  0
MLINESTYLE
  5
1C
102
{ACAD_REACTORS
330
1B
102
}
100
AcDbMlineStyle
  2
Standard
 70
     0
  3

 62
     0
 51
90.0
 52
90.0
 71
     2
 49
0.5
 62
   256
  6
BYLAYER
 49
-0.5
 62
   256
  6
BYLAYER
  0
ACDBDICTIONARYWDFLT
  5
1F
102
{ACAD_REACTORS
330
19
102
}
100
AcDbDictionary
281
     1
  3
Normal
350
1D
100
AcDbDictionaryWithDefault
340
1D
  0
ACDBPLACEHOLDER
  5
1D
102
{ACAD_REACTORS
330
1F
102
}
  0
LAYOUT
  5
20
102
{ACAD_REACTORS
330
1E
102
}
100
AcDbPlotSettings
  1

  2

  4

  6

 40
0.0
 41
0.0
 42
0.0
 43
0.0
 44
0.0
 45
0.0
 46
0.0
 47
0.0
 48
0.0
 49
0.0
140
0.0
141
0.0
142
1.0
143
1.0
 70
  1024
 72
     0
 73
     0
 74
     0
  7

 75
     0
147
1.0
148
0.0
149
0.0
100
AcDbLayout
  1
Model
 70
     0
 71
     0
 10
0.0
 20
0.0
 11
0.0
 21
0.0
 12
0.0
 22
0.0
 32
0.0
 14
0.0
 24
0.0
 34
0.0
 15
0.0
 25
0.0
 35
0.0
146
0.0
 13
0.0
 23
0.0
 33
0.0
 16
0.0
 26
0.0
 36
0.0
 17
0.0
 27
0.0
 37
0.0
 76
     0
330
A
331
0
345
0
346
0
  0
LAYOUT
  5
21
102
{ACAD_REACTORS
330
1E
102
}
100
AcDbPlotSettings
  1

  2

  4

  6

 40
0.0
 41
0.0
 42
0.0
 43
0.0
 44
0.0
 45
0.0
 46
0.0
 47
0.0
 48
0.0
 49
0.0
140
0.0
141
0.0
142
1.0
143
1.0
 70
     0
 72
     0
 73
     0
 74
     0
  7

 75
     0
147
1.0
148
0.0
149
0.0
100
AcDbLayout
  1
Layout1
 70
     0
 71
     0
 10
0.0
 20
0.0
 11
0.0
 21
0.0
 12
0.0
 22
0.0
 32
0.0
 14
0.0
 24
0.0
 34
0.0
 15
0.0
 25
0.0
 35
0.0
146
0.0
 13
0.0
 23
0.0
 33
0.0
 16
0.0
 26
0.0
 36
0.0
 17
0.0
 27
0.0
 37
0.0
 76
     0
330
B
331
0
345
0
346
0
  0
DICTIONARY
  5
1E
102
{ACAD_REACTORS
330
19
102
}
100
AcDbDictionary
280
     0
281
     1
  3
Layout1
350
21
  3
Model
350
20
  0
DICTIONARY
  5
22
102
{ACAD_REACTORS
330
19
102
}
100
AcDbDictionary
280
     0
281
     1
  0
WIPEOUTVARIABLES
  5
23
100
AcDbWipeoutVariables
 70
     1
  0
ENDSEC
  0
EOF
