  0
SECTION
  2
HEADER
  9
$ACADVER
  1
AC1015
  9
$ACADMAINTVER
 70
     6
  9
$DWGCODEPAGE
  3
DOS850
  9
$INSBASE
 10
0.0
 20
0.0
 30
0.0
  9
$EXTMIN
 10
1.000000E+20
 20
1.000000E+20
 30
1.000000E+20
  9
$EXTMAX
 10
-1.000000E+20
 20
-1.000000E+20
 30
-1.000000E+20
  9
$LIMMIN
 10
0.0
 20
0.0
  9
$LIMMAX
 10
0.0
 20
0.0
  9
$ORTHOMODE
 70
     0
  9
$REGENMODE
 70
     1
  9
$FILLMODE
 70
     1
  9
$QTEXTMODE
 70
     0
  9
$MIRRTEXT
 70
     1
  9
$LTSCALE
 40
1.0
  9
$ATTMODE
 70
     1
  9
$TEXTSIZE
 40
0.2
  9
$TRACEWID
 40
0.05
  9
$TEXTSTYLE
  7
Standard
  9
$CLAYER
  8
0
  9
$CELTYPE
  6
Continuous
  9
$CECOLOR
 62
   256
  9
$CELTSCALE
 40
1.0
  9
$DISPSILH
 70
     0
  9
$DIMSCALE
 40
1.0
  9
$DIMASZ
 40
0.18
  9
$DIMEXO
 40
0.0625
  9
$DIMDLI
 40
0.38
  9
$DIMRND
 40
0.0
  9
$DIMDLE
 40
0.0
  9
$DIMEXE
 40
0.18
  9
$DIMTP
 40
0.0
  9
$DIMTM
 40
0.0
  9
$DIMTXT
 40
0.18
  9
$DIMCEN
 40
0.09
  9
$DIMTSZ
 40
0.0
  9
$DIMTOL
 70
     0
  9
$DIMLIM
 70
     0
  9
$DIMTIH
 70
     1
  9
$DIMTOH
 70
     1
  9
$DIMSE1
 70
     0
  9
$DIMSE2
 70
     0
  9
$DIMTAD
 70
     0
  9
$DIMZIN
 70
     0
  9
$DIMBLK
  1

  9
$DIMASO
 70
     1
  9
$DIMSHO
 70
     1
  9
$DIMPOST
  1

  9
$DIMAPOST
  1

  9
$DIMALT
 70
     0
  9
$DIMALTD
 70
     2
  9
$DIMALTF
 40
25.4
  9
$DIMLFAC
 40
1.0
  9
$DIMTOFL
 70
     0
  9
$DIMTVP
 40
0.0
  9
$DIMTIX
 70
     0
  9
$DIMSOXD
 70
     0
  9
$DIMSAH
 70
     0
  9
$DIMBLK1
  1

  9
$DIMBLK2
  1

  9
$DIMSTYLE
  2
Standard
  9
$DIMCLRD
 70
     0
  9
$DIMCLRE
 70
     0
  9
$DIMCLRT
 70
     0
  9
$DIMTFAC
 40
1.0
  9
$DIMGAP
 40
0.09
  9
$DIMJUST
 70
     0
  9
$DIMSD1
 70
     0
  9
$DIMSD2
 70
     0
  9
$DIMTOLJ
 70
     1
  9
$DIMTZIN
 70
     0
  9
$DIMALTZ
 70
     0
  9
$DIMALTTZ
 70
     0
  9
$DIMUPT
 70
     0
  9
$DIMDEC
 70
     4
  9
$DIMTDEC
 70
     4
  9
$DIMALTU
 70
     2
  9
$DIMALTTD
 70
     2
  9
$DIMTXSTY
  7
Standard
  9
$DIMAUNIT
 70
     0
  9
$DIMADEC
 70
     0
  9
$DIMALTRND
 40
0.0
  9
$DIMAZIN
 70
     0
  9
$DIMDSEP
 70
     0
  9
$DIMATFIT
 70
     3
  9
$DIMFRAC
 70
     0
  9
$DIMLDRBLK
  1

  9
$DIMLUNIT
 70
     2
  9
$DIMLWD
 70
     0
  9
$DIMLWE
 70
     0
  9
$DIMTMOVE
 70
     0
  9
$LUNITS
 70
     2
  9
$LUPREC
 70
     4
  9
$SKETCHINC
 40
0.1
  9
$FILLETRAD
 40
0.0
  9
$AUNITS
 70
     0
  9
$AUPREC
 70
     0
  9
$MENU
  1
acad
  9
$ELEVATION
 40
0.0
  9
$PELEVATION
 40
0.0
  9
$THICKNESS
 40
0.0
  9
$LIMCHECK
 70
     0
  9
$CHAMFERA
 40
0.0
  9
$CHAMFERB
 40
0.0
  9
$CHAMFERC
 40
0.0
  9
$CHAMFERD
 40
0.0
  9
$SKPOLY
 70
     0
  9
$TDCREATE
 40
0.000000000
  9
$TDUCREATE
 40
0.000000000
  9
$TDUPDATE
 40
0.000000000
  9
$TDUUPDATE
 40
0.000000000
  9
$TDINDWG
 40
0.0000000000
  9
$TDUSRTIMER
 40
0.0000000000
  9
$USRTIMER
 70
     1
  9
$ANGBASE
 50
0.0
  9
$ANGDIR
 70
     0
  9
$PDMODE
 70
     0
  9
$PDSIZE
 40
0.0
  9
$PLINEWID
 40
0.0
  9
$SPLFRAME
 70
     0
  9
$SPLINETYPE
 70
     6
  9
$SPLINESEGS
 70
     8
  9
$HANDSEED
  5
4C
  9
$SURFTAB1
 70
     6
  9
$SURFTAB2
 70
     6
  9
$SURFTYPE
 70
     6
  9
$SURFU
 70
     6
  9
$SURFV
 70
     6
  9
$UCSBASE
  2

  9
$UCSNAME
  2

  9
$UCSORG
 10
0.0
 20
0.0
 30
0.0
  9
$UCSXDIR
 10
1.0
 20
0.0
 30
0.0
  9
$UCSYDIR
 10
0.0
 20
1.0
 30
0.0
  9
$UCSORTHOREF
  2

  9
$UCSORTHOVIEW
 70
     0
  9
$UCSORGTOP
 10
0.0
 20
0.0
 30
0.0
  9
$UCSORGBOTTOM
 10
0.0
 20
0.0
 30
0.0
  9
$UCSORGLEFT
 10
0.0
 20
0.0
 30
0.0
  9
$UCSORGRIGHT
 10
0.0
 20
0.0
 30
0.0
  9
$UCSORGFRONT
 10
0.0
 20
0.0
 30
0.0
  9
$UCSORGBACK
 10
0.0
 20
0.0
 30
0.0
  9
$PUCSBASE
  2

  9
$PUCSNAME
  2

  9
$PUCSORG
 10
0.0
 20
0.0
 30
0.0
  9
$PUCSXDIR
 10
1.0
 20
0.0
 30
0.0
  9
$PUCSYDIR
 10
0.0
 20
1.0
 30
0.0
  9
$PUCSORTHOREF
  2

  9
$PUCSORTHOVIEW
 70
     0
  9
$PUCSORGTOP
 10
0.0
 20
0.0
 30
0.0
  9
$PUCSORGBOTTOM
 10
0.0
 20
0.0
 30
0.0
  9
$PUCSORGLEFT
 10
0.0
 20
0.0
 30
0.0
  9
$PUCSORGRIGHT
 10
0.0
 20
0.0
 30
0.0
  9
$PUCSORGFRONT
 10
0.0
 20
0.0
 30
0.0
  9
$PUCSORGBACK
 10
0.0
 20
0.0
 30
0.0
  9
$USERI1
 70
     0
  9
$USERI2
 70
     0
  9
$USERI3
 70
     0
  9
$USERI4
 70
     0
  9
$USERI5
 70
     0
  9
$USERR1
 40
0.0
  9
$USERR2
 40
0.0
  9
$USERR3
 40
0.0
  9
$USERR4
 40
0.0
  9
$USERR5
 40
0.0
  9
$WORLDVIEW
 70
     1
  9
$SHADEDGE
 70
     3
  9
$SHADEDIF
 70
    70
  9
$TILEMODE
 70
     1
  9
$MAXACTVP
 70
    16
  9
$PINSBASE
 10
0.0
 20
0.0
 30
0.0
  9
$PLIMCHECK
 70
     0
  9
$PEXTMIN
 10
1.000000E+20
 20
1.000000E+20
 30
1.000000E+20
  9
$PEXTMAX
 10
-1.000000E+20
 20
-1.000000E+20
 30
-1.000000E+20
  9
$PLIMMIN
 10
0.0
 20
0.0
  9
$PLIMMAX
 10
12.0
 20
9.0
  9
$UNITMODE
 70
     0
  9
$VISRETAIN
 70
     0
  9
$PLINEGEN
 70
     1
  9
$PSLTSCALE
 70
     0
  9
$TREEDEPTH
 70
  3020
  9
$CMLSTYLE
  2
Standard
  9
$CMLJUST
 70
     0
  9
$CMLSCALE
 40
1.0
  9
$PROXYGRAPHICS
 70
     0
  9
$MEASUREMENT
 70
     0
  9
$CELWEIGHT
370
     0
  9
$ENDCAPS
280
     0
  9
$JOINSTYLE
280
     0
  9
$LWDISPLAY
290
     0
  9
$INSUNITS
 70
     0
  9
$HYPERLINKBASE
  1

  9
$XEDIT
290
     1
  9
$CEPSNTYPE
380
     0
  9
$PSTYLEMODE
290
     1
  9
$FINGERPRINTGUID
  2

  9
$VERSIONGUID
  2

  9
$EXTNAMES
290
     1
  9
$PSVPSCALE
 40
0.0
  0
ENDSEC
  0
SECTION
  2
CLASSES
  0
CLASS
  1
LWPOLYLINE
  2
AcDbPolyline
  3
AutoCAD 2000
 90
        0
280
     0
281
     1
  0
CLASS
  1
IMAGE
  2
AcDbRasterImage
  3
ISM
 90
    32895
280
     0
281
     1
  0
CLASS
  1
OLE2FRAME
  2
AcDbOle2Frame
  3
AutoCAD 2000
 90
    32768
280
     0
281
     1
  0
CLASS
  1
HATCH
  2
AcDbHatch
  3
AutoCAD 2000
 90
    32768
280
     0
281
     1
  0
CLASS
  1
DICTIONARYVAR
  2
AcDbDictionaryVar
  3
AutoCAD 2000
 90
    32768
280
     0
281
     0
  0
CLASS
  1
RASTERVARIABLES
  2
AcDbRasterVariables
  3
ISM
 90
    32768
280
     0
281
     0
  0
CLASS
  1
IMAGEDEF
  2
AcDbRasterImageDef
  3
ISM
 90
    32768
280
     0
281
     0
  0
CLASS
  1
IMAGEDEF_REACTOR
  2
AcDbRasterImageDefReactor
  3
ISM
 90
    32769
280
     0
281
     0
  0
CLASS
  1
IDBUFFER
  2
AcDbIdBuffer
  3
AutoCAD 2000
 90
    32768
280
     0
281
     0
  0
CLASS
  1
SPATIAL_FILTER
  2
AcDbSpatialFilter
  3
AutoCAD 2000
 90
    32768
280
     0
281
     0
  0
CLASS
  1
XRECORD
  2
AcDbXrecord
  3
AutoCAD 2000
 90
    32768
280
     0
281
     0
  0
CLASS
  1
SORTENTSTABLE
  2
AcDbSortentsTable
  3
AutoCAD 2000
 90
    32768
280
     0
281
     0
  0
CLASS
  1
LAYER_INDEX
  2
AcDbLayerIndex
  3
AutoCAD 2000
 90
    32768
280
     0
281
     0
  0
CLASS
  1
SPATIAL_INDEX
  2
AcDbSpatialIndex
  3
AutoCAD 2000
 90
    32768
280
     0
281
     0
  0
CLASS
  1
OBJECT_PTR
  2
CAseDLPNTableRecord
  3
"ASE-LPNTableRecord"
 90
    32769
280
     0
281
     0
  0
CLASS
  1
LAYOUT
  2
AcDbLayout
  3
AutoCAD 2000
 90
        0
280
     0
281
     0
  0
CLASS
  1
PLOTSETTINGS
  2
AcDbPlotSettings
  3
AutoCAD 2000
 90
    32768
280
     0
281
     0
  0
CLASS
  1
ACDBDICTIONARYWDFLT
  2
AcDbDictionaryWithDefault
  3
AutoCAD 2000
 90
        0
280
     0
281
     0
  0
CLASS
  1
ACDBPLACEHOLDER
  2
AcDbPlaceHolder
  3
AutoCAD 2000
 90
        0
280
     0
281
     0
  0
CLASS
  1
VBA_PROJECT
  2
AcDbVbaProject
  3
acadvba
 90
    32768
280
     0
281
     0
  0
CLASS
  1
WIPEOUT
  2
AcDbWipeout
  3
WipeOut|AutoCAD Express Tool|expresstools@autodesk.com
 90
    32895
280
     0
281
     1
  0
CLASS
  1
WIPEOUTVARIABLES
  2
AcDbWipeoutVariables
  3
WipeOut|AutoCAD Express Tool|expresstools@autodesk.com
 90
        0
280
     0
281
     0
  0
CLASS
  1
RTEXT
  2
RText
  3
RText|AutoCAD Express Tool|expresstools@autodesk.com
 90
    32768
280
     0
281
     1
  0
CLASS
  1
ARCALIGNEDTEXT
  2
AcDbArcAlignedText
  3
ATEXT|AutoCAD Express Tool|expresstools@autodesk.com
 90
    32768
280
     0
281
     1
  0
ENDSEC
  0
SECTION
  2
TABLES
  0
TABLE
  2
VPORT
  5
7
100
AcDbSymbolTable
 70
     1
  0
VPORT
  5
15
100
AcDbSymbolTableRecord
100
AcDbViewportTableRecord
  2
*ACTIVE
 70
     0
 10
0.0
 20
0.0
 11
1.0
 21
1.0
 12
6.591288
 22
4.579184
 13
0.0
 23
0.0
 14
1.0
 24
1.0
 15
0.0
 25
0.0
 16
0.0
 26
0.0
 36
1.0
 17
0.0
 27
0.0
 37
0.0
 40
9.158369
 41
0.688564
 42
50.0
 43
0.0
 44
0.0
 50
0.0
 51
0.0
 71
     0
 72
   100
 73
     1
 74
     1
 75
     0
 76
     0
 77
     0
 78
     0
281
     0
 65
     0
110
0.0
120
0.0
130
0.0
111
1.0
121
0.0
131
0.0
112
0.0
122
1.0
132
0.0
345
0
346
0
 79
     0
146
0.0
  0
ENDTAB
  0
TABLE
  2
LTYPE
  5
4
100
AcDbSymbolTable
 70
     3
  0
LTYPE
  5
11
100
AcDbSymbolTableRecord
100
AcDbLinetypeTableRecord
  2
ByBlock
 70
    64
  3

 72
    65
 73
     0
 40
0.0
  0
LTYPE
  5
12
100
AcDbSymbolTableRecord
100
AcDbLinetypeTableRecord
  2
ByLayer
 70
    64
  3

 72
    65
 73
     0
 40
0.0
  0
LTYPE
  5
13
100
AcDbSymbolTableRecord
100
AcDbLinetypeTableRecord
  2
Continuous
 70
    64
  3
Solid line
 72
    65
 73
     0
 40
0.0
  0
ENDTAB
  0
TABLE
  2
LAYER
  5
2
100
AcDbSymbolTable
 70
     1
  0
LAYER
  5
14
100
AcDbSymbolTableRecord
100
AcDbLayerTableRecord
  2
0
 70
     0
 62
     7
  6
Continuous
290
     1
370
    -3
390
1D
  0
ENDTAB
  0
TABLE
  2
STYLE
  5
3
100
AcDbSymbolTable
 70
     1
  0
STYLE
  5
17
100
AcDbSymbolTableRecord
100
AcDbTextStyleTableRecord
  2
Standard
 70
     0
 40
0.0
 41
1.0
 50
0.0
 71
     0
 42
0.0
  3
txt
  4

  0
ENDTAB
  0
TABLE
  2
VIEW
  5
5
100
AcDbSymbolTable
 70
     0
  0
ENDTAB
  0
TABLE
  2
UCS
  5
6
100
AcDbSymbolTable
 70
     0
  0
ENDTAB
  0
TABLE
  2
APPID
  5
8
100
AcDbSymbolTable
 70
     1
  0
APPID
  5
16
100
AcDbSymbolTableRecord
100
AcDbRegAppTableRecord
  2
ACAD
 70
     0
  0
ENDTAB
  0
TABLE
  2
DIMSTYLE
  5
9
100
AcDbSymbolTable
 70
     1
100
AcDbDimStyleTable
 71
     0
  0
DIMSTYLE
105
18
100
AcDbSymbolTableRecord
100
AcDbDimStyleTableRecord
  2
Standard
 70
     0
  3

  4

 40
1.0
 41
0.18
 42
0.0625
 43
0.38
 44
0.18
 45
0.0
 46
0.0
 47
0.0
 48
0.0
 71
     0
 72
     0
 73
     1
 74
     1
 75
     0
 76
     0
 77
     0
 78
     0
 79
     0
140
0.18
141
0.09
142
0.0
143
25.4
144
1.0
145
0.0
146
1.0
147
0.09
148
0.0
170
     0
171
     2
172
     0
173
     0
174
     0
175
     0
176
     0
177
     0
178
     0
179
     0
271
     4
272
     4
273
     2
274
     2
275
     0
276
     0
277
     2
278
    46
279
     0
280
     0
281
     0
282
     0
283
     1
284
     0
285
     0
286
     0
288
     0
340
17
341
0
342
0
343
0
344
0
371
    -2
372
    -2
  0
ENDTAB
  0
TABLE
  2
BLOCK_RECORD
  5
1
100
AcDbSymbolTable
 70
     0
  0
BLOCK_RECORD
  5
A
100
AcDbSymbolTableRecord
100
AcDbBlockTableRecord
  2
*MODEL_SPACE
340
20
  0
BLOCK_RECORD
  5
B
100
AcDbSymbolTableRecord
100
AcDbBlockTableRecord
  2
*PAPER_SPACE
340
21
  0
ENDTAB
  0
ENDSEC
  0
SECTION
  2
BLOCKS
  0
BLOCK
  5
D
100
AcDbEntity
  8
0
100
AcDbBlockBegin
  2
*MODEL_SPACE
 70
     0
 10
0.0
 20
0.0
 30
0.0
  3
*MODEL_SPACE
  1

  0
ENDBLK
  5
E
100
AcDbEntity
  8
0
100
AcDbBlockEnd
  0
BLOCK
  5
F
100
AcDbEntity
 67
     1
  8
0
100
AcDbBlockBegin
  2
*PAPER_SPACE
 70
     0
 10
0.0
 20
0.0
 30
0.0
  3
*PAPER_SPACE
  1

  0
ENDBLK
  5
10
100
AcDbEntity
 67
     1
  8
0
100
AcDbBlockEnd
  0
ENDSEC
  0
SECTION
  2
ENTITIES
  0
SPLINE
  5
24
100
AcDbEntity
  8
0
 62
     0
100
AcDbSpline
210
0.0
220
0.0
230
1.0
 70
     0
 71
     3
 72
     0
 73
     0
 74
    16
 44
0.0000000001
 11
0.1635590551181102
 21
0.6866929133858267
 31
0.0
 11
0.1703740157480315
 21
0.6864527559055118
 31
0.0
 11
0.1818385826771654
 21
0.6856811023622047
 31
0.0
 11
0.1973779527559055
 21
0.684263779527559
 31
0.0
 11
0.2164291338582677
 21
0.6821023622047244
 31
0.0
 11
0.2384055118110236
 21
0.6790748031496063
 31
0.0
 11
0.2627559055118111
 21
0.6750905511811024
 31
0.0
 11
0.2888937007874016
 21
0.6700354330708661
 31
0.0
 11
0.3162716535433071
 21
0.6638110236220473
 31
0.0
 11
0.3442913385826772
 21
0.6562913385826772
 31
0.0
 11
0.3724094488188977
 21
0.6473937007874016
 31
0.0
 11
0.4000393700787401
 21
0.637
 31
0.0
 11
0.4266220472440945
 21
0.625011811023622
 31
0.0
 11
0.4515787401574803
 21
0.6113110236220473
 31
0.0
 11
0.4743464566929134
 21
0.5957992125984252
 31
0.0
 11
0.4943543307086614
 21
0.5783661417322835
 31
0.0
  0
LWPOLYLINE
  5
25
100
AcDbEntity
  8
0
 62
     0
100
AcDbPolyline
 90
        2
 70
     0
 39
0.01389
 10
0.494354
 20
0.578366
 40
0.01389
 41
0.01389
 10
0.511031
 20
0.558913
 40
0.01389
 41
0.01389
  0
LWPOLYLINE
  5
26
100
AcDbEntity
  8
0
 62
     0
100
AcDbPolyline
 90
        2
 70
     0
 39
0.01389
 10
0.511031
 20
0.558913
 40
0.01389
 41
0.01389
 10
0.522823
 20
0.558913
 40
0.01389
 41
0.01389
  0
LWPOLYLINE
  5
27
100
AcDbEntity
  8
0
 62
     0
100
AcDbPolyline
 90
        2
 70
     0
 39
0.01389
 10
0.522823
 20
0.558913
 40
0.01389
 41
0.01389
 10
0.66674
 20
0.693528
 40
0.01389
 41
0.01389
  0
LWPOLYLINE
  5
28
100
AcDbEntity
  8
0
 62
     0
100
AcDbPolyline
 90
        2
 70
     0
 39
0.01389
 10
0.66674
 20
0.693528
 40
0.01389
 41
0.01389
 10
0.945358
 20
0.693528
 40
0.01389
 41
0.01389
  0
LWPOLYLINE
  5
29
100
AcDbEntity
  8
0
 62
     0
100
AcDbPolyline
 90
        2
 70
     0
 39
0.01389
 10
0.945358
 20
0.693528
 40
0.01389
 41
0.01389
 10
0.969831
 20
0.637087
 40
0.01389
 41
0.01389
  0
LWPOLYLINE
  5
2A
100
AcDbEntity
  8
0
 62
     0
100
AcDbPolyline
 90
        2
 70
     0
 39
0.01389
 10
0.969831
 20
0.637087
 40
0.01389
 41
0.01389
 10
0.988969
 20
0.637087
 40
0.01389
 41
0.01389
  0
SPLINE
  5
2B
100
AcDbEntity
  8
0
 62
     0
100
AcDbSpline
210
0.0
220
0.0
230
1.0
 70
     0
 71
     3
 72
     0
 73
     0
 74
    32
 44
0.0000000001
 11
0.9889685039370079
 21
0.6370866141732283
 31
0.0
 11
0.9930393700787401
 21
0.6424094488188976
 31
0.0
 11
0.9974094488188976
 21
0.6474881889763779
 31
0.0
 11
1.0020629921259843
 21
0.6523070866141733
 31
0.0
 11
1.006996062992126
 21
0.6568543307086614
 31
0.0
 11
1.0121811023622047
 21
0.6611062992125985
 31
0.0
 11
1.0176141732283464
 21
0.6650629921259843
 31
0.0
 11
1.0232795275590552
 21
0.6687047244094488
 31
0.0
 11
1.0291653543307087
 21
0.6720236220472441
 31
0.0
 11
1.0352440944881889
 21
0.674996062992126
 31
0.0
 11
1.0415236220472441
 21
0.6776181102362204
 31
0.0
 11
1.0479803149606299
 21
0.6798700787401575
 31
0.0
 11
1.0546062992125984
 21
0.681751968503937
 31
0.0
 11
1.0613779527559055
 21
0.6832322834645669
 31
0.0
 11
1.0682913385826771
 21
0.6843149606299213
 31
0.0
 11
1.0753307086614172
 21
0.6849763779527559
 31
0.0
 11
1.0824842519685038
 21
0.6852086614173228
 31
0.0
 11
1.0918110236220473
 21
0.6848346456692913
 31
0.0
 11
1.1009448818897638
 21
0.6837401574803149
 31
0.0
 11
1.1098464566929134
 21
0.6819370078740158
 31
0.0
 11
1.1185
 21
0.6794685039370079
 31
0.0
 11
1.1268582677165355
 21
0.6763464566929134
 31
0.0
 11
1.1349015748031497
 21
0.6726141732283465
 31
0.0
 11
1.1425944881889765
 21
0.6682913385826772
 31
0.0
 11
1.1499173228346458
 21
0.6634133858267717
 31
0.0
 11
1.1568228346456693
 21
0.658
 31
0.0
 11
1.1632952755905512
 21
0.6520905511811024
 31
0.0
 11
1.1693031496062991
 21
0.6457047244094488
 31
0.0
 11
1.1748188976377953
 21
0.6388858267716535
 31
0.0
 11
1.1797992125984251
 21
0.6316456692913386
 31
0.0
 11
1.1842283464566929
 21
0.624023622047244
 31
0.0
 11
1.1880669291338584
 21
0.6160472440944882
 31
0.0
  0
LWPOLYLINE
  5
2C
100
AcDbEntity
  8
0
 62
     0
100
AcDbPolyline
 90
        2
 70
     0
 39
0.01389
 10
1.188067
 20
0.616047
 40
0.01389
 41
0.01389
 10
1.191299
 20
0.607748
 40
0.01389
 41
0.01389
  0
LWPOLYLINE
  5
2D
100
AcDbEntity
  8
0
 62
     0
100
AcDbPolyline
 90
        2
 70
     0
 39
0.01389
 10
1.191299
 20
0.607748
 40
0.01389
 41
0.01389
 10
1.195937
 20
0.607827
 40
0.01389
 41
0.01389
  0
SPLINE
  5
2E
100
AcDbEntity
  8
0
 62
     0
100
AcDbSpline
210
0.0
220
0.0
230
1.0
 70
     0
 71
     3
 72
     0
 73
     0
 74
    32
 44
0.0000000001
 11
1.1959370078740157
 21
0.6078267716535433
 31
0.0
 11
1.1991692913385827
 21
0.6160905511811023
 31
0.0
 11
1.2030236220472441
 21
0.6240354330708662
 31
0.0
 11
1.2074566929133859
 21
0.6316299212598425
 31
0.0
 11
1.2124488188976379
 21
0.6388503937007874
 31
0.0
 11
1.2179566929133858
 21
0.6456535433070866
 31
0.0
 11
1.2239645669291339
 21
0.6520196850393701
 31
0.0
 11
1.2304330708661417
 21
0.6579212598425197
 31
0.0
 11
1.2373425196850394
 21
0.6633307086614173
 31
0.0
 11
1.2446456692913386
 21
0.6682047244094488
 31
0.0
 11
1.2523307086614173
 21
0.6725314960629921
 31
0.0
 11
1.2603622047244094
 21
0.6762716535433071
 31
0.0
 11
1.2687125984251968
 21
0.6794015748031496
 31
0.0
 11
1.2773425196850394
 21
0.6818858267716536
 31
0.0
 11
1.2862362204724409
 21
0.6837047244094489
 31
0.0
 11
1.2953543307086615
 21
0.6848188976377952
 31
0.0
 11
1.3046771653543308
 21
0.6852086614173228
 31
0.0
 11
1.314003937007874
 21
0.6848346456692913
 31
0.0
 11
1.3231377952755905
 21
0.6837401574803149
 31
0.0
 11
1.3320393700787401
 21
0.6819370078740158
 31
0.0
 11
1.3406929133858267
 21
0.6794685039370079
 31
0.0
 11
1.3490511811023622
 21
0.6763464566929134
 31
0.0
 11
1.3570944881889764
 21
0.6726141732283465
 31
0.0
 11
1.3647874015748032
 21
0.6682913385826772
 31
0.0
 11
1.3721102362204725
 21
0.6634133858267717
 31
0.0
 11
1.379015748031496
 21
0.658
 31
0.0
 11
1.3854881889763779
 21
0.6520905511811024
 31
0.0
 11
1.391496062992126
 21
0.6457047244094488
 31
0.0
 11
1.397011811023622
 21
0.6388858267716535
 31
0.0
 11
1.401992125984252
 21
0.6316456692913386
 31
0.0
 11
1.4064212598425196
 21
0.624023622047244
 31
0.0
 11
1.4102598425196851
 21
0.6160472440944882
 31
0.0
  0
LWPOLYLINE
  5
2F
100
AcDbEntity
  8
0
 62
     0
100
AcDbPolyline
 90
        2
 70
     0
 39
0.01389
 10
1.41026
 20
0.616047
 40
0.01389
 41
0.01389
 10
1.413492
 20
0.607748
 40
0.01389
 41
0.01389
  0
LWPOLYLINE
  5
30
100
AcDbEntity
  8
0
 62
     0
100
AcDbPolyline
 90
        2
 70
     0
 39
0.01389
 10
1.413492
 20
0.607748
 40
0.01389
 41
0.01389
 10
1.418752
 20
0.607748
 40
0.01389
 41
0.01389
  0
SPLINE
  5
31
100
AcDbEntity
  8
0
 62
     0
100
AcDbSpline
210
0.0
220
0.0
230
1.0
 70
     0
 71
     3
 72
     0
 73
     0
 74
    32
 44
0.0000000001
 11
1.4187519685039369
 21
0.6077480314960631
 31
0.0
 11
1.4316181102362204
 21
0.6287992125984252
 31
0.0
 11
1.4446574803149606
 21
0.6462165354330709
 31
0.0
 11
1.4579212598425197
 21
0.6601889763779527
 31
0.0
 11
1.4715
 21
0.6709212598425197
 31
0.0
 11
1.4854527559055117
 21
0.6786062992125984
 31
0.0
 11
1.4998661417322834
 21
0.6834448818897638
 31
0.0
 11
1.5148031496062992
 21
0.6856259842519685
 31
0.0
 11
1.5303464566929135
 21
0.6853622047244095
 31
0.0
 11
1.5465551181102362
 21
0.6828346456692913
 31
0.0
 11
1.5635236220472442
 21
0.678251968503937
 31
0.0
 11
1.5813031496062993
 21
0.6718070866141732
 31
0.0
 11
1.5999881889763778
 21
0.6637047244094488
 31
0.0
 11
1.6196338582677166
 21
0.6541299212598425
 31
0.0
 11
1.6403267716535432
 21
0.6432913385826772
 31
0.0
 11
1.6621299212598426
 21
0.6313779527559055
 31
0.0
 11
1.6851299212598425
 21
0.6185984251968504
 31
0.0
 11
1.708
 21
0.6071259842519685
 31
0.0
 11
1.7294527559055117
 21
0.5988740157480315
 31
0.0
 11
1.7495590551181102
 21
0.5935905511811024
 31
0.0
 11
1.7684094488188977
 21
0.5910433070866141
 31
0.0
 11
1.7860669291338582
 21
0.59098031496063
 31
0.0
 11
1.8026259842519685
 21
0.5931653543307087
 31
0.0
 11
1.8181574803149607
 21
0.5973503937007874
 31
0.0
 11
1.8327519685039371
 21
0.6033031496062992
 31
0.0
 11
1.8464724409448818
 21
0.610763779527559
 31
0.0
 11
1.8594133858267716
 21
0.619503937007874
 31
0.0
 11
1.8716456692913386
 21
0.6292795275590551
 31
0.0
 11
1.8832598425196851
 21
0.6398464566929134
 31
0.0
 11
1.8943228346456693
 21
0.6509566929133859
 31
0.0
 11
1.9049251968503937
 21
0.6623779527559055
 31
0.0
 11
1.9151417322834645
 21
0.6738582677165355
 31
0.0
  0
LWPOLYLINE
  5
32
100
AcDbEntity
  8
0
 62
     0
100
AcDbPolyline
 90
        2
 70
     0
 39
0.01389
 10
1.915142
 20
0.673858
 40
0.01389
 41
0.01389
 10
1.925055
 20
0.685169
 40
0.01389
 41
0.01389
  0
LWPOLYLINE
  5
33
100
AcDbEntity
  8
0
 62
     0
100
AcDbPolyline
 90
        2
 70
     0
 39
0.01389
 10
1.925055
 20
0.685169
 40
0.01389
 41
0.01389
 10
2.735717
 20
0.685169
 40
0.01389
 41
0.01389
  0
LWPOLYLINE
  5
34
100
AcDbEntity
  8
0
 62
     0
100
AcDbPolyline
 90
        2
 70
     0
 39
0.01389
 10
2.735717
 20
0.685169
 40
0.01389
 41
0.01389
 10
2.857362
 20
0.685169
 40
0.01389
 41
0.01389
  0
LWPOLYLINE
  5
35
100
AcDbEntity
  8
0
 62
     0
100
AcDbPolyline
 90
        2
 70
     0
 39
0.01389
 10
2.857362
 20
0.685169
 40
0.01389
 41
0.01389
 10
2.857362
 20
-0.256531
 40
0.01389
 41
0.01389
  0
LWPOLYLINE
  5
36
100
AcDbEntity
  8
0
 62
     0
100
AcDbPolyline
 90
        2
 70
     0
 39
0.01389
 10
2.857362
 20
-0.256531
 40
0.01389
 41
0.01389
 10
-2.531425
 20
-0.257594
 40
0.01389
 41
0.01389
  0
LWPOLYLINE
  5
37
100
AcDbEntity
  8
0
 62
     0
100
AcDbPolyline
 90
        2
 70
     0
 39
0.01389
 10
-2.531425
 20
-0.257594
 40
0.01389
 41
0.01389
 10
-2.531425
 20
0.684406
 40
0.01389
 41
0.01389
  0
LWPOLYLINE
  5
38
100
AcDbEntity
  8
0
 62
     0
100
AcDbPolyline
 90
        2
 70
     0
 39
0.01389
 10
-2.531425
 20
0.684406
 40
0.01389
 41
0.01389
 10
-2.406268
 20
0.684406
 40
0.01389
 41
0.01389
  0
LWPOLYLINE
  5
39
100
AcDbEntity
  8
0
 62
     0
100
AcDbPolyline
 90
        2
 70
     0
 39
0.01389
 10
-2.406268
 20
0.684406
 40
0.01389
 41
0.01389
 10
-1.595602
 20
0.685169
 40
0.01389
 41
0.01389
  0
SPLINE
  5
3A
100
AcDbEntity
  8
0
 62
     0
100
AcDbSpline
210
0.0
220
0.0
230
1.0
 70
     0
 71
     3
 72
     0
 73
     0
 74
    32
 44
0.0000000001
 11
-1.5956023622047244
 21
0.6851692913385827
 31
0.0
 11
-1.5857125984251967
 21
0.6738582677165355
 31
0.0
 11
-1.5755748031496064
 21
0.6623779527559055
 31
0.0
 11
-1.5650905511811024
 21
0.6509566929133859
 31
0.0
 11
-1.5541850393700787
 21
0.6398464566929134
 31
0.0
 11
-1.542755905511811
 21
0.6292795275590551
 31
0.0
 11
-1.530728346456693
 21
0.619503937007874
 31
0.0
 11
-1.5180039370078739
 21
0.610763779527559
 31
0.0
 11
-1.504511811023622
 21
0.6033031496062992
 31
0.0
 11
-1.4901417322834645
 21
0.5973503937007874
 31
0.0
 11
-1.4748307086614174
 21
0.5931653543307087
 31
0.0
 11
-1.45848031496063
 21
0.59098031496063
 31
0.0
 11
-1.441003937007874
 21
0.5910433070866141
 31
0.0
 11
-1.4223110236220473
 21
0.5935905511811024
 31
0.0
 11
-1.4023228346456693
 21
0.5988740157480315
 31
0.0
 11
-1.3809488188976378
 21
0.6071259842519685
 31
0.0
 11
-1.3581062992125985
 21
0.6185984251968504
 31
0.0
 11
-1.3351062992125984
 21
0.6313779527559055
 31
0.0
 11
-1.3133031496062992
 21
0.6432913385826772
 31
0.0
 11
-1.2926102362204723
 21
0.6541299212598425
 31
0.0
 11
-1.2729645669291338
 21
0.6637047244094488
 31
0.0
 11
-1.254279527559055
 21
0.6718070866141732
 31
0.0
 11
-1.2364999999999999
 21
0.678251968503937
 31
0.0
 11
-1.2195314960629922
 21
0.6828346456692913
 31
0.0
 11
-1.2033228346456692
 21
0.6853622047244095
 31
0.0
 11
-1.187779527559055
 21
0.6856259842519685
 31
0.0
 11
-1.1728425196850394
 21
0.6834448818897638
 31
0.0
 11
-1.1584291338582677
 21
0.6786062992125984
 31
0.0
 11
-1.1444763779527558
 21
0.6709212598425197
 31
0.0
 11
-1.1308976377952755
 21
0.6601889763779527
 31
0.0
 11
-1.1176338582677166
 21
0.6462165354330709
 31
0.0
 11
-1.1045944881889764
 21
0.6287992125984252
 31
0.0
  0
LWPOLYLINE
  5
3B
100
AcDbEntity
  8
0
 62
     0
100
AcDbPolyline
 90
        2
 70
     0
 39
0.01389
 10
-1.104594
 20
0.628799
 40
0.01389
 41
0.01389
 10
-1.091728
 20
0.607748
 40
0.01389
 41
0.01389
  0
LWPOLYLINE
  5
3C
100
AcDbEntity
  8
0
 62
     0
100
AcDbPolyline
 90
        2
 70
     0
 39
0.01389
 10
-1.091728
 20
0.607748
 40
0.01389
 41
0.01389
 10
-1.086469
 20
0.607748
 40
0.01389
 41
0.01389
  0
SPLINE
  5
3D
100
AcDbEntity
  8
0
 62
     0
100
AcDbSpline
210
0.0
220
0.0
230
1.0
 70
     0
 71
     3
 72
     0
 73
     0
 74
    32
 44
0.0000000001
 11
-1.0864685039370079
 21
0.6077480314960631
 31
0.0
 11
-1.0832362204724408
 21
0.6160472440944882
 31
0.0
 11
-1.0793976377952756
 21
0.624023622047244
 31
0.0
 11
-1.0749685039370078
 21
0.6316456692913386
 31
0.0
 11
-1.069988188976378
 21
0.6388858267716535
 31
0.0
 11
-1.0644724409448818
 21
0.6457047244094488
 31
0.0
 11
-1.0584645669291339
 21
0.6520905511811024
 31
0.0
 11
-1.051992125984252
 21
0.658
 31
0.0
 11
-1.0450866141732285
 21
0.6634133858267717
 31
0.0
 11
-1.0377637795275592
 21
0.6682913385826772
 31
0.0
 11
-1.0300708661417324
 21
0.6726141732283465
 31
0.0
 11
-1.0220275590551182
 21
0.6763464566929134
 31
0.0
 11
-1.0136692913385827
 21
0.6794685039370079
 31
0.0
 11
-1.0050157480314961
 21
0.6819370078740158
 31
0.0
 11
-0.9961141732283465
 21
0.6837401574803149
 31
0.0
 11
-0.9869803149606299
 21
0.6848346456692913
 31
0.0
 11
-0.9776535433070867
 21
0.6852086614173228
 31
0.0
 11
-0.9683307086614174
 21
0.6848188976377952
 31
0.0
 11
-0.9592125984251969
 21
0.6837047244094489
 31
0.0
 11
-0.9503188976377953
 21
0.6818858267716536
 31
0.0
 11
-0.9416889763779528
 21
0.6794015748031496
 31
0.0
 11
-0.9333385826771654
 21
0.6762716535433071
 31
0.0
 11
-0.9253070866141733
 21
0.6725314960629921
 31
0.0
 11
-0.9176220472440945
 21
0.6682047244094488
 31
0.0
 11
-0.9103188976377953
 21
0.6633307086614173
 31
0.0
 11
-0.9034094488188976
 21
0.6579212598425197
 31
0.0
 11
-0.8969409448818898
 21
0.6520196850393701
 31
0.0
 11
-0.8909330708661417
 21
0.6456535433070866
 31
0.0
 11
-0.8854251968503937
 21
0.6388503937007874
 31
0.0
 11
-0.8804330708661418
 21
0.6316299212598425
 31
0.0
 11
-0.876
 21
0.6240354330708662
 31
0.0
 11
-0.8721456692913386
 21
0.6160905511811023
 31
0.0
  0
LWPOLYLINE
  5
3E
100
AcDbEntity
  8
0
 62
     0
100
AcDbPolyline
 90
        2
 70
     0
 39
0.01389
 10
-0.872146
 20
0.616091
 40
0.01389
 41
0.01389
 10
-0.868913
 20
0.607827
 40
0.01389
 41
0.01389
  0
LWPOLYLINE
  5
3F
100
AcDbEntity
  8
0
 62
     0
100
AcDbPolyline
 90
        2
 70
     0
 39
0.01389
 10
-0.868913
 20
0.607827
 40
0.01389
 41
0.01389
 10
-0.864276
 20
0.607748
 40
0.01389
 41
0.01389
  0
SPLINE
  5
40
100
AcDbEntity
  8
0
 62
     0
100
AcDbSpline
210
0.0
220
0.0
230
1.0
 70
     0
 71
     3
 72
     0
 73
     0
 74
    32
 44
0.0000000001
 11
-0.8642755905511811
 21
0.6077480314960631
 31
0.0
 11
-0.8610433070866141
 21
0.6160472440944882
 31
0.0
 11
-0.8572047244094488
 21
0.624023622047244
 31
0.0
 11
-0.8527755905511811
 21
0.6316456692913386
 31
0.0
 11
-0.8477952755905512
 21
0.6388858267716535
 31
0.0
 11
-0.8422795275590551
 21
0.6457047244094488
 31
0.0
 11
-0.8362716535433071
 21
0.6520905511811024
 31
0.0
 11
-0.8297992125984252
 21
0.658
 31
0.0
 11
-0.8228937007874015
 21
0.6634133858267717
 31
0.0
 11
-0.8155708661417322
 21
0.6682913385826772
 31
0.0
 11
-0.8078779527559055
 21
0.6726141732283465
 31
0.0
 11
-0.7998346456692913
 21
0.6763464566929134
 31
0.0
 11
-0.7914763779527559
 21
0.6794685039370079
 31
0.0
 11
-0.7828228346456693
 21
0.6819370078740158
 31
0.0
 11
-0.7739212598425197
 21
0.6837401574803149
 31
0.0
 11
-0.7647874015748032
 21
0.6848346456692913
 31
0.0
 11
-0.7554606299212598
 21
0.6852086614173228
 31
0.0
 11
-0.7483070866141732
 21
0.6849763779527559
 31
0.0
 11
-0.7412677165354331
 21
0.6843149606299213
 31
0.0
 11
-0.7343543307086614
 21
0.6832322834645669
 31
0.0
 11
-0.7275826771653543
 21
0.681751968503937
 31
0.0
 11
-0.7209566929133858
 21
0.6798700787401575
 31
0.0
 11
-0.7145
 21
0.6776181102362204
 31
0.0
 11
-0.7082204724409449
 21
0.674996062992126
 31
0.0
 11
-0.7021417322834646
 21
0.6720236220472441
 31
0.0
 11
-0.6962559055118111
 21
0.6687047244094488
 31
0.0
 11
-0.6905905511811024
 21
0.6650629921259843
 31
0.0
 11
-0.6851574803149606
 21
0.6611062992125985
 31
0.0
 11
-0.6799724409448819
 21
0.6568543307086614
 31
0.0
 11
-0.6750393700787402
 21
0.6523070866141733
 31
0.0
 11
-0.6703858267716536
 21
0.6474881889763779
 31
0.0
 11
-0.6660157480314961
 21
0.6424094488188976
 31
0.0
  0
LWPOLYLINE
  5
41
100
AcDbEntity
  8
0
 62
     0
100
AcDbPolyline
 90
        2
 70
     0
 39
0.01389
 10
-0.666016
 20
0.642409
 40
0.01389
 41
0.01389
 10
-0.661945
 20
0.637087
 40
0.01389
 41
0.01389
  0
LWPOLYLINE
  5
42
100
AcDbEntity
  8
0
 62
     0
100
AcDbPolyline
 90
        2
 70
     0
 39
0.01389
 10
-0.661945
 20
0.637087
 40
0.01389
 41
0.01389
 10
-0.642807
 20
0.637087
 40
0.01389
 41
0.01389
  0
LWPOLYLINE
  5
43
100
AcDbEntity
  8
0
 62
     0
100
AcDbPolyline
 90
        2
 70
     0
 39
0.01389
 10
-0.642807
 20
0.637087
 40
0.01389
 41
0.01389
 10
-0.618335
 20
0.693528
 40
0.01389
 41
0.01389
  0
LWPOLYLINE
  5
44
100
AcDbEntity
  8
0
 62
     0
100
AcDbPolyline
 90
        2
 70
     0
 39
0.01389
 10
-0.618335
 20
0.693528
 40
0.01389
 41
0.01389
 10
-0.339717
 20
0.693528
 40
0.01389
 41
0.01389
  0
LWPOLYLINE
  5
45
100
AcDbEntity
  8
0
 62
     0
100
AcDbPolyline
 90
        2
 70
     0
 39
0.01389
 10
-0.339717
 20
0.693528
 40
0.01389
 41
0.01389
 10
-0.195799
 20
0.558913
 40
0.01389
 41
0.01389
  0
LWPOLYLINE
  5
46
100
AcDbEntity
  8
0
 62
     0
100
AcDbPolyline
 90
        2
 70
     0
 39
0.01389
 10
-0.195799
 20
0.558913
 40
0.01389
 41
0.01389
 10
-0.184008
 20
0.558913
 40
0.01389
 41
0.01389
  0
SPLINE
  5
47
100
AcDbEntity
  8
0
 62
     0
100
AcDbSpline
210
0.0
220
0.0
230
1.0
 70
     0
 71
     3
 72
     0
 73
     0
 74
    17
 44
0.0000000001
 11
-0.184007874015748
 21
0.5589133858267716
 31
0.0
 11
-0.1673307086614173
 21
0.5783661417322835
 31
0.0
 11
-0.1473228346456693
 21
0.5957992125984252
 31
0.0
 11
-0.1245551181102362
 21
0.6113110236220473
 31
0.0
 11
-0.0995984251968504
 21
0.625011811023622
 31
0.0
 11
-0.0730157480314961
 21
0.637
 31
0.0
 11
-0.0453858267716535
 21
0.6473937007874016
 31
0.0
 11
-0.0172716535433071
 21
0.6562913385826772
 31
0.0
 11
0.010748031496063
 21
0.6638110236220473
 31
0.0
 11
0.0381141732283465
 21
0.6700354330708661
 31
0.0
 11
0.064255905511811
 21
0.6750905511811024
 31
0.0
 11
0.0885984251968504
 21
0.6790748031496063
 31
0.0
 11
0.1105866141732284
 21
0.6821023622047244
 31
0.0
 11
0.1296299212598425
 21
0.684263779527559
 31
0.0
 11
0.1451732283464567
 21
0.6856811023622047
 31
0.0
 11
0.1566377952755906
 21
0.6864527559055118
 31
0.0
 11
0.1634645669291339
 21
0.6866929133858267
 31
0.0
  0
MTEXT
  5
48
100
AcDbEntity
  8
0
 62
     0
100
AcDbMText
 10
-0.304047
 20
-0.195665
 30
0.0
 40
0.166665
 41
0.0
 71
     1
 72
     1
  1
{\fBookman Old Style|b0|i0|c0|p32;BA  1395R}
 73
     1
 44
1.0
  0
MTEXT
  5
49
100
AcDbEntity
  8
0
 62
     0
100
AcDbMText
 10
-0.304047
 20
-0.383165
 30
0.0
 40
0.166665
 41
0.0
 71
     1
 72
     1
  1
{\fBookman Old Style|b0|i0|c0|p32;1" X 5-3/8"}
 73
     1
 44
1.0
  0
MTEXT
  5
4A
100
AcDbEntity
  8
0
 62
     0
100
AcDbMText
 10
2.045528
 20
0.134122
 30
0.0
 40
0.11111
 41
0.0
 71
     1
 72
     1
  1
{\fBookman Old Style|b0|i0|c0|p32;Casing }
 73
     1
 44
1.0
  0
MTEXT
  5
4B
100
AcDbEntity
  8
0
 62
     0
100
AcDbMText
 10
2.045528
 20
0.009126
 30
0.0
 40
0.11111
 41
0.0
 71
     1
 72
     1
  1
{\fBookman Old Style|b0|i0|c0|p32;BA  1396}
 73
     1
 44
1.0
  0
ENDSEC
  0
SECTION
  2
OBJECTS
  0
DICTIONARY
  5
19
100
AcDbDictionary
280
     0
281
     1
  3
ACAD_GROUP
350
1A
  3
ACAD_MLINESTYLE
350
1B
  3
ACAD_LAYOUT
350
1E
  3
ACAD_PLOTSETTINGS
350
22
  3
ACAD_PLOTSTYLENAME
350
1F
  3
ACAD_WIPEOUT_VARS
350
23
  0
DICTIONARY
  5
1A
102
{ACAD_REACTORS
330
19
102
}
100
AcDbDictionary
280
     0
281
     1
  0
DICTIONARY
  5
1B
102
{ACAD_REACTORS
330
19
102
}
100
AcDbDictionary
280
     0
281
     1
  3
Standard
350
1C
  0
MLINESTYLE
  5
1C
102
{ACAD_REACTORS
330
1B
102
}
100
AcDbMlineStyle
  2
Standard
 70
     0
  3

 62
     0
 51
90.0
 52
90.0
 71
     2
 49
0.5
 62
   256
  6
BYLAYER
 49
-0.5
 62
   256
  6
BYLAYER
  0
ACDBDICTIONARYWDFLT
  5
1F
102
{ACAD_REACTORS
330
19
102
}
100
AcDbDictionary
281
     1
  3
Normal
350
1D
100
AcDbDictionaryWithDefault
340
1D
  0
ACDBPLACEHOLDER
  5
1D
102
{ACAD_REACTORS
330
1F
102
}
  0
LAYOUT
  5
20
102
{ACAD_REACTORS
330
1E
102
}
100
AcDbPlotSettings
  1

  2

  4

  6

 40
0.0
 41
0.0
 42
0.0
 43
0.0
 44
0.0
 45
0.0
 46
0.0
 47
0.0
 48
0.0
 49
0.0
140
0.0
141
0.0
142
1.0
143
1.0
 70
  1024
 72
     0
 73
     0
 74
     0
  7

 75
     0
147
1.0
148
0.0
149
0.0
100
AcDbLayout
  1
Model
 70
     0
 71
     0
 10
0.0
 20
0.0
 11
0.0
 21
0.0
 12
0.0
 22
0.0
 32
0.0
 14
0.0
 24
0.0
 34
0.0
 15
0.0
 25
0.0
 35
0.0
146
0.0
 13
0.0
 23
0.0
 33
0.0
 16
0.0
 26
0.0
 36
0.0
 17
0.0
 27
0.0
 37
0.0
 76
     0
330
A
331
0
345
0
346
0
  0
LAYOUT
  5
21
102
{ACAD_REACTORS
330
1E
102
}
100
AcDbPlotSettings
  1

  2

  4

  6

 40
0.0
 41
0.0
 42
0.0
 43
0.0
 44
0.0
 45
0.0
 46
0.0
 47
0.0
 48
0.0
 49
0.0
140
0.0
141
0.0
142
1.0
143
1.0
 70
     0
 72
     0
 73
     0
 74
     0
  7

 75
     0
147
1.0
148
0.0
149
0.0
100
AcDbLayout
  1
Layout1
 70
     0
 71
     0
 10
0.0
 20
0.0
 11
0.0
 21
0.0
 12
0.0
 22
0.0
 32
0.0
 14
0.0
 24
0.0
 34
0.0
 15
0.0
 25
0.0
 35
0.0
146
0.0
 13
0.0
 23
0.0
 33
0.0
 16
0.0
 26
0.0
 36
0.0
 17
0.0
 27
0.0
 37
0.0
 76
     0
330
B
331
0
345
0
346
0
  0
DICTIONARY
  5
1E
102
{ACAD_REACTORS
330
19
102
}
100
AcDbDictionary
280
     0
281
     1
  3
Layout1
350
21
  3
Model
350
20
  0
DICTIONARY
  5
22
102
{ACAD_REACTORS
330
19
102
}
100
AcDbDictionary
280
     0
281
     1
  0
WIPEOUTVARIABLES
  5
23
100
AcDbWipeoutVariables
 70
     1
  0
ENDSEC
  0
EOF
