  0
SECTION
  2
HEADER
  9
$ACADVER
  1
AC1015
  9
$ACADMAINTVER
 70
     6
  9
$DWGCODEPAGE
  3
DOS850
  9
$INSBASE
 10
0.0
 20
0.0
 30
0.0
  9
$EXTMIN
 10
1.000000E+20
 20
1.000000E+20
 30
1.000000E+20
  9
$EXTMAX
 10
-1.000000E+20
 20
-1.000000E+20
 30
-1.000000E+20
  9
$LIMMIN
 10
0.0
 20
0.0
  9
$LIMMAX
 10
0.0
 20
0.0
  9
$ORTHOMODE
 70
     0
  9
$REGENMODE
 70
     1
  9
$FILLMODE
 70
     1
  9
$QTEXTMODE
 70
     0
  9
$MIRRTEXT
 70
     1
  9
$LTSCALE
 40
1.0
  9
$ATTMODE
 70
     1
  9
$TEXTSIZE
 40
0.2
  9
$TRACEWID
 40
0.05
  9
$TEXTSTYLE
  7
Standard
  9
$CLAYER
  8
0
  9
$CELTYPE
  6
Continuous
  9
$CECOLOR
 62
   256
  9
$CELTSCALE
 40
1.0
  9
$DISPSILH
 70
     0
  9
$DIMSCALE
 40
1.0
  9
$DIMASZ
 40
0.18
  9
$DIMEXO
 40
0.0625
  9
$DIMDLI
 40
0.38
  9
$DIMRND
 40
0.0
  9
$DIMDLE
 40
0.0
  9
$DIMEXE
 40
0.18
  9
$DIMTP
 40
0.0
  9
$DIMTM
 40
0.0
  9
$DIMTXT
 40
0.18
  9
$DIMCEN
 40
0.09
  9
$DIMTSZ
 40
0.0
  9
$DIMTOL
 70
     0
  9
$DIMLIM
 70
     0
  9
$DIMTIH
 70
     1
  9
$DIMTOH
 70
     1
  9
$DIMSE1
 70
     0
  9
$DIMSE2
 70
     0
  9
$DIMTAD
 70
     0
  9
$DIMZIN
 70
     0
  9
$DIMBLK
  1

  9
$DIMASO
 70
     1
  9
$DIMSHO
 70
     1
  9
$DIMPOST
  1

  9
$DIMAPOST
  1

  9
$DIMALT
 70
     0
  9
$DIMALTD
 70
     2
  9
$DIMALTF
 40
25.4
  9
$DIMLFAC
 40
1.0
  9
$DIMTOFL
 70
     0
  9
$DIMTVP
 40
0.0
  9
$DIMTIX
 70
     0
  9
$DIMSOXD
 70
     0
  9
$DIMSAH
 70
     0
  9
$DIMBLK1
  1

  9
$DIMBLK2
  1

  9
$DIMSTYLE
  2
Standard
  9
$DIMCLRD
 70
     0
  9
$DIMCLRE
 70
     0
  9
$DIMCLRT
 70
     0
  9
$DIMTFAC
 40
1.0
  9
$DIMGAP
 40
0.09
  9
$DIMJUST
 70
     0
  9
$DIMSD1
 70
     0
  9
$DIMSD2
 70
     0
  9
$DIMTOLJ
 70
     1
  9
$DIMTZIN
 70
     0
  9
$DIMALTZ
 70
     0
  9
$DIMALTTZ
 70
     0
  9
$DIMUPT
 70
     0
  9
$DIMDEC
 70
     4
  9
$DIMTDEC
 70
     4
  9
$DIMALTU
 70
     2
  9
$DIMALTTD
 70
     2
  9
$DIMTXSTY
  7
Standard
  9
$DIMAUNIT
 70
     0
  9
$DIMADEC
 70
     0
  9
$DIMALTRND
 40
0.0
  9
$DIMAZIN
 70
     0
  9
$DIMDSEP
 70
     0
  9
$DIMATFIT
 70
     3
  9
$DIMFRAC
 70
     0
  9
$DIMLDRBLK
  1

  9
$DIMLUNIT
 70
     2
  9
$DIMLWD
 70
     0
  9
$DIMLWE
 70
     0
  9
$DIMTMOVE
 70
     0
  9
$LUNITS
 70
     2
  9
$LUPREC
 70
     4
  9
$SKETCHINC
 40
0.1
  9
$FILLETRAD
 40
0.0
  9
$AUNITS
 70
     0
  9
$AUPREC
 70
     0
  9
$MENU
  1
acad
  9
$ELEVATION
 40
0.0
  9
$PELEVATION
 40
0.0
  9
$THICKNESS
 40
0.0
  9
$LIMCHECK
 70
     0
  9
$CHAMFERA
 40
0.0
  9
$CHAMFERB
 40
0.0
  9
$CHAMFERC
 40
0.0
  9
$CHAMFERD
 40
0.0
  9
$SKPOLY
 70
     0
  9
$TDCREATE
 40
0.000000000
  9
$TDUCREATE
 40
0.000000000
  9
$TDUPDATE
 40
0.000000000
  9
$TDUUPDATE
 40
0.000000000
  9
$TDINDWG
 40
0.0000000000
  9
$TDUSRTIMER
 40
0.0000000000
  9
$USRTIMER
 70
     1
  9
$ANGBASE
 50
0.0
  9
$ANGDIR
 70
     0
  9
$PDMODE
 70
     0
  9
$PDSIZE
 40
0.0
  9
$PLINEWID
 40
0.0
  9
$SPLFRAME
 70
     0
  9
$SPLINETYPE
 70
     6
  9
$SPLINESEGS
 70
     8
  9
$HANDSEED
  5
1DA
  9
$SURFTAB1
 70
     6
  9
$SURFTAB2
 70
     6
  9
$SURFTYPE
 70
     6
  9
$SURFU
 70
     6
  9
$SURFV
 70
     6
  9
$UCSBASE
  2

  9
$UCSNAME
  2

  9
$UCSORG
 10
0.0
 20
0.0
 30
0.0
  9
$UCSXDIR
 10
1.0
 20
0.0
 30
0.0
  9
$UCSYDIR
 10
0.0
 20
1.0
 30
0.0
  9
$UCSORTHOREF
  2

  9
$UCSORTHOVIEW
 70
     0
  9
$UCSORGTOP
 10
0.0
 20
0.0
 30
0.0
  9
$UCSORGBOTTOM
 10
0.0
 20
0.0
 30
0.0
  9
$UCSORGLEFT
 10
0.0
 20
0.0
 30
0.0
  9
$UCSORGRIGHT
 10
0.0
 20
0.0
 30
0.0
  9
$UCSORGFRONT
 10
0.0
 20
0.0
 30
0.0
  9
$UCSORGBACK
 10
0.0
 20
0.0
 30
0.0
  9
$PUCSBASE
  2

  9
$PUCSNAME
  2

  9
$PUCSORG
 10
0.0
 20
0.0
 30
0.0
  9
$PUCSXDIR
 10
1.0
 20
0.0
 30
0.0
  9
$PUCSYDIR
 10
0.0
 20
1.0
 30
0.0
  9
$PUCSORTHOREF
  2

  9
$PUCSORTHOVIEW
 70
     0
  9
$PUCSORGTOP
 10
0.0
 20
0.0
 30
0.0
  9
$PUCSORGBOTTOM
 10
0.0
 20
0.0
 30
0.0
  9
$PUCSORGLEFT
 10
0.0
 20
0.0
 30
0.0
  9
$PUCSORGRIGHT
 10
0.0
 20
0.0
 30
0.0
  9
$PUCSORGFRONT
 10
0.0
 20
0.0
 30
0.0
  9
$PUCSORGBACK
 10
0.0
 20
0.0
 30
0.0
  9
$USERI1
 70
     0
  9
$USERI2
 70
     0
  9
$USERI3
 70
     0
  9
$USERI4
 70
     0
  9
$USERI5
 70
     0
  9
$USERR1
 40
0.0
  9
$USERR2
 40
0.0
  9
$USERR3
 40
0.0
  9
$USERR4
 40
0.0
  9
$USERR5
 40
0.0
  9
$WORLDVIEW
 70
     1
  9
$SHADEDGE
 70
     3
  9
$SHADEDIF
 70
    70
  9
$TILEMODE
 70
     1
  9
$MAXACTVP
 70
    16
  9
$PINSBASE
 10
0.0
 20
0.0
 30
0.0
  9
$PLIMCHECK
 70
     0
  9
$PEXTMIN
 10
1.000000E+20
 20
1.000000E+20
 30
1.000000E+20
  9
$PEXTMAX
 10
-1.000000E+20
 20
-1.000000E+20
 30
-1.000000E+20
  9
$PLIMMIN
 10
0.0
 20
0.0
  9
$PLIMMAX
 10
12.0
 20
9.0
  9
$UNITMODE
 70
     0
  9
$VISRETAIN
 70
     0
  9
$PLINEGEN
 70
     1
  9
$PSLTSCALE
 70
     0
  9
$TREEDEPTH
 70
  3020
  9
$CMLSTYLE
  2
Standard
  9
$CMLJUST
 70
     0
  9
$CMLSCALE
 40
1.0
  9
$PROXYGRAPHICS
 70
     0
  9
$MEASUREMENT
 70
     0
  9
$CELWEIGHT
370
     0
  9
$ENDCAPS
280
     0
  9
$JOINSTYLE
280
     0
  9
$LWDISPLAY
290
     0
  9
$INSUNITS
 70
     0
  9
$HYPERLINKBASE
  1

  9
$XEDIT
290
     1
  9
$CEPSNTYPE
380
     0
  9
$PSTYLEMODE
290
     1
  9
$FINGERPRINTGUID
  2

  9
$VERSIONGUID
  2

  9
$EXTNAMES
290
     1
  9
$PSVPSCALE
 40
0.0
  0
ENDSEC
  0
SECTION
  2
CLASSES
  0
CLASS
  1
LWPOLYLINE
  2
AcDbPolyline
  3
AutoCAD 2000
 90
        0
280
     0
281
     1
  0
CLASS
  1
IMAGE
  2
AcDbRasterImage
  3
ISM
 90
    32895
280
     0
281
     1
  0
CLASS
  1
OLE2FRAME
  2
AcDbOle2Frame
  3
AutoCAD 2000
 90
    32768
280
     0
281
     1
  0
CLASS
  1
HATCH
  2
AcDbHatch
  3
AutoCAD 2000
 90
    32768
280
     0
281
     1
  0
CLASS
  1
DICTIONARYVAR
  2
AcDbDictionaryVar
  3
AutoCAD 2000
 90
    32768
280
     0
281
     0
  0
CLASS
  1
RASTERVARIABLES
  2
AcDbRasterVariables
  3
ISM
 90
    32768
280
     0
281
     0
  0
CLASS
  1
IMAGEDEF
  2
AcDbRasterImageDef
  3
ISM
 90
    32768
280
     0
281
     0
  0
CLASS
  1
IMAGEDEF_REACTOR
  2
AcDbRasterImageDefReactor
  3
ISM
 90
    32769
280
     0
281
     0
  0
CLASS
  1
IDBUFFER
  2
AcDbIdBuffer
  3
AutoCAD 2000
 90
    32768
280
     0
281
     0
  0
CLASS
  1
SPATIAL_FILTER
  2
AcDbSpatialFilter
  3
AutoCAD 2000
 90
    32768
280
     0
281
     0
  0
CLASS
  1
XRECORD
  2
AcDbXrecord
  3
AutoCAD 2000
 90
    32768
280
     0
281
     0
  0
CLASS
  1
SORTENTSTABLE
  2
AcDbSortentsTable
  3
AutoCAD 2000
 90
    32768
280
     0
281
     0
  0
CLASS
  1
LAYER_INDEX
  2
AcDbLayerIndex
  3
AutoCAD 2000
 90
    32768
280
     0
281
     0
  0
CLASS
  1
SPATIAL_INDEX
  2
AcDbSpatialIndex
  3
AutoCAD 2000
 90
    32768
280
     0
281
     0
  0
CLASS
  1
OBJECT_PTR
  2
CAseDLPNTableRecord
  3
"ASE-LPNTableRecord"
 90
    32769
280
     0
281
     0
  0
CLASS
  1
LAYOUT
  2
AcDbLayout
  3
AutoCAD 2000
 90
        0
280
     0
281
     0
  0
CLASS
  1
PLOTSETTINGS
  2
AcDbPlotSettings
  3
AutoCAD 2000
 90
    32768
280
     0
281
     0
  0
CLASS
  1
ACDBDICTIONARYWDFLT
  2
AcDbDictionaryWithDefault
  3
AutoCAD 2000
 90
        0
280
     0
281
     0
  0
CLASS
  1
ACDBPLACEHOLDER
  2
AcDbPlaceHolder
  3
AutoCAD 2000
 90
        0
280
     0
281
     0
  0
CLASS
  1
VBA_PROJECT
  2
AcDbVbaProject
  3
acadvba
 90
    32768
280
     0
281
     0
  0
CLASS
  1
WIPEOUT
  2
AcDbWipeout
  3
WipeOut|AutoCAD Express Tool|expresstools@autodesk.com
 90
    32895
280
     0
281
     1
  0
CLASS
  1
WIPEOUTVARIABLES
  2
AcDbWipeoutVariables
  3
WipeOut|AutoCAD Express Tool|expresstools@autodesk.com
 90
        0
280
     0
281
     0
  0
CLASS
  1
RTEXT
  2
RText
  3
RText|AutoCAD Express Tool|expresstools@autodesk.com
 90
    32768
280
     0
281
     1
  0
CLASS
  1
ARCALIGNEDTEXT
  2
AcDbArcAlignedText
  3
ATEXT|AutoCAD Express Tool|expresstools@autodesk.com
 90
    32768
280
     0
281
     1
  0
ENDSEC
  0
SECTION
  2
TABLES
  0
TABLE
  2
VPORT
  5
7
100
AcDbSymbolTable
 70
     1
  0
VPORT
  5
15
100
AcDbSymbolTableRecord
100
AcDbViewportTableRecord
  2
*ACTIVE
 70
     0
 10
0.0
 20
0.0
 11
1.0
 21
1.0
 12
6.591288
 22
4.579184
 13
0.0
 23
0.0
 14
1.0
 24
1.0
 15
0.0
 25
0.0
 16
0.0
 26
0.0
 36
1.0
 17
0.0
 27
0.0
 37
0.0
 40
9.158369
 41
0.688564
 42
50.0
 43
0.0
 44
0.0
 50
0.0
 51
0.0
 71
     0
 72
   100
 73
     1
 74
     1
 75
     0
 76
     0
 77
     0
 78
     0
281
     0
 65
     0
110
0.0
120
0.0
130
0.0
111
1.0
121
0.0
131
0.0
112
0.0
122
1.0
132
0.0
345
0
346
0
 79
     0
146
0.0
  0
ENDTAB
  0
TABLE
  2
LTYPE
  5
4
100
AcDbSymbolTable
 70
     3
  0
LTYPE
  5
11
100
AcDbSymbolTableRecord
100
AcDbLinetypeTableRecord
  2
ByBlock
 70
    64
  3

 72
    65
 73
     0
 40
0.0
  0
LTYPE
  5
12
100
AcDbSymbolTableRecord
100
AcDbLinetypeTableRecord
  2
ByLayer
 70
    64
  3

 72
    65
 73
     0
 40
0.0
  0
LTYPE
  5
13
100
AcDbSymbolTableRecord
100
AcDbLinetypeTableRecord
  2
Continuous
 70
    64
  3
Solid line
 72
    65
 73
     0
 40
0.0
  0
ENDTAB
  0
TABLE
  2
LAYER
  5
2
100
AcDbSymbolTable
 70
     1
  0
LAYER
  5
14
100
AcDbSymbolTableRecord
100
AcDbLayerTableRecord
  2
0
 70
     0
 62
     7
  6
Continuous
290
     1
370
    -3
390
1D
  0
ENDTAB
  0
TABLE
  2
STYLE
  5
3
100
AcDbSymbolTable
 70
     1
  0
STYLE
  5
17
100
AcDbSymbolTableRecord
100
AcDbTextStyleTableRecord
  2
Standard
 70
     0
 40
0.0
 41
1.0
 50
0.0
 71
     0
 42
0.0
  3
txt
  4

  0
ENDTAB
  0
TABLE
  2
VIEW
  5
5
100
AcDbSymbolTable
 70
     0
  0
ENDTAB
  0
TABLE
  2
UCS
  5
6
100
AcDbSymbolTable
 70
     0
  0
ENDTAB
  0
TABLE
  2
APPID
  5
8
100
AcDbSymbolTable
 70
     1
  0
APPID
  5
16
100
AcDbSymbolTableRecord
100
AcDbRegAppTableRecord
  2
ACAD
 70
     0
  0
ENDTAB
  0
TABLE
  2
DIMSTYLE
  5
9
100
AcDbSymbolTable
 70
     1
100
AcDbDimStyleTable
 71
     0
  0
DIMSTYLE
105
18
100
AcDbSymbolTableRecord
100
AcDbDimStyleTableRecord
  2
Standard
 70
     0
  3

  4

 40
1.0
 41
0.18
 42
0.0625
 43
0.38
 44
0.18
 45
0.0
 46
0.0
 47
0.0
 48
0.0
 71
     0
 72
     0
 73
     1
 74
     1
 75
     0
 76
     0
 77
     0
 78
     0
 79
     0
140
0.18
141
0.09
142
0.0
143
25.4
144
1.0
145
0.0
146
1.0
147
0.09
148
0.0
170
     0
171
     2
172
     0
173
     0
174
     0
175
     0
176
     0
177
     0
178
     0
179
     0
271
     4
272
     4
273
     2
274
     2
275
     0
276
     0
277
     2
278
    46
279
     0
280
     0
281
     0
282
     0
283
     1
284
     0
285
     0
286
     0
288
     0
340
17
341
0
342
0
343
0
344
0
371
    -2
372
    -2
  0
ENDTAB
  0
TABLE
  2
BLOCK_RECORD
  5
1
100
AcDbSymbolTable
 70
     0
  0
BLOCK_RECORD
  5
A
100
AcDbSymbolTableRecord
100
AcDbBlockTableRecord
  2
*MODEL_SPACE
340
20
  0
BLOCK_RECORD
  5
B
100
AcDbSymbolTableRecord
100
AcDbBlockTableRecord
  2
*PAPER_SPACE
340
21
  0
ENDTAB
  0
ENDSEC
  0
SECTION
  2
BLOCKS
  0
BLOCK
  5
D
100
AcDbEntity
  8
0
100
AcDbBlockBegin
  2
*MODEL_SPACE
 70
     0
 10
0.0
 20
0.0
 30
0.0
  3
*MODEL_SPACE
  1

  0
ENDBLK
  5
E
100
AcDbEntity
  8
0
100
AcDbBlockEnd
  0
BLOCK
  5
F
100
AcDbEntity
 67
     1
  8
0
100
AcDbBlockBegin
  2
*PAPER_SPACE
 70
     0
 10
0.0
 20
0.0
 30
0.0
  3
*PAPER_SPACE
  1

  0
ENDBLK
  5
10
100
AcDbEntity
 67
     1
  8
0
100
AcDbBlockEnd
  0
ENDSEC
  0
SECTION
  2
ENTITIES
  0
LWPOLYLINE
  5
24
100
AcDbEntity
  8
0
 62
     0
100
AcDbPolyline
 90
        2
 70
     0
 39
0.003
 10
-0.237783
 20
1.75889
 40
0.003
 41
0.003
 10
0.762276
 20
1.75889
 40
0.003
 41
0.003
  0
LWPOLYLINE
  5
25
100
AcDbEntity
  8
0
 62
     0
100
AcDbPolyline
 90
        2
 70
     0
 39
0.003
 10
0.762276
 20
1.75889
 40
0.003
 41
0.003
 10
0.762276
 20
2.009976
 40
0.003
 41
0.003
  0
LWPOLYLINE
  5
26
100
AcDbEntity
  8
0
 62
     0
100
AcDbPolyline
 90
        2
 70
     0
 39
0.003
 10
0.762276
 20
2.009976
 40
0.003
 41
0.003
 10
0.58876
 20
2.011232
 40
0.003
 41
0.003
  0
SPLINE
  5
27
100
AcDbEntity
  8
0
 62
     0
100
AcDbSpline
210
0.0
220
0.0
230
1.0
 70
     0
 71
     3
 72
     0
 73
     0
 74
    16
 44
0.0000000001
 11
0.5887598425196851
 21
2.0112322834645671
 31
0.0
 11
0.5751456692913386
 21
2.0543188976377951
 31
0.0
 11
0.5535590551181102
 21
2.0941456692913385
 31
0.0
 11
0.5250354330708661
 21
2.1301102362204722
 31
0.0
 11
0.4906338582677166
 21
2.1616181102362204
 31
0.0
 11
0.4513897637795276
 21
2.1880669291338584
 31
0.0
 11
0.4083661417322835
 21
2.2088661417322837
 31
0.0
 11
0.3626023622047244
 21
2.2234173228346457
 31
0.0
 11
0.3151535433070866
 21
2.2311259842519684
 31
0.0
 11
0.2670551181102362
 21
2.2313818897637794
 31
0.0
 11
0.2193740157480315
 21
2.2236023622047245
 31
0.0
 11
0.1731417322834646
 21
2.2071889763779526
 31
0.0
 11
0.1294251968503937
 21
2.1815433070866144
 31
0.0
 11
0.089255905511811
 21
2.1460590551181102
 31
0.0
 11
0.0536929133858268
 21
2.1001574803149605
 31
0.0
 11
0.0237795275590551
 21
2.0432283464566927
 31
0.0
  0
LWPOLYLINE
  5
28
100
AcDbEntity
  8
0
 62
     0
100
AcDbPolyline
 90
        2
 70
     0
 39
0.003
 10
0.02378
 20
2.043228
 40
0.003
 41
0.003
 10
0.000571
 20
1.974685
 40
0.003
 41
0.003
  0
LWPOLYLINE
  5
29
100
AcDbEntity
  8
0
 62
     0
100
AcDbPolyline
 90
        2
 70
     0
 39
0.003
 10
0.000571
 20
1.974685
 40
0.003
 41
0.003
 10
-0.238803
 20
1.974685
 40
0.003
 41
0.003
  0
LWPOLYLINE
  5
2A
100
AcDbEntity
  8
0
 62
     0
100
AcDbPolyline
 90
        2
 70
     0
 39
0.003
 10
-0.238803
 20
1.974685
 40
0.003
 41
0.003
 10
-0.237783
 20
1.75889
 40
0.003
 41
0.003
  0
MTEXT
  5
2B
100
AcDbEntity
  8
0
 62
     0
100
AcDbMText
 10
-0.344272
 20
1.862953
 30
0.0
 40
0.166665
 41
0.0
 71
     1
 72
     1
  1
{\fBookman Old Style|b0|i0|c0|p32;BA  1390}
 73
     1
 44
1.0
  0
MTEXT
  5
2C
100
AcDbEntity
  8
0
 62
     0
100
AcDbMText
 10
-0.344272
 20
1.675453
 30
0.0
 40
0.166665
 41
0.0
 71
     1
 72
     1
  1
{\fBookman Old Style|b0|i0|c0|p32;?"x 1" }
 73
     1
 44
1.0
  0
LWPOLYLINE
  5
2D
100
AcDbEntity
  8
0
 62
     9
100
AcDbPolyline
 90
        2
 70
     0
 39
0.003
 10
0.762539
 20
0.064717
 40
0.003
 41
0.003
 10
0.762283
 20
0.814717
 40
0.003
 41
0.003
  0
LWPOLYLINE
  5
2E
100
AcDbEntity
  8
0
 62
     9
100
AcDbPolyline
 90
        2
 70
     0
 39
0.003
 10
0.762283
 20
0.814717
 40
0.003
 41
0.003
 10
0.588768
 20
0.815972
 40
0.003
 41
0.003
  0
LWPOLYLINE
  5
2F
100
AcDbEntity
  8
0
 62
     9
100
AcDbPolyline
 90
        2
 70
     0
 39
0.003
 10
0.588768
 20
0.815972
 40
0.003
 41
0.003
 10
0.589024
 20
0.065972
 40
0.003
 41
0.003
  0
LWPOLYLINE
  5
30
100
AcDbEntity
  8
0
 62
     9
100
AcDbPolyline
 90
        2
 70
     0
 39
0.003
 10
0.589024
 20
0.065972
 40
0.003
 41
0.003
 10
0.762539
 20
0.064717
 40
0.003
 41
0.003
  0
LWPOLYLINE
  5
31
100
AcDbEntity
  8
0
 62
     0
100
AcDbPolyline
 90
        2
 70
     0
 39
0.003
 10
0.762539
 20
0.064717
 40
0.003
 41
0.003
 10
0.762283
 20
0.814717
 40
0.003
 41
0.003
  0
LWPOLYLINE
  5
32
100
AcDbEntity
  8
0
 62
     0
100
AcDbPolyline
 90
        2
 70
     0
 39
0.003
 10
0.762283
 20
0.814717
 40
0.003
 41
0.003
 10
0.588768
 20
0.815972
 40
0.003
 41
0.003
  0
LWPOLYLINE
  5
33
100
AcDbEntity
  8
0
 62
     0
100
AcDbPolyline
 90
        2
 70
     0
 39
0.003
 10
0.588768
 20
0.815972
 40
0.003
 41
0.003
 10
0.589024
 20
0.065972
 40
0.003
 41
0.003
  0
LWPOLYLINE
  5
34
100
AcDbEntity
  8
0
 62
     0
100
AcDbPolyline
 90
        2
 70
     0
 39
0.003
 10
0.589024
 20
0.065972
 40
0.003
 41
0.003
 10
0.762539
 20
0.064717
 40
0.003
 41
0.003
  0
LWPOLYLINE
  5
35
100
AcDbEntity
  8
0
 62
   254
100
AcDbPolyline
 90
        2
 70
     0
 39
0.003
 10
0.589024
 20
0.065972
 40
0.003
 41
0.003
 10
0.588768
 20
0.815972
 40
0.003
 41
0.003
  0
LWPOLYLINE
  5
36
100
AcDbEntity
  8
0
 62
   254
100
AcDbPolyline
 90
        2
 70
     0
 39
0.003
 10
0.588768
 20
0.815972
 40
0.003
 41
0.003
 10
0.58302
 20
0.837882
 40
0.003
 41
0.003
  0
LWPOLYLINE
  5
37
100
AcDbEntity
  8
0
 62
   254
100
AcDbPolyline
 90
        2
 70
     0
 39
0.003
 10
0.58302
 20
0.837882
 40
0.003
 41
0.003
 10
0.583276
 20
0.087882
 40
0.003
 41
0.003
  0
LWPOLYLINE
  5
38
100
AcDbEntity
  8
0
 62
   254
100
AcDbPolyline
 90
        2
 70
     0
 39
0.003
 10
0.583276
 20
0.087882
 40
0.003
 41
0.003
 10
0.589024
 20
0.065972
 40
0.003
 41
0.003
  0
LWPOLYLINE
  5
39
100
AcDbEntity
  8
0
 62
   254
100
AcDbPolyline
 90
        2
 70
     0
 39
0.003
 10
0.583276
 20
0.087882
 40
0.003
 41
0.003
 10
0.58302
 20
0.837882
 40
0.003
 41
0.003
  0
LWPOLYLINE
  5
3A
100
AcDbEntity
  8
0
 62
   254
100
AcDbPolyline
 90
        2
 70
     0
 39
0.003
 10
0.58302
 20
0.837882
 40
0.003
 41
0.003
 10
0.575154
 20
0.859059
 40
0.003
 41
0.003
  0
LWPOLYLINE
  5
3B
100
AcDbEntity
  8
0
 62
   254
100
AcDbPolyline
 90
        2
 70
     0
 39
0.003
 10
0.575154
 20
0.859059
 40
0.003
 41
0.003
 10
0.575409
 20
0.109059
 40
0.003
 41
0.003
  0
LWPOLYLINE
  5
3C
100
AcDbEntity
  8
0
 62
   254
100
AcDbPolyline
 90
        2
 70
     0
 39
0.003
 10
0.575409
 20
0.109059
 40
0.003
 41
0.003
 10
0.583276
 20
0.087882
 40
0.003
 41
0.003
  0
LWPOLYLINE
  5
3D
100
AcDbEntity
  8
0
 62
   254
100
AcDbPolyline
 90
        2
 70
     0
 39
0.003
 10
0.575409
 20
0.109059
 40
0.003
 41
0.003
 10
0.575154
 20
0.859059
 40
0.003
 41
0.003
  0
LWPOLYLINE
  5
3E
100
AcDbEntity
  8
0
 62
   254
100
AcDbPolyline
 90
        2
 70
     0
 39
0.003
 10
0.575154
 20
0.859059
 40
0.003
 41
0.003
 10
0.565287
 20
0.879417
 40
0.003
 41
0.003
  0
LWPOLYLINE
  5
3F
100
AcDbEntity
  8
0
 62
   254
100
AcDbPolyline
 90
        2
 70
     0
 39
0.003
 10
0.565287
 20
0.879417
 40
0.003
 41
0.003
 10
0.565543
 20
0.129417
 40
0.003
 41
0.003
  0
LWPOLYLINE
  5
40
100
AcDbEntity
  8
0
 62
   254
100
AcDbPolyline
 90
        2
 70
     0
 39
0.003
 10
0.565543
 20
0.129417
 40
0.003
 41
0.003
 10
0.575409
 20
0.109059
 40
0.003
 41
0.003
  0
LWPOLYLINE
  5
41
100
AcDbEntity
  8
0
 62
   254
100
AcDbPolyline
 90
        2
 70
     0
 39
0.003
 10
0.565543
 20
0.129417
 40
0.003
 41
0.003
 10
0.565287
 20
0.879417
 40
0.003
 41
0.003
  0
LWPOLYLINE
  5
42
100
AcDbEntity
  8
0
 62
   254
100
AcDbPolyline
 90
        2
 70
     0
 39
0.003
 10
0.565287
 20
0.879417
 40
0.003
 41
0.003
 10
0.553567
 20
0.898886
 40
0.003
 41
0.003
  0
LWPOLYLINE
  5
43
100
AcDbEntity
  8
0
 62
   254
100
AcDbPolyline
 90
        2
 70
     0
 39
0.003
 10
0.553567
 20
0.898886
 40
0.003
 41
0.003
 10
0.553823
 20
0.148886
 40
0.003
 41
0.003
  0
LWPOLYLINE
  5
44
100
AcDbEntity
  8
0
 62
   254
100
AcDbPolyline
 90
        2
 70
     0
 39
0.003
 10
0.553823
 20
0.148886
 40
0.003
 41
0.003
 10
0.565543
 20
0.129417
 40
0.003
 41
0.003
  0
LWPOLYLINE
  5
45
100
AcDbEntity
  8
0
 62
   254
100
AcDbPolyline
 90
        2
 70
     0
 39
0.003
 10
0.553823
 20
0.148886
 40
0.003
 41
0.003
 10
0.553567
 20
0.898886
 40
0.003
 41
0.003
  0
LWPOLYLINE
  5
46
100
AcDbEntity
  8
0
 62
   254
100
AcDbPolyline
 90
        2
 70
     0
 39
0.003
 10
0.553567
 20
0.898886
 40
0.003
 41
0.003
 10
0.540102
 20
0.917382
 40
0.003
 41
0.003
  0
LWPOLYLINE
  5
47
100
AcDbEntity
  8
0
 62
   254
100
AcDbPolyline
 90
        2
 70
     0
 39
0.003
 10
0.540102
 20
0.917382
 40
0.003
 41
0.003
 10
0.540358
 20
0.167382
 40
0.003
 41
0.003
  0
LWPOLYLINE
  5
48
100
AcDbEntity
  8
0
 62
   254
100
AcDbPolyline
 90
        2
 70
     0
 39
0.003
 10
0.540358
 20
0.167382
 40
0.003
 41
0.003
 10
0.553823
 20
0.148886
 40
0.003
 41
0.003
  0
LWPOLYLINE
  5
49
100
AcDbEntity
  8
0
 62
   254
100
AcDbPolyline
 90
        2
 70
     0
 39
0.003
 10
0.540358
 20
0.167382
 40
0.003
 41
0.003
 10
0.540102
 20
0.917382
 40
0.003
 41
0.003
  0
LWPOLYLINE
  5
4A
100
AcDbEntity
  8
0
 62
   254
100
AcDbPolyline
 90
        2
 70
     0
 39
0.003
 10
0.540102
 20
0.917382
 40
0.003
 41
0.003
 10
0.525043
 20
0.93485
 40
0.003
 41
0.003
  0
LWPOLYLINE
  5
4B
100
AcDbEntity
  8
0
 62
   254
100
AcDbPolyline
 90
        2
 70
     0
 39
0.003
 10
0.525043
 20
0.93485
 40
0.003
 41
0.003
 10
0.525299
 20
0.18485
 40
0.003
 41
0.003
  0
LWPOLYLINE
  5
4C
100
AcDbEntity
  8
0
 62
   254
100
AcDbPolyline
 90
        2
 70
     0
 39
0.003
 10
0.525299
 20
0.18485
 40
0.003
 41
0.003
 10
0.540358
 20
0.167382
 40
0.003
 41
0.003
  0
LWPOLYLINE
  5
4D
100
AcDbEntity
  8
0
 62
   254
100
AcDbPolyline
 90
        2
 70
     0
 39
0.003
 10
0.525299
 20
0.18485
 40
0.003
 41
0.003
 10
0.525043
 20
0.93485
 40
0.003
 41
0.003
  0
LWPOLYLINE
  5
4E
100
AcDbEntity
  8
0
 62
   254
100
AcDbPolyline
 90
        2
 70
     0
 39
0.003
 10
0.525043
 20
0.93485
 40
0.003
 41
0.003
 10
0.508512
 20
0.951197
 40
0.003
 41
0.003
  0
LWPOLYLINE
  5
4F
100
AcDbEntity
  8
0
 62
   254
100
AcDbPolyline
 90
        2
 70
     0
 39
0.003
 10
0.508512
 20
0.951197
 40
0.003
 41
0.003
 10
0.508768
 20
0.201197
 40
0.003
 41
0.003
  0
LWPOLYLINE
  5
50
100
AcDbEntity
  8
0
 62
   254
100
AcDbPolyline
 90
        2
 70
     0
 39
0.003
 10
0.508768
 20
0.201197
 40
0.003
 41
0.003
 10
0.525299
 20
0.18485
 40
0.003
 41
0.003
  0
LWPOLYLINE
  5
51
100
AcDbEntity
  8
0
 62
   254
100
AcDbPolyline
 90
        2
 70
     0
 39
0.003
 10
0.508768
 20
0.201197
 40
0.003
 41
0.003
 10
0.508512
 20
0.951197
 40
0.003
 41
0.003
  0
LWPOLYLINE
  5
52
100
AcDbEntity
  8
0
 62
   254
100
AcDbPolyline
 90
        2
 70
     0
 39
0.003
 10
0.508512
 20
0.951197
 40
0.003
 41
0.003
 10
0.490642
 20
0.966358
 40
0.003
 41
0.003
  0
LWPOLYLINE
  5
53
100
AcDbEntity
  8
0
 62
   254
100
AcDbPolyline
 90
        2
 70
     0
 39
0.003
 10
0.490642
 20
0.966358
 40
0.003
 41
0.003
 10
0.490898
 20
0.216358
 40
0.003
 41
0.003
  0
LWPOLYLINE
  5
54
100
AcDbEntity
  8
0
 62
   254
100
AcDbPolyline
 90
        2
 70
     0
 39
0.003
 10
0.490898
 20
0.216358
 40
0.003
 41
0.003
 10
0.508768
 20
0.201197
 40
0.003
 41
0.003
  0
LWPOLYLINE
  5
55
100
AcDbEntity
  8
0
 62
   254
100
AcDbPolyline
 90
        2
 70
     0
 39
0.003
 10
0.490898
 20
0.216358
 40
0.003
 41
0.003
 10
0.490642
 20
0.966358
 40
0.003
 41
0.003
  0
LWPOLYLINE
  5
56
100
AcDbEntity
  8
0
 62
   254
100
AcDbPolyline
 90
        2
 70
     0
 39
0.003
 10
0.490642
 20
0.966358
 40
0.003
 41
0.003
 10
0.471555
 20
0.980252
 40
0.003
 41
0.003
  0
LWPOLYLINE
  5
57
100
AcDbEntity
  8
0
 62
   254
100
AcDbPolyline
 90
        2
 70
     0
 39
0.003
 10
0.471555
 20
0.980252
 40
0.003
 41
0.003
 10
0.471811
 20
0.230252
 40
0.003
 41
0.003
  0
LWPOLYLINE
  5
58
100
AcDbEntity
  8
0
 62
   254
100
AcDbPolyline
 90
        2
 70
     0
 39
0.003
 10
0.471811
 20
0.230252
 40
0.003
 41
0.003
 10
0.490898
 20
0.216358
 40
0.003
 41
0.003
  0
LWPOLYLINE
  5
59
100
AcDbEntity
  8
0
 62
   254
100
AcDbPolyline
 90
        2
 70
     0
 39
0.003
 10
0.471811
 20
0.230252
 40
0.003
 41
0.003
 10
0.471555
 20
0.980252
 40
0.003
 41
0.003
  0
LWPOLYLINE
  5
5A
100
AcDbEntity
  8
0
 62
   254
100
AcDbPolyline
 90
        2
 70
     0
 39
0.003
 10
0.471555
 20
0.980252
 40
0.003
 41
0.003
 10
0.451398
 20
0.992807
 40
0.003
 41
0.003
  0
LWPOLYLINE
  5
5B
100
AcDbEntity
  8
0
 62
   254
100
AcDbPolyline
 90
        2
 70
     0
 39
0.003
 10
0.451398
 20
0.992807
 40
0.003
 41
0.003
 10
0.451654
 20
0.242807
 40
0.003
 41
0.003
  0
LWPOLYLINE
  5
5C
100
AcDbEntity
  8
0
 62
   254
100
AcDbPolyline
 90
        2
 70
     0
 39
0.003
 10
0.451654
 20
0.242807
 40
0.003
 41
0.003
 10
0.471811
 20
0.230252
 40
0.003
 41
0.003
  0
LWPOLYLINE
  5
5D
100
AcDbEntity
  8
0
 62
   254
100
AcDbPolyline
 90
        2
 70
     0
 39
0.003
 10
0.451654
 20
0.242807
 40
0.003
 41
0.003
 10
0.451398
 20
0.992807
 40
0.003
 41
0.003
  0
LWPOLYLINE
  5
5E
100
AcDbEntity
  8
0
 62
   254
100
AcDbPolyline
 90
        2
 70
     0
 39
0.003
 10
0.451398
 20
0.992807
 40
0.003
 41
0.003
 10
0.430291
 20
1.003945
 40
0.003
 41
0.003
  0
LWPOLYLINE
  5
5F
100
AcDbEntity
  8
0
 62
   254
100
AcDbPolyline
 90
        2
 70
     0
 39
0.003
 10
0.430291
 20
1.003945
 40
0.003
 41
0.003
 10
0.430547
 20
0.253945
 40
0.003
 41
0.003
  0
LWPOLYLINE
  5
60
100
AcDbEntity
  8
0
 62
   254
100
AcDbPolyline
 90
        2
 70
     0
 39
0.003
 10
0.430547
 20
0.253945
 40
0.003
 41
0.003
 10
0.451654
 20
0.242807
 40
0.003
 41
0.003
  0
LWPOLYLINE
  5
61
100
AcDbEntity
  8
0
 62
   254
100
AcDbPolyline
 90
        2
 70
     0
 39
0.003
 10
0.430547
 20
0.253945
 40
0.003
 41
0.003
 10
0.430291
 20
1.003945
 40
0.003
 41
0.003
  0
LWPOLYLINE
  5
62
100
AcDbEntity
  8
0
 62
   254
100
AcDbPolyline
 90
        2
 70
     0
 39
0.003
 10
0.430291
 20
1.003945
 40
0.003
 41
0.003
 10
0.408378
 20
1.013606
 40
0.003
 41
0.003
  0
LWPOLYLINE
  5
63
100
AcDbEntity
  8
0
 62
   254
100
AcDbPolyline
 90
        2
 70
     0
 39
0.003
 10
0.408378
 20
1.013606
 40
0.003
 41
0.003
 10
0.408634
 20
0.263606
 40
0.003
 41
0.003
  0
LWPOLYLINE
  5
64
100
AcDbEntity
  8
0
 62
   254
100
AcDbPolyline
 90
        2
 70
     0
 39
0.003
 10
0.408634
 20
0.263606
 40
0.003
 41
0.003
 10
0.430547
 20
0.253945
 40
0.003
 41
0.003
  0
LWPOLYLINE
  5
65
100
AcDbEntity
  8
0
 62
   254
100
AcDbPolyline
 90
        2
 70
     0
 39
0.003
 10
0.408634
 20
0.263606
 40
0.003
 41
0.003
 10
0.408378
 20
1.013606
 40
0.003
 41
0.003
  0
LWPOLYLINE
  5
66
100
AcDbEntity
  8
0
 62
   254
100
AcDbPolyline
 90
        2
 70
     0
 39
0.003
 10
0.408378
 20
1.013606
 40
0.003
 41
0.003
 10
0.385768
 20
1.021697
 40
0.003
 41
0.003
  0
LWPOLYLINE
  5
67
100
AcDbEntity
  8
0
 62
   254
100
AcDbPolyline
 90
        2
 70
     0
 39
0.003
 10
0.385768
 20
1.021697
 40
0.003
 41
0.003
 10
0.386024
 20
0.271697
 40
0.003
 41
0.003
  0
LWPOLYLINE
  5
68
100
AcDbEntity
  8
0
 62
   254
100
AcDbPolyline
 90
        2
 70
     0
 39
0.003
 10
0.386024
 20
0.271697
 40
0.003
 41
0.003
 10
0.408634
 20
0.263606
 40
0.003
 41
0.003
  0
LWPOLYLINE
  5
69
100
AcDbEntity
  8
0
 62
     9
100
AcDbPolyline
 90
        2
 70
     0
 39
0.003
 10
0.386024
 20
0.271697
 40
0.003
 41
0.003
 10
0.385768
 20
1.021697
 40
0.003
 41
0.003
  0
LWPOLYLINE
  5
6A
100
AcDbEntity
  8
0
 62
     9
100
AcDbPolyline
 90
        2
 70
     0
 39
0.003
 10
0.385768
 20
1.021697
 40
0.003
 41
0.003
 10
0.362614
 20
1.028157
 40
0.003
 41
0.003
  0
LWPOLYLINE
  5
6B
100
AcDbEntity
  8
0
 62
     9
100
AcDbPolyline
 90
        2
 70
     0
 39
0.003
 10
0.362614
 20
1.028157
 40
0.003
 41
0.003
 10
0.36287
 20
0.278157
 40
0.003
 41
0.003
  0
LWPOLYLINE
  5
6C
100
AcDbEntity
  8
0
 62
     9
100
AcDbPolyline
 90
        2
 70
     0
 39
0.003
 10
0.36287
 20
0.278157
 40
0.003
 41
0.003
 10
0.386024
 20
0.271697
 40
0.003
 41
0.003
  0
LWPOLYLINE
  5
6D
100
AcDbEntity
  8
0
 62
     9
100
AcDbPolyline
 90
        2
 70
     0
 39
0.003
 10
0.36287
 20
0.278157
 40
0.003
 41
0.003
 10
0.362614
 20
1.028157
 40
0.003
 41
0.003
  0
LWPOLYLINE
  5
6E
100
AcDbEntity
  8
0
 62
     9
100
AcDbPolyline
 90
        2
 70
     0
 39
0.003
 10
0.362614
 20
1.028157
 40
0.003
 41
0.003
 10
0.339031
 20
1.032902
 40
0.003
 41
0.003
  0
LWPOLYLINE
  5
6F
100
AcDbEntity
  8
0
 62
     9
100
AcDbPolyline
 90
        2
 70
     0
 39
0.003
 10
0.339031
 20
1.032902
 40
0.003
 41
0.003
 10
0.339287
 20
0.282902
 40
0.003
 41
0.003
  0
LWPOLYLINE
  5
70
100
AcDbEntity
  8
0
 62
     9
100
AcDbPolyline
 90
        2
 70
     0
 39
0.003
 10
0.339287
 20
0.282902
 40
0.003
 41
0.003
 10
0.36287
 20
0.278157
 40
0.003
 41
0.003
  0
LWPOLYLINE
  5
71
100
AcDbEntity
  8
0
 62
     9
100
AcDbPolyline
 90
        2
 70
     0
 39
0.003
 10
0.339287
 20
0.282902
 40
0.003
 41
0.003
 10
0.339031
 20
1.032902
 40
0.003
 41
0.003
  0
LWPOLYLINE
  5
72
100
AcDbEntity
  8
0
 62
     9
100
AcDbPolyline
 90
        2
 70
     0
 39
0.003
 10
0.339031
 20
1.032902
 40
0.003
 41
0.003
 10
0.315165
 20
1.035866
 40
0.003
 41
0.003
  0
LWPOLYLINE
  5
73
100
AcDbEntity
  8
0
 62
     9
100
AcDbPolyline
 90
        2
 70
     0
 39
0.003
 10
0.315165
 20
1.035866
 40
0.003
 41
0.003
 10
0.315421
 20
0.285866
 40
0.003
 41
0.003
  0
LWPOLYLINE
  5
74
100
AcDbEntity
  8
0
 62
     9
100
AcDbPolyline
 90
        2
 70
     0
 39
0.003
 10
0.315421
 20
0.285866
 40
0.003
 41
0.003
 10
0.339287
 20
0.282902
 40
0.003
 41
0.003
  0
LWPOLYLINE
  5
75
100
AcDbEntity
  8
0
 62
     9
100
AcDbPolyline
 90
        2
 70
     0
 39
0.003
 10
0.315421
 20
0.285866
 40
0.003
 41
0.003
 10
0.315165
 20
1.035866
 40
0.003
 41
0.003
  0
LWPOLYLINE
  5
76
100
AcDbEntity
  8
0
 62
     9
100
AcDbPolyline
 90
        2
 70
     0
 39
0.003
 10
0.315165
 20
1.035866
 40
0.003
 41
0.003
 10
0.29113
 20
1.036961
 40
0.003
 41
0.003
  0
LWPOLYLINE
  5
77
100
AcDbEntity
  8
0
 62
     9
100
AcDbPolyline
 90
        2
 70
     0
 39
0.003
 10
0.29113
 20
1.036961
 40
0.003
 41
0.003
 10
0.291386
 20
0.286961
 40
0.003
 41
0.003
  0
LWPOLYLINE
  5
78
100
AcDbEntity
  8
0
 62
     9
100
AcDbPolyline
 90
        2
 70
     0
 39
0.003
 10
0.291386
 20
0.286961
 40
0.003
 41
0.003
 10
0.315421
 20
0.285866
 40
0.003
 41
0.003
  0
LWPOLYLINE
  5
79
100
AcDbEntity
  8
0
 62
     9
100
AcDbPolyline
 90
        2
 70
     0
 39
0.003
 10
0.291386
 20
0.286961
 40
0.003
 41
0.003
 10
0.29113
 20
1.036961
 40
0.003
 41
0.003
  0
LWPOLYLINE
  5
7A
100
AcDbEntity
  8
0
 62
     9
100
AcDbPolyline
 90
        2
 70
     0
 39
0.003
 10
0.29113
 20
1.036961
 40
0.003
 41
0.003
 10
0.267067
 20
1.036122
 40
0.003
 41
0.003
  0
LWPOLYLINE
  5
7B
100
AcDbEntity
  8
0
 62
     9
100
AcDbPolyline
 90
        2
 70
     0
 39
0.003
 10
0.267067
 20
1.036122
 40
0.003
 41
0.003
 10
0.267323
 20
0.286122
 40
0.003
 41
0.003
  0
LWPOLYLINE
  5
7C
100
AcDbEntity
  8
0
 62
     9
100
AcDbPolyline
 90
        2
 70
     0
 39
0.003
 10
0.267323
 20
0.286122
 40
0.003
 41
0.003
 10
0.291386
 20
0.286961
 40
0.003
 41
0.003
  0
LWPOLYLINE
  5
7D
100
AcDbEntity
  8
0
 62
     9
100
AcDbPolyline
 90
        2
 70
     0
 39
0.003
 10
0.267323
 20
0.286122
 40
0.003
 41
0.003
 10
0.267067
 20
1.036122
 40
0.003
 41
0.003
  0
LWPOLYLINE
  5
7E
100
AcDbEntity
  8
0
 62
     9
100
AcDbPolyline
 90
        2
 70
     0
 39
0.003
 10
0.267067
 20
1.036122
 40
0.003
 41
0.003
 10
0.243106
 20
1.033272
 40
0.003
 41
0.003
  0
LWPOLYLINE
  5
7F
100
AcDbEntity
  8
0
 62
     9
100
AcDbPolyline
 90
        2
 70
     0
 39
0.003
 10
0.243106
 20
1.033272
 40
0.003
 41
0.003
 10
0.243362
 20
0.283272
 40
0.003
 41
0.003
  0
LWPOLYLINE
  5
80
100
AcDbEntity
  8
0
 62
     9
100
AcDbPolyline
 90
        2
 70
     0
 39
0.003
 10
0.243362
 20
0.283272
 40
0.003
 41
0.003
 10
0.267323
 20
0.286122
 40
0.003
 41
0.003
  0
LWPOLYLINE
  5
81
100
AcDbEntity
  8
0
 62
     9
100
AcDbPolyline
 90
        2
 70
     0
 39
0.003
 10
0.243362
 20
0.283272
 40
0.003
 41
0.003
 10
0.243106
 20
1.033272
 40
0.003
 41
0.003
  0
LWPOLYLINE
  5
82
100
AcDbEntity
  8
0
 62
     9
100
AcDbPolyline
 90
        2
 70
     0
 39
0.003
 10
0.243106
 20
1.033272
 40
0.003
 41
0.003
 10
0.219386
 20
1.028343
 40
0.003
 41
0.003
  0
LWPOLYLINE
  5
83
100
AcDbEntity
  8
0
 62
     9
100
AcDbPolyline
 90
        2
 70
     0
 39
0.003
 10
0.219386
 20
1.028343
 40
0.003
 41
0.003
 10
0.219642
 20
0.278343
 40
0.003
 41
0.003
  0
LWPOLYLINE
  5
84
100
AcDbEntity
  8
0
 62
     9
100
AcDbPolyline
 90
        2
 70
     0
 39
0.003
 10
0.219642
 20
0.278343
 40
0.003
 41
0.003
 10
0.243362
 20
0.283272
 40
0.003
 41
0.003
  0
LWPOLYLINE
  5
85
100
AcDbEntity
  8
0
 62
     9
100
AcDbPolyline
 90
        2
 70
     0
 39
0.003
 10
0.219642
 20
0.278343
 40
0.003
 41
0.003
 10
0.219386
 20
1.028343
 40
0.003
 41
0.003
  0
LWPOLYLINE
  5
86
100
AcDbEntity
  8
0
 62
     9
100
AcDbPolyline
 90
        2
 70
     0
 39
0.003
 10
0.219386
 20
1.028343
 40
0.003
 41
0.003
 10
0.19602
 20
1.021248
 40
0.003
 41
0.003
  0
LWPOLYLINE
  5
87
100
AcDbEntity
  8
0
 62
     9
100
AcDbPolyline
 90
        2
 70
     0
 39
0.003
 10
0.19602
 20
1.021248
 40
0.003
 41
0.003
 10
0.196276
 20
0.271248
 40
0.003
 41
0.003
  0
LWPOLYLINE
  5
88
100
AcDbEntity
  8
0
 62
     9
100
AcDbPolyline
 90
        2
 70
     0
 39
0.003
 10
0.196276
 20
0.271248
 40
0.003
 41
0.003
 10
0.219642
 20
0.278343
 40
0.003
 41
0.003
  0
LWPOLYLINE
  5
89
100
AcDbEntity
  8
0
 62
     9
100
AcDbPolyline
 90
        2
 70
     0
 39
0.003
 10
0.196276
 20
0.271248
 40
0.003
 41
0.003
 10
0.19602
 20
1.021248
 40
0.003
 41
0.003
  0
LWPOLYLINE
  5
8A
100
AcDbEntity
  8
0
 62
     9
100
AcDbPolyline
 90
        2
 70
     0
 39
0.003
 10
0.19602
 20
1.021248
 40
0.003
 41
0.003
 10
0.173154
 20
1.011929
 40
0.003
 41
0.003
  0
LWPOLYLINE
  5
8B
100
AcDbEntity
  8
0
 62
     9
100
AcDbPolyline
 90
        2
 70
     0
 39
0.003
 10
0.173154
 20
1.011929
 40
0.003
 41
0.003
 10
0.173409
 20
0.261929
 40
0.003
 41
0.003
  0
LWPOLYLINE
  5
8C
100
AcDbEntity
  8
0
 62
     9
100
AcDbPolyline
 90
        2
 70
     0
 39
0.003
 10
0.173409
 20
0.261929
 40
0.003
 41
0.003
 10
0.196276
 20
0.271248
 40
0.003
 41
0.003
  0
LWPOLYLINE
  5
8D
100
AcDbEntity
  8
0
 62
     9
100
AcDbPolyline
 90
        2
 70
     0
 39
0.003
 10
0.173409
 20
0.261929
 40
0.003
 41
0.003
 10
0.173154
 20
1.011929
 40
0.003
 41
0.003
  0
LWPOLYLINE
  5
8E
100
AcDbEntity
  8
0
 62
     9
100
AcDbPolyline
 90
        2
 70
     0
 39
0.003
 10
0.173154
 20
1.011929
 40
0.003
 41
0.003
 10
0.150913
 20
1.000295
 40
0.003
 41
0.003
  0
LWPOLYLINE
  5
8F
100
AcDbEntity
  8
0
 62
     9
100
AcDbPolyline
 90
        2
 70
     0
 39
0.003
 10
0.150913
 20
1.000295
 40
0.003
 41
0.003
 10
0.151169
 20
0.250295
 40
0.003
 41
0.003
  0
LWPOLYLINE
  5
90
100
AcDbEntity
  8
0
 62
     9
100
AcDbPolyline
 90
        2
 70
     0
 39
0.003
 10
0.151169
 20
0.250295
 40
0.003
 41
0.003
 10
0.173409
 20
0.261929
 40
0.003
 41
0.003
  0
LWPOLYLINE
  5
91
100
AcDbEntity
  8
0
 62
     9
100
AcDbPolyline
 90
        2
 70
     0
 39
0.003
 10
0.151169
 20
0.250295
 40
0.003
 41
0.003
 10
0.150913
 20
1.000295
 40
0.003
 41
0.003
  0
LWPOLYLINE
  5
92
100
AcDbEntity
  8
0
 62
     9
100
AcDbPolyline
 90
        2
 70
     0
 39
0.003
 10
0.150913
 20
1.000295
 40
0.003
 41
0.003
 10
0.129437
 20
0.986283
 40
0.003
 41
0.003
  0
LWPOLYLINE
  5
93
100
AcDbEntity
  8
0
 62
     9
100
AcDbPolyline
 90
        2
 70
     0
 39
0.003
 10
0.129437
 20
0.986283
 40
0.003
 41
0.003
 10
0.129693
 20
0.236283
 40
0.003
 41
0.003
  0
LWPOLYLINE
  5
94
100
AcDbEntity
  8
0
 62
     9
100
AcDbPolyline
 90
        2
 70
     0
 39
0.003
 10
0.129693
 20
0.236283
 40
0.003
 41
0.003
 10
0.151169
 20
0.250295
 40
0.003
 41
0.003
  0
LWPOLYLINE
  5
95
100
AcDbEntity
  8
0
 62
   253
100
AcDbPolyline
 90
        2
 70
     0
 39
0.003
 10
0.129693
 20
0.236283
 40
0.003
 41
0.003
 10
0.129437
 20
0.986283
 40
0.003
 41
0.003
  0
LWPOLYLINE
  5
96
100
AcDbEntity
  8
0
 62
   253
100
AcDbPolyline
 90
        2
 70
     0
 39
0.003
 10
0.129437
 20
0.986283
 40
0.003
 41
0.003
 10
0.108843
 20
0.969803
 40
0.003
 41
0.003
  0
LWPOLYLINE
  5
97
100
AcDbEntity
  8
0
 62
   253
100
AcDbPolyline
 90
        2
 70
     0
 39
0.003
 10
0.108843
 20
0.969803
 40
0.003
 41
0.003
 10
0.109098
 20
0.219803
 40
0.003
 41
0.003
  0
LWPOLYLINE
  5
98
100
AcDbEntity
  8
0
 62
   253
100
AcDbPolyline
 90
        2
 70
     0
 39
0.003
 10
0.109098
 20
0.219803
 40
0.003
 41
0.003
 10
0.129693
 20
0.236283
 40
0.003
 41
0.003
  0
LWPOLYLINE
  5
99
100
AcDbEntity
  8
0
 62
   253
100
AcDbPolyline
 90
        2
 70
     0
 39
0.003
 10
0.109098
 20
0.219803
 40
0.003
 41
0.003
 10
0.108843
 20
0.969803
 40
0.003
 41
0.003
  0
LWPOLYLINE
  5
9A
100
AcDbEntity
  8
0
 62
   253
100
AcDbPolyline
 90
        2
 70
     0
 39
0.003
 10
0.108843
 20
0.969803
 40
0.003
 41
0.003
 10
0.089272
 20
0.950799
 40
0.003
 41
0.003
  0
LWPOLYLINE
  5
9B
100
AcDbEntity
  8
0
 62
   253
100
AcDbPolyline
 90
        2
 70
     0
 39
0.003
 10
0.089272
 20
0.950799
 40
0.003
 41
0.003
 10
0.089528
 20
0.200799
 40
0.003
 41
0.003
  0
LWPOLYLINE
  5
9C
100
AcDbEntity
  8
0
 62
   253
100
AcDbPolyline
 90
        2
 70
     0
 39
0.003
 10
0.089528
 20
0.200799
 40
0.003
 41
0.003
 10
0.109098
 20
0.219803
 40
0.003
 41
0.003
  0
LWPOLYLINE
  5
9D
100
AcDbEntity
  8
0
 62
   253
100
AcDbPolyline
 90
        2
 70
     0
 39
0.003
 10
0.089528
 20
0.200799
 40
0.003
 41
0.003
 10
0.089272
 20
0.950799
 40
0.003
 41
0.003
  0
LWPOLYLINE
  5
9E
100
AcDbEntity
  8
0
 62
   253
100
AcDbPolyline
 90
        2
 70
     0
 39
0.003
 10
0.089272
 20
0.950799
 40
0.003
 41
0.003
 10
0.070854
 20
0.929189
 40
0.003
 41
0.003
  0
LWPOLYLINE
  5
9F
100
AcDbEntity
  8
0
 62
   253
100
AcDbPolyline
 90
        2
 70
     0
 39
0.003
 10
0.070854
 20
0.929189
 40
0.003
 41
0.003
 10
0.07111
 20
0.179189
 40
0.003
 41
0.003
  0
LWPOLYLINE
  5
A0
100
AcDbEntity
  8
0
 62
   253
100
AcDbPolyline
 90
        2
 70
     0
 39
0.003
 10
0.07111
 20
0.179189
 40
0.003
 41
0.003
 10
0.089528
 20
0.200799
 40
0.003
 41
0.003
  0
LWPOLYLINE
  5
A1
100
AcDbEntity
  8
0
 62
   252
100
AcDbPolyline
 90
        2
 70
     0
 39
0.003
 10
0.07111
 20
0.179189
 40
0.003
 41
0.003
 10
0.070854
 20
0.929189
 40
0.003
 41
0.003
  0
LWPOLYLINE
  5
A2
100
AcDbEntity
  8
0
 62
   252
100
AcDbPolyline
 90
        2
 70
     0
 39
0.003
 10
0.070854
 20
0.929189
 40
0.003
 41
0.003
 10
0.053709
 20
0.904898
 40
0.003
 41
0.003
  0
LWPOLYLINE
  5
A3
100
AcDbEntity
  8
0
 62
   252
100
AcDbPolyline
 90
        2
 70
     0
 39
0.003
 10
0.053709
 20
0.904898
 40
0.003
 41
0.003
 10
0.053965
 20
0.154898
 40
0.003
 41
0.003
  0
LWPOLYLINE
  5
A4
100
AcDbEntity
  8
0
 62
   252
100
AcDbPolyline
 90
        2
 70
     0
 39
0.003
 10
0.053965
 20
0.154898
 40
0.003
 41
0.003
 10
0.07111
 20
0.179189
 40
0.003
 41
0.003
  0
LWPOLYLINE
  5
A5
100
AcDbEntity
  8
0
 62
     8
100
AcDbPolyline
 90
        2
 70
     0
 39
0.003
 10
0.053965
 20
0.154898
 40
0.003
 41
0.003
 10
0.053709
 20
0.904898
 40
0.003
 41
0.003
  0
LWPOLYLINE
  5
A6
100
AcDbEntity
  8
0
 62
     8
100
AcDbPolyline
 90
        2
 70
     0
 39
0.003
 10
0.053709
 20
0.904898
 40
0.003
 41
0.003
 10
0.037984
 20
0.877846
 40
0.003
 41
0.003
  0
LWPOLYLINE
  5
A7
100
AcDbEntity
  8
0
 62
     8
100
AcDbPolyline
 90
        2
 70
     0
 39
0.003
 10
0.037984
 20
0.877846
 40
0.003
 41
0.003
 10
0.03824
 20
0.127846
 40
0.003
 41
0.003
  0
LWPOLYLINE
  5
A8
100
AcDbEntity
  8
0
 62
     8
100
AcDbPolyline
 90
        2
 70
     0
 39
0.003
 10
0.03824
 20
0.127846
 40
0.003
 41
0.003
 10
0.053965
 20
0.154898
 40
0.003
 41
0.003
  0
LWPOLYLINE
  5
A9
100
AcDbEntity
  8
0
 62
   127
100
AcDbPolyline
 90
        2
 70
     0
 39
0.003
 10
0.03824
 20
0.127846
 40
0.003
 41
0.003
 10
0.037984
 20
0.877846
 40
0.003
 41
0.003
  0
LWPOLYLINE
  5
AA
100
AcDbEntity
  8
0
 62
   127
100
AcDbPolyline
 90
        2
 70
     0
 39
0.003
 10
0.037984
 20
0.877846
 40
0.003
 41
0.003
 10
0.023799
 20
0.847969
 40
0.003
 41
0.003
  0
LWPOLYLINE
  5
AB
100
AcDbEntity
  8
0
 62
   127
100
AcDbPolyline
 90
        2
 70
     0
 39
0.003
 10
0.023799
 20
0.847969
 40
0.003
 41
0.003
 10
0.024055
 20
0.097969
 40
0.003
 41
0.003
  0
LWPOLYLINE
  5
AC
100
AcDbEntity
  8
0
 62
   127
100
AcDbPolyline
 90
        2
 70
     0
 39
0.003
 10
0.024055
 20
0.097969
 40
0.003
 41
0.003
 10
0.03824
 20
0.127846
 40
0.003
 41
0.003
  0
LWPOLYLINE
  5
AD
100
AcDbEntity
  8
0
 62
   127
100
AcDbPolyline
 90
        2
 70
     0
 39
0.003
 10
0.024055
 20
0.097969
 40
0.003
 41
0.003
 10
0.023799
 20
0.847969
 40
0.003
 41
0.003
  0
LWPOLYLINE
  5
AE
100
AcDbEntity
  8
0
 62
   127
100
AcDbPolyline
 90
        2
 70
     0
 39
0.003
 10
0.023799
 20
0.847969
 40
0.003
 41
0.003
 10
0.011291
 20
0.815181
 40
0.003
 41
0.003
  0
LWPOLYLINE
  5
AF
100
AcDbEntity
  8
0
 62
   127
100
AcDbPolyline
 90
        2
 70
     0
 39
0.003
 10
0.011291
 20
0.815181
 40
0.003
 41
0.003
 10
0.011547
 20
0.065181
 40
0.003
 41
0.003
  0
LWPOLYLINE
  5
B0
100
AcDbEntity
  8
0
 62
   127
100
AcDbPolyline
 90
        2
 70
     0
 39
0.003
 10
0.011547
 20
0.065181
 40
0.003
 41
0.003
 10
0.024055
 20
0.097969
 40
0.003
 41
0.003
  0
LWPOLYLINE
  5
B1
100
AcDbEntity
  8
0
 62
   251
100
AcDbPolyline
 90
        2
 70
     0
 39
0.003
 10
0.011547
 20
0.065181
 40
0.003
 41
0.003
 10
0.011291
 20
0.815181
 40
0.003
 41
0.003
  0
LWPOLYLINE
  5
B2
100
AcDbEntity
  8
0
 62
   251
100
AcDbPolyline
 90
        2
 70
     0
 39
0.003
 10
0.011291
 20
0.815181
 40
0.003
 41
0.003
 10
0.000579
 20
0.779425
 40
0.003
 41
0.003
  0
LWPOLYLINE
  5
B3
100
AcDbEntity
  8
0
 62
   251
100
AcDbPolyline
 90
        2
 70
     0
 39
0.003
 10
0.000579
 20
0.779425
 40
0.003
 41
0.003
 10
0.000835
 20
0.029425
 40
0.003
 41
0.003
  0
LWPOLYLINE
  5
B4
100
AcDbEntity
  8
0
 62
   251
100
AcDbPolyline
 90
        2
 70
     0
 39
0.003
 10
0.000835
 20
0.029425
 40
0.003
 41
0.003
 10
0.011547
 20
0.065181
 40
0.003
 41
0.003
  0
LWPOLYLINE
  5
B5
100
AcDbEntity
  8
0
 62
     0
100
AcDbPolyline
 90
        2
 70
     0
 39
0.003
 10
0.589024
 20
0.065972
 40
0.003
 41
0.003
 10
0.588768
 20
0.815972
 40
0.003
 41
0.003
  0
LWPOLYLINE
  5
B6
100
AcDbEntity
  8
0
 62
     0
100
AcDbPolyline
 90
        2
 70
     0
 39
0.003
 10
0.588768
 20
0.815972
 40
0.003
 41
0.003
 10
0.58302
 20
0.837882
 40
0.003
 41
0.003
  0
LWPOLYLINE
  5
B7
100
AcDbEntity
  8
0
 62
     0
100
AcDbPolyline
 90
        2
 70
     0
 39
0.003
 10
0.58302
 20
0.837882
 40
0.003
 41
0.003
 10
0.575154
 20
0.859059
 40
0.003
 41
0.003
  0
LWPOLYLINE
  5
B8
100
AcDbEntity
  8
0
 62
     0
100
AcDbPolyline
 90
        2
 70
     0
 39
0.003
 10
0.575154
 20
0.859059
 40
0.003
 41
0.003
 10
0.565287
 20
0.879417
 40
0.003
 41
0.003
  0
LWPOLYLINE
  5
B9
100
AcDbEntity
  8
0
 62
     0
100
AcDbPolyline
 90
        2
 70
     0
 39
0.003
 10
0.565287
 20
0.879417
 40
0.003
 41
0.003
 10
0.553567
 20
0.898886
 40
0.003
 41
0.003
  0
LWPOLYLINE
  5
BA
100
AcDbEntity
  8
0
 62
     0
100
AcDbPolyline
 90
        2
 70
     0
 39
0.003
 10
0.553567
 20
0.898886
 40
0.003
 41
0.003
 10
0.540102
 20
0.917382
 40
0.003
 41
0.003
  0
LWPOLYLINE
  5
BB
100
AcDbEntity
  8
0
 62
     0
100
AcDbPolyline
 90
        2
 70
     0
 39
0.003
 10
0.540102
 20
0.917382
 40
0.003
 41
0.003
 10
0.525043
 20
0.93485
 40
0.003
 41
0.003
  0
LWPOLYLINE
  5
BC
100
AcDbEntity
  8
0
 62
     0
100
AcDbPolyline
 90
        2
 70
     0
 39
0.003
 10
0.525043
 20
0.93485
 40
0.003
 41
0.003
 10
0.508512
 20
0.951197
 40
0.003
 41
0.003
  0
LWPOLYLINE
  5
BD
100
AcDbEntity
  8
0
 62
     0
100
AcDbPolyline
 90
        2
 70
     0
 39
0.003
 10
0.508512
 20
0.951197
 40
0.003
 41
0.003
 10
0.490642
 20
0.966358
 40
0.003
 41
0.003
  0
LWPOLYLINE
  5
BE
100
AcDbEntity
  8
0
 62
     0
100
AcDbPolyline
 90
        2
 70
     0
 39
0.003
 10
0.490642
 20
0.966358
 40
0.003
 41
0.003
 10
0.471555
 20
0.980252
 40
0.003
 41
0.003
  0
LWPOLYLINE
  5
BF
100
AcDbEntity
  8
0
 62
     0
100
AcDbPolyline
 90
        2
 70
     0
 39
0.003
 10
0.471555
 20
0.980252
 40
0.003
 41
0.003
 10
0.451398
 20
0.992807
 40
0.003
 41
0.003
  0
LWPOLYLINE
  5
C0
100
AcDbEntity
  8
0
 62
     0
100
AcDbPolyline
 90
        2
 70
     0
 39
0.003
 10
0.451398
 20
0.992807
 40
0.003
 41
0.003
 10
0.430291
 20
1.003945
 40
0.003
 41
0.003
  0
LWPOLYLINE
  5
C1
100
AcDbEntity
  8
0
 62
     0
100
AcDbPolyline
 90
        2
 70
     0
 39
0.003
 10
0.430291
 20
1.003945
 40
0.003
 41
0.003
 10
0.408378
 20
1.013606
 40
0.003
 41
0.003
  0
LWPOLYLINE
  5
C2
100
AcDbEntity
  8
0
 62
     0
100
AcDbPolyline
 90
        2
 70
     0
 39
0.003
 10
0.408378
 20
1.013606
 40
0.003
 41
0.003
 10
0.385768
 20
1.021697
 40
0.003
 41
0.003
  0
LWPOLYLINE
  5
C3
100
AcDbEntity
  8
0
 62
     0
100
AcDbPolyline
 90
        2
 70
     0
 39
0.003
 10
0.385768
 20
1.021697
 40
0.003
 41
0.003
 10
0.362614
 20
1.028157
 40
0.003
 41
0.003
  0
LWPOLYLINE
  5
C4
100
AcDbEntity
  8
0
 62
     0
100
AcDbPolyline
 90
        2
 70
     0
 39
0.003
 10
0.362614
 20
1.028157
 40
0.003
 41
0.003
 10
0.339031
 20
1.032902
 40
0.003
 41
0.003
  0
LWPOLYLINE
  5
C5
100
AcDbEntity
  8
0
 62
     0
100
AcDbPolyline
 90
        2
 70
     0
 39
0.003
 10
0.339031
 20
1.032902
 40
0.003
 41
0.003
 10
0.315165
 20
1.035866
 40
0.003
 41
0.003
  0
LWPOLYLINE
  5
C6
100
AcDbEntity
  8
0
 62
     0
100
AcDbPolyline
 90
        2
 70
     0
 39
0.003
 10
0.315165
 20
1.035866
 40
0.003
 41
0.003
 10
0.29113
 20
1.036961
 40
0.003
 41
0.003
  0
LWPOLYLINE
  5
C7
100
AcDbEntity
  8
0
 62
     0
100
AcDbPolyline
 90
        2
 70
     0
 39
0.003
 10
0.29113
 20
1.036961
 40
0.003
 41
0.003
 10
0.267067
 20
1.036122
 40
0.003
 41
0.003
  0
LWPOLYLINE
  5
C8
100
AcDbEntity
  8
0
 62
     0
100
AcDbPolyline
 90
        2
 70
     0
 39
0.003
 10
0.267067
 20
1.036122
 40
0.003
 41
0.003
 10
0.243106
 20
1.033272
 40
0.003
 41
0.003
  0
LWPOLYLINE
  5
C9
100
AcDbEntity
  8
0
 62
     0
100
AcDbPolyline
 90
        2
 70
     0
 39
0.003
 10
0.243106
 20
1.033272
 40
0.003
 41
0.003
 10
0.219386
 20
1.028343
 40
0.003
 41
0.003
  0
LWPOLYLINE
  5
CA
100
AcDbEntity
  8
0
 62
     0
100
AcDbPolyline
 90
        2
 70
     0
 39
0.003
 10
0.219386
 20
1.028343
 40
0.003
 41
0.003
 10
0.19602
 20
1.021248
 40
0.003
 41
0.003
  0
LWPOLYLINE
  5
CB
100
AcDbEntity
  8
0
 62
     0
100
AcDbPolyline
 90
        2
 70
     0
 39
0.003
 10
0.19602
 20
1.021248
 40
0.003
 41
0.003
 10
0.173154
 20
1.011929
 40
0.003
 41
0.003
  0
LWPOLYLINE
  5
CC
100
AcDbEntity
  8
0
 62
     0
100
AcDbPolyline
 90
        2
 70
     0
 39
0.003
 10
0.173154
 20
1.011929
 40
0.003
 41
0.003
 10
0.150913
 20
1.000295
 40
0.003
 41
0.003
  0
LWPOLYLINE
  5
CD
100
AcDbEntity
  8
0
 62
     0
100
AcDbPolyline
 90
        2
 70
     0
 39
0.003
 10
0.150913
 20
1.000295
 40
0.003
 41
0.003
 10
0.129437
 20
0.986283
 40
0.003
 41
0.003
  0
LWPOLYLINE
  5
CE
100
AcDbEntity
  8
0
 62
     0
100
AcDbPolyline
 90
        2
 70
     0
 39
0.003
 10
0.129437
 20
0.986283
 40
0.003
 41
0.003
 10
0.108843
 20
0.969803
 40
0.003
 41
0.003
  0
LWPOLYLINE
  5
CF
100
AcDbEntity
  8
0
 62
     0
100
AcDbPolyline
 90
        2
 70
     0
 39
0.003
 10
0.108843
 20
0.969803
 40
0.003
 41
0.003
 10
0.089272
 20
0.950799
 40
0.003
 41
0.003
  0
LWPOLYLINE
  5
D0
100
AcDbEntity
  8
0
 62
     0
100
AcDbPolyline
 90
        2
 70
     0
 39
0.003
 10
0.089272
 20
0.950799
 40
0.003
 41
0.003
 10
0.070854
 20
0.929189
 40
0.003
 41
0.003
  0
LWPOLYLINE
  5
D1
100
AcDbEntity
  8
0
 62
     0
100
AcDbPolyline
 90
        2
 70
     0
 39
0.003
 10
0.070854
 20
0.929189
 40
0.003
 41
0.003
 10
0.053709
 20
0.904898
 40
0.003
 41
0.003
  0
LWPOLYLINE
  5
D2
100
AcDbEntity
  8
0
 62
     0
100
AcDbPolyline
 90
        2
 70
     0
 39
0.003
 10
0.053709
 20
0.904898
 40
0.003
 41
0.003
 10
0.037984
 20
0.877846
 40
0.003
 41
0.003
  0
LWPOLYLINE
  5
D3
100
AcDbEntity
  8
0
 62
     0
100
AcDbPolyline
 90
        2
 70
     0
 39
0.003
 10
0.037984
 20
0.877846
 40
0.003
 41
0.003
 10
0.023799
 20
0.847969
 40
0.003
 41
0.003
  0
LWPOLYLINE
  5
D4
100
AcDbEntity
  8
0
 62
     0
100
AcDbPolyline
 90
        2
 70
     0
 39
0.003
 10
0.023799
 20
0.847969
 40
0.003
 41
0.003
 10
0.011291
 20
0.815181
 40
0.003
 41
0.003
  0
LWPOLYLINE
  5
D5
100
AcDbEntity
  8
0
 62
     0
100
AcDbPolyline
 90
        2
 70
     0
 39
0.003
 10
0.011291
 20
0.815181
 40
0.003
 41
0.003
 10
0.000579
 20
0.779425
 40
0.003
 41
0.003
  0
LWPOLYLINE
  5
D6
100
AcDbEntity
  8
0
 62
     0
100
AcDbPolyline
 90
        2
 70
     0
 39
0.003
 10
0.000579
 20
0.779425
 40
0.003
 41
0.003
 10
0.000835
 20
0.029425
 40
0.003
 41
0.003
  0
LWPOLYLINE
  5
D7
100
AcDbEntity
  8
0
 62
     0
100
AcDbPolyline
 90
        2
 70
     0
 39
0.003
 10
0.000835
 20
0.029425
 40
0.003
 41
0.003
 10
0.011547
 20
0.065181
 40
0.003
 41
0.003
  0
LWPOLYLINE
  5
D8
100
AcDbEntity
  8
0
 62
     0
100
AcDbPolyline
 90
        2
 70
     0
 39
0.003
 10
0.011547
 20
0.065181
 40
0.003
 41
0.003
 10
0.024055
 20
0.097969
 40
0.003
 41
0.003
  0
LWPOLYLINE
  5
D9
100
AcDbEntity
  8
0
 62
     0
100
AcDbPolyline
 90
        2
 70
     0
 39
0.003
 10
0.024055
 20
0.097969
 40
0.003
 41
0.003
 10
0.03824
 20
0.127846
 40
0.003
 41
0.003
  0
LWPOLYLINE
  5
DA
100
AcDbEntity
  8
0
 62
     0
100
AcDbPolyline
 90
        2
 70
     0
 39
0.003
 10
0.03824
 20
0.127846
 40
0.003
 41
0.003
 10
0.053965
 20
0.154898
 40
0.003
 41
0.003
  0
LWPOLYLINE
  5
DB
100
AcDbEntity
  8
0
 62
     0
100
AcDbPolyline
 90
        2
 70
     0
 39
0.003
 10
0.053965
 20
0.154898
 40
0.003
 41
0.003
 10
0.07111
 20
0.179189
 40
0.003
 41
0.003
  0
LWPOLYLINE
  5
DC
100
AcDbEntity
  8
0
 62
     0
100
AcDbPolyline
 90
        2
 70
     0
 39
0.003
 10
0.07111
 20
0.179189
 40
0.003
 41
0.003
 10
0.089528
 20
0.200799
 40
0.003
 41
0.003
  0
LWPOLYLINE
  5
DD
100
AcDbEntity
  8
0
 62
     0
100
AcDbPolyline
 90
        2
 70
     0
 39
0.003
 10
0.089528
 20
0.200799
 40
0.003
 41
0.003
 10
0.109098
 20
0.219803
 40
0.003
 41
0.003
  0
LWPOLYLINE
  5
DE
100
AcDbEntity
  8
0
 62
     0
100
AcDbPolyline
 90
        2
 70
     0
 39
0.003
 10
0.109098
 20
0.219803
 40
0.003
 41
0.003
 10
0.129693
 20
0.236283
 40
0.003
 41
0.003
  0
LWPOLYLINE
  5
DF
100
AcDbEntity
  8
0
 62
     0
100
AcDbPolyline
 90
        2
 70
     0
 39
0.003
 10
0.129693
 20
0.236283
 40
0.003
 41
0.003
 10
0.151169
 20
0.250295
 40
0.003
 41
0.003
  0
LWPOLYLINE
  5
E0
100
AcDbEntity
  8
0
 62
     0
100
AcDbPolyline
 90
        2
 70
     0
 39
0.003
 10
0.151169
 20
0.250295
 40
0.003
 41
0.003
 10
0.173409
 20
0.261929
 40
0.003
 41
0.003
  0
LWPOLYLINE
  5
E1
100
AcDbEntity
  8
0
 62
     0
100
AcDbPolyline
 90
        2
 70
     0
 39
0.003
 10
0.173409
 20
0.261929
 40
0.003
 41
0.003
 10
0.196276
 20
0.271248
 40
0.003
 41
0.003
  0
LWPOLYLINE
  5
E2
100
AcDbEntity
  8
0
 62
     0
100
AcDbPolyline
 90
        2
 70
     0
 39
0.003
 10
0.196276
 20
0.271248
 40
0.003
 41
0.003
 10
0.219642
 20
0.278343
 40
0.003
 41
0.003
  0
LWPOLYLINE
  5
E3
100
AcDbEntity
  8
0
 62
     0
100
AcDbPolyline
 90
        2
 70
     0
 39
0.003
 10
0.219642
 20
0.278343
 40
0.003
 41
0.003
 10
0.243362
 20
0.283272
 40
0.003
 41
0.003
  0
LWPOLYLINE
  5
E4
100
AcDbEntity
  8
0
 62
     0
100
AcDbPolyline
 90
        2
 70
     0
 39
0.003
 10
0.243362
 20
0.283272
 40
0.003
 41
0.003
 10
0.267323
 20
0.286122
 40
0.003
 41
0.003
  0
LWPOLYLINE
  5
E5
100
AcDbEntity
  8
0
 62
     0
100
AcDbPolyline
 90
        2
 70
     0
 39
0.003
 10
0.267323
 20
0.286122
 40
0.003
 41
0.003
 10
0.291386
 20
0.286961
 40
0.003
 41
0.003
  0
LWPOLYLINE
  5
E6
100
AcDbEntity
  8
0
 62
     0
100
AcDbPolyline
 90
        2
 70
     0
 39
0.003
 10
0.291386
 20
0.286961
 40
0.003
 41
0.003
 10
0.315421
 20
0.285866
 40
0.003
 41
0.003
  0
LWPOLYLINE
  5
E7
100
AcDbEntity
  8
0
 62
     0
100
AcDbPolyline
 90
        2
 70
     0
 39
0.003
 10
0.315421
 20
0.285866
 40
0.003
 41
0.003
 10
0.339287
 20
0.282902
 40
0.003
 41
0.003
  0
LWPOLYLINE
  5
E8
100
AcDbEntity
  8
0
 62
     0
100
AcDbPolyline
 90
        2
 70
     0
 39
0.003
 10
0.339287
 20
0.282902
 40
0.003
 41
0.003
 10
0.36287
 20
0.278157
 40
0.003
 41
0.003
  0
LWPOLYLINE
  5
E9
100
AcDbEntity
  8
0
 62
     0
100
AcDbPolyline
 90
        2
 70
     0
 39
0.003
 10
0.36287
 20
0.278157
 40
0.003
 41
0.003
 10
0.386024
 20
0.271697
 40
0.003
 41
0.003
  0
LWPOLYLINE
  5
EA
100
AcDbEntity
  8
0
 62
     0
100
AcDbPolyline
 90
        2
 70
     0
 39
0.003
 10
0.386024
 20
0.271697
 40
0.003
 41
0.003
 10
0.408634
 20
0.263606
 40
0.003
 41
0.003
  0
LWPOLYLINE
  5
EB
100
AcDbEntity
  8
0
 62
     0
100
AcDbPolyline
 90
        2
 70
     0
 39
0.003
 10
0.408634
 20
0.263606
 40
0.003
 41
0.003
 10
0.430547
 20
0.253945
 40
0.003
 41
0.003
  0
LWPOLYLINE
  5
EC
100
AcDbEntity
  8
0
 62
     0
100
AcDbPolyline
 90
        2
 70
     0
 39
0.003
 10
0.430547
 20
0.253945
 40
0.003
 41
0.003
 10
0.451654
 20
0.242807
 40
0.003
 41
0.003
  0
LWPOLYLINE
  5
ED
100
AcDbEntity
  8
0
 62
     0
100
AcDbPolyline
 90
        2
 70
     0
 39
0.003
 10
0.451654
 20
0.242807
 40
0.003
 41
0.003
 10
0.471811
 20
0.230252
 40
0.003
 41
0.003
  0
LWPOLYLINE
  5
EE
100
AcDbEntity
  8
0
 62
     0
100
AcDbPolyline
 90
        2
 70
     0
 39
0.003
 10
0.471811
 20
0.230252
 40
0.003
 41
0.003
 10
0.490898
 20
0.216358
 40
0.003
 41
0.003
  0
LWPOLYLINE
  5
EF
100
AcDbEntity
  8
0
 62
     0
100
AcDbPolyline
 90
        2
 70
     0
 39
0.003
 10
0.490898
 20
0.216358
 40
0.003
 41
0.003
 10
0.508768
 20
0.201197
 40
0.003
 41
0.003
  0
LWPOLYLINE
  5
F0
100
AcDbEntity
  8
0
 62
     0
100
AcDbPolyline
 90
        2
 70
     0
 39
0.003
 10
0.508768
 20
0.201197
 40
0.003
 41
0.003
 10
0.525299
 20
0.18485
 40
0.003
 41
0.003
  0
LWPOLYLINE
  5
F1
100
AcDbEntity
  8
0
 62
     0
100
AcDbPolyline
 90
        2
 70
     0
 39
0.003
 10
0.525299
 20
0.18485
 40
0.003
 41
0.003
 10
0.540358
 20
0.167382
 40
0.003
 41
0.003
  0
LWPOLYLINE
  5
F2
100
AcDbEntity
  8
0
 62
     0
100
AcDbPolyline
 90
        2
 70
     0
 39
0.003
 10
0.540358
 20
0.167382
 40
0.003
 41
0.003
 10
0.553823
 20
0.148886
 40
0.003
 41
0.003
  0
LWPOLYLINE
  5
F3
100
AcDbEntity
  8
0
 62
     0
100
AcDbPolyline
 90
        2
 70
     0
 39
0.003
 10
0.553823
 20
0.148886
 40
0.003
 41
0.003
 10
0.565543
 20
0.129417
 40
0.003
 41
0.003
  0
LWPOLYLINE
  5
F4
100
AcDbEntity
  8
0
 62
     0
100
AcDbPolyline
 90
        2
 70
     0
 39
0.003
 10
0.565543
 20
0.129417
 40
0.003
 41
0.003
 10
0.575409
 20
0.109059
 40
0.003
 41
0.003
  0
LWPOLYLINE
  5
F5
100
AcDbEntity
  8
0
 62
     0
100
AcDbPolyline
 90
        2
 70
     0
 39
0.003
 10
0.575409
 20
0.109059
 40
0.003
 41
0.003
 10
0.583276
 20
0.087882
 40
0.003
 41
0.003
  0
LWPOLYLINE
  5
F6
100
AcDbEntity
  8
0
 62
     0
100
AcDbPolyline
 90
        2
 70
     0
 39
0.003
 10
0.583276
 20
0.087882
 40
0.003
 41
0.003
 10
0.589024
 20
0.065972
 40
0.003
 41
0.003
  0
LWPOLYLINE
  5
F7
100
AcDbEntity
  8
0
 62
     9
100
AcDbPolyline
 90
        2
 70
     0
 39
0.003
 10
0.000835
 20
0.029425
 40
0.003
 41
0.003
 10
0.000579
 20
0.779425
 40
0.003
 41
0.003
  0
LWPOLYLINE
  5
F8
100
AcDbEntity
  8
0
 62
     9
100
AcDbPolyline
 90
        2
 70
     0
 39
0.003
 10
0.000579
 20
0.779425
 40
0.003
 41
0.003
 10
-0.238795
 20
0.779425
 40
0.003
 41
0.003
  0
LWPOLYLINE
  5
F9
100
AcDbEntity
  8
0
 62
     9
100
AcDbPolyline
 90
        2
 70
     0
 39
0.003
 10
-0.238795
 20
0.779425
 40
0.003
 41
0.003
 10
-0.238539
 20
0.029425
 40
0.003
 41
0.003
  0
LWPOLYLINE
  5
FA
100
AcDbEntity
  8
0
 62
     9
100
AcDbPolyline
 90
        2
 70
     0
 39
0.003
 10
-0.238539
 20
0.029425
 40
0.003
 41
0.003
 10
0.000835
 20
0.029425
 40
0.003
 41
0.003
  0
LWPOLYLINE
  5
FB
100
AcDbEntity
  8
0
 62
     0
100
AcDbPolyline
 90
        2
 70
     0
 39
0.003
 10
0.000835
 20
0.029425
 40
0.003
 41
0.003
 10
0.000579
 20
0.779425
 40
0.003
 41
0.003
  0
LWPOLYLINE
  5
FC
100
AcDbEntity
  8
0
 62
     0
100
AcDbPolyline
 90
        2
 70
     0
 39
0.003
 10
0.000579
 20
0.779425
 40
0.003
 41
0.003
 10
-0.238795
 20
0.779425
 40
0.003
 41
0.003
  0
LWPOLYLINE
  5
FD
100
AcDbEntity
  8
0
 62
     0
100
AcDbPolyline
 90
        2
 70
     0
 39
0.003
 10
-0.238795
 20
0.779425
 40
0.003
 41
0.003
 10
-0.238539
 20
0.029425
 40
0.003
 41
0.003
  0
LWPOLYLINE
  5
FE
100
AcDbEntity
  8
0
 62
     0
100
AcDbPolyline
 90
        2
 70
     0
 39
0.003
 10
-0.238539
 20
0.029425
 40
0.003
 41
0.003
 10
0.000835
 20
0.029425
 40
0.003
 41
0.003
  0
LWPOLYLINE
  5
FF
100
AcDbEntity
  8
0
 62
     9
100
AcDbPolyline
 90
        2
 70
     0
 39
0.003
 10
0.762539
 20
0.064717
 40
0.003
 41
0.003
 10
0.762283
 20
0.814717
 40
0.003
 41
0.003
  0
LWPOLYLINE
  5
100
100
AcDbEntity
  8
0
 62
     9
100
AcDbPolyline
 90
        2
 70
     0
 39
0.003
 10
0.762283
 20
0.814717
 40
0.003
 41
0.003
 10
0.588768
 20
0.815972
 40
0.003
 41
0.003
  0
LWPOLYLINE
  5
101
100
AcDbEntity
  8
0
 62
     9
100
AcDbPolyline
 90
        2
 70
     0
 39
0.003
 10
0.588768
 20
0.815972
 40
0.003
 41
0.003
 10
0.589024
 20
0.065972
 40
0.003
 41
0.003
  0
LWPOLYLINE
  5
102
100
AcDbEntity
  8
0
 62
     9
100
AcDbPolyline
 90
        2
 70
     0
 39
0.003
 10
0.589024
 20
0.065972
 40
0.003
 41
0.003
 10
0.762539
 20
0.064717
 40
0.003
 41
0.003
  0
LWPOLYLINE
  5
103
100
AcDbEntity
  8
0
 62
     0
100
AcDbPolyline
 90
        2
 70
     0
 39
0.003
 10
0.762539
 20
0.064717
 40
0.003
 41
0.003
 10
0.762283
 20
0.814717
 40
0.003
 41
0.003
  0
LWPOLYLINE
  5
104
100
AcDbEntity
  8
0
 62
     0
100
AcDbPolyline
 90
        2
 70
     0
 39
0.003
 10
0.762283
 20
0.814717
 40
0.003
 41
0.003
 10
0.588768
 20
0.815972
 40
0.003
 41
0.003
  0
LWPOLYLINE
  5
105
100
AcDbEntity
  8
0
 62
     0
100
AcDbPolyline
 90
        2
 70
     0
 39
0.003
 10
0.588768
 20
0.815972
 40
0.003
 41
0.003
 10
0.589024
 20
0.065972
 40
0.003
 41
0.003
  0
LWPOLYLINE
  5
106
100
AcDbEntity
  8
0
 62
     0
100
AcDbPolyline
 90
        2
 70
     0
 39
0.003
 10
0.589024
 20
0.065972
 40
0.003
 41
0.003
 10
0.762539
 20
0.064717
 40
0.003
 41
0.003
  0
LWPOLYLINE
  5
107
100
AcDbEntity
  8
0
 62
   254
100
AcDbPolyline
 90
        2
 70
     0
 39
0.003
 10
0.589024
 20
0.065972
 40
0.003
 41
0.003
 10
0.588768
 20
0.815972
 40
0.003
 41
0.003
  0
LWPOLYLINE
  5
108
100
AcDbEntity
  8
0
 62
   254
100
AcDbPolyline
 90
        2
 70
     0
 39
0.003
 10
0.588768
 20
0.815972
 40
0.003
 41
0.003
 10
0.58302
 20
0.837882
 40
0.003
 41
0.003
  0
LWPOLYLINE
  5
109
100
AcDbEntity
  8
0
 62
   254
100
AcDbPolyline
 90
        2
 70
     0
 39
0.003
 10
0.58302
 20
0.837882
 40
0.003
 41
0.003
 10
0.583276
 20
0.087882
 40
0.003
 41
0.003
  0
LWPOLYLINE
  5
10A
100
AcDbEntity
  8
0
 62
   254
100
AcDbPolyline
 90
        2
 70
     0
 39
0.003
 10
0.583276
 20
0.087882
 40
0.003
 41
0.003
 10
0.589024
 20
0.065972
 40
0.003
 41
0.003
  0
LWPOLYLINE
  5
10B
100
AcDbEntity
  8
0
 62
   254
100
AcDbPolyline
 90
        2
 70
     0
 39
0.003
 10
0.583276
 20
0.087882
 40
0.003
 41
0.003
 10
0.58302
 20
0.837882
 40
0.003
 41
0.003
  0
LWPOLYLINE
  5
10C
100
AcDbEntity
  8
0
 62
   254
100
AcDbPolyline
 90
        2
 70
     0
 39
0.003
 10
0.58302
 20
0.837882
 40
0.003
 41
0.003
 10
0.575154
 20
0.859059
 40
0.003
 41
0.003
  0
LWPOLYLINE
  5
10D
100
AcDbEntity
  8
0
 62
   254
100
AcDbPolyline
 90
        2
 70
     0
 39
0.003
 10
0.575154
 20
0.859059
 40
0.003
 41
0.003
 10
0.575409
 20
0.109059
 40
0.003
 41
0.003
  0
LWPOLYLINE
  5
10E
100
AcDbEntity
  8
0
 62
   254
100
AcDbPolyline
 90
        2
 70
     0
 39
0.003
 10
0.575409
 20
0.109059
 40
0.003
 41
0.003
 10
0.583276
 20
0.087882
 40
0.003
 41
0.003
  0
LWPOLYLINE
  5
10F
100
AcDbEntity
  8
0
 62
   254
100
AcDbPolyline
 90
        2
 70
     0
 39
0.003
 10
0.575409
 20
0.109059
 40
0.003
 41
0.003
 10
0.575154
 20
0.859059
 40
0.003
 41
0.003
  0
LWPOLYLINE
  5
110
100
AcDbEntity
  8
0
 62
   254
100
AcDbPolyline
 90
        2
 70
     0
 39
0.003
 10
0.575154
 20
0.859059
 40
0.003
 41
0.003
 10
0.565287
 20
0.879417
 40
0.003
 41
0.003
  0
LWPOLYLINE
  5
111
100
AcDbEntity
  8
0
 62
   254
100
AcDbPolyline
 90
        2
 70
     0
 39
0.003
 10
0.565287
 20
0.879417
 40
0.003
 41
0.003
 10
0.565543
 20
0.129417
 40
0.003
 41
0.003
  0
LWPOLYLINE
  5
112
100
AcDbEntity
  8
0
 62
   254
100
AcDbPolyline
 90
        2
 70
     0
 39
0.003
 10
0.565543
 20
0.129417
 40
0.003
 41
0.003
 10
0.575409
 20
0.109059
 40
0.003
 41
0.003
  0
LWPOLYLINE
  5
113
100
AcDbEntity
  8
0
 62
   254
100
AcDbPolyline
 90
        2
 70
     0
 39
0.003
 10
0.565543
 20
0.129417
 40
0.003
 41
0.003
 10
0.565287
 20
0.879417
 40
0.003
 41
0.003
  0
LWPOLYLINE
  5
114
100
AcDbEntity
  8
0
 62
   254
100
AcDbPolyline
 90
        2
 70
     0
 39
0.003
 10
0.565287
 20
0.879417
 40
0.003
 41
0.003
 10
0.553567
 20
0.898886
 40
0.003
 41
0.003
  0
LWPOLYLINE
  5
115
100
AcDbEntity
  8
0
 62
   254
100
AcDbPolyline
 90
        2
 70
     0
 39
0.003
 10
0.553567
 20
0.898886
 40
0.003
 41
0.003
 10
0.553823
 20
0.148886
 40
0.003
 41
0.003
  0
LWPOLYLINE
  5
116
100
AcDbEntity
  8
0
 62
   254
100
AcDbPolyline
 90
        2
 70
     0
 39
0.003
 10
0.553823
 20
0.148886
 40
0.003
 41
0.003
 10
0.565543
 20
0.129417
 40
0.003
 41
0.003
  0
LWPOLYLINE
  5
117
100
AcDbEntity
  8
0
 62
   254
100
AcDbPolyline
 90
        2
 70
     0
 39
0.003
 10
0.553823
 20
0.148886
 40
0.003
 41
0.003
 10
0.553567
 20
0.898886
 40
0.003
 41
0.003
  0
LWPOLYLINE
  5
118
100
AcDbEntity
  8
0
 62
   254
100
AcDbPolyline
 90
        2
 70
     0
 39
0.003
 10
0.553567
 20
0.898886
 40
0.003
 41
0.003
 10
0.540102
 20
0.917382
 40
0.003
 41
0.003
  0
LWPOLYLINE
  5
119
100
AcDbEntity
  8
0
 62
   254
100
AcDbPolyline
 90
        2
 70
     0
 39
0.003
 10
0.540102
 20
0.917382
 40
0.003
 41
0.003
 10
0.540358
 20
0.167382
 40
0.003
 41
0.003
  0
LWPOLYLINE
  5
11A
100
AcDbEntity
  8
0
 62
   254
100
AcDbPolyline
 90
        2
 70
     0
 39
0.003
 10
0.540358
 20
0.167382
 40
0.003
 41
0.003
 10
0.553823
 20
0.148886
 40
0.003
 41
0.003
  0
LWPOLYLINE
  5
11B
100
AcDbEntity
  8
0
 62
   254
100
AcDbPolyline
 90
        2
 70
     0
 39
0.003
 10
0.540358
 20
0.167382
 40
0.003
 41
0.003
 10
0.540102
 20
0.917382
 40
0.003
 41
0.003
  0
LWPOLYLINE
  5
11C
100
AcDbEntity
  8
0
 62
   254
100
AcDbPolyline
 90
        2
 70
     0
 39
0.003
 10
0.540102
 20
0.917382
 40
0.003
 41
0.003
 10
0.525043
 20
0.93485
 40
0.003
 41
0.003
  0
LWPOLYLINE
  5
11D
100
AcDbEntity
  8
0
 62
   254
100
AcDbPolyline
 90
        2
 70
     0
 39
0.003
 10
0.525043
 20
0.93485
 40
0.003
 41
0.003
 10
0.525299
 20
0.18485
 40
0.003
 41
0.003
  0
LWPOLYLINE
  5
11E
100
AcDbEntity
  8
0
 62
   254
100
AcDbPolyline
 90
        2
 70
     0
 39
0.003
 10
0.525299
 20
0.18485
 40
0.003
 41
0.003
 10
0.540358
 20
0.167382
 40
0.003
 41
0.003
  0
LWPOLYLINE
  5
11F
100
AcDbEntity
  8
0
 62
   254
100
AcDbPolyline
 90
        2
 70
     0
 39
0.003
 10
0.525299
 20
0.18485
 40
0.003
 41
0.003
 10
0.525043
 20
0.93485
 40
0.003
 41
0.003
  0
LWPOLYLINE
  5
120
100
AcDbEntity
  8
0
 62
   254
100
AcDbPolyline
 90
        2
 70
     0
 39
0.003
 10
0.525043
 20
0.93485
 40
0.003
 41
0.003
 10
0.508512
 20
0.951197
 40
0.003
 41
0.003
  0
LWPOLYLINE
  5
121
100
AcDbEntity
  8
0
 62
   254
100
AcDbPolyline
 90
        2
 70
     0
 39
0.003
 10
0.508512
 20
0.951197
 40
0.003
 41
0.003
 10
0.508768
 20
0.201197
 40
0.003
 41
0.003
  0
LWPOLYLINE
  5
122
100
AcDbEntity
  8
0
 62
   254
100
AcDbPolyline
 90
        2
 70
     0
 39
0.003
 10
0.508768
 20
0.201197
 40
0.003
 41
0.003
 10
0.525299
 20
0.18485
 40
0.003
 41
0.003
  0
LWPOLYLINE
  5
123
100
AcDbEntity
  8
0
 62
   254
100
AcDbPolyline
 90
        2
 70
     0
 39
0.003
 10
0.508768
 20
0.201197
 40
0.003
 41
0.003
 10
0.508512
 20
0.951197
 40
0.003
 41
0.003
  0
LWPOLYLINE
  5
124
100
AcDbEntity
  8
0
 62
   254
100
AcDbPolyline
 90
        2
 70
     0
 39
0.003
 10
0.508512
 20
0.951197
 40
0.003
 41
0.003
 10
0.490642
 20
0.966358
 40
0.003
 41
0.003
  0
LWPOLYLINE
  5
125
100
AcDbEntity
  8
0
 62
   254
100
AcDbPolyline
 90
        2
 70
     0
 39
0.003
 10
0.490642
 20
0.966358
 40
0.003
 41
0.003
 10
0.490898
 20
0.216358
 40
0.003
 41
0.003
  0
LWPOLYLINE
  5
126
100
AcDbEntity
  8
0
 62
   254
100
AcDbPolyline
 90
        2
 70
     0
 39
0.003
 10
0.490898
 20
0.216358
 40
0.003
 41
0.003
 10
0.508768
 20
0.201197
 40
0.003
 41
0.003
  0
LWPOLYLINE
  5
127
100
AcDbEntity
  8
0
 62
   254
100
AcDbPolyline
 90
        2
 70
     0
 39
0.003
 10
0.490898
 20
0.216358
 40
0.003
 41
0.003
 10
0.490642
 20
0.966358
 40
0.003
 41
0.003
  0
LWPOLYLINE
  5
128
100
AcDbEntity
  8
0
 62
   254
100
AcDbPolyline
 90
        2
 70
     0
 39
0.003
 10
0.490642
 20
0.966358
 40
0.003
 41
0.003
 10
0.471555
 20
0.980252
 40
0.003
 41
0.003
  0
LWPOLYLINE
  5
129
100
AcDbEntity
  8
0
 62
   254
100
AcDbPolyline
 90
        2
 70
     0
 39
0.003
 10
0.471555
 20
0.980252
 40
0.003
 41
0.003
 10
0.471811
 20
0.230252
 40
0.003
 41
0.003
  0
LWPOLYLINE
  5
12A
100
AcDbEntity
  8
0
 62
   254
100
AcDbPolyline
 90
        2
 70
     0
 39
0.003
 10
0.471811
 20
0.230252
 40
0.003
 41
0.003
 10
0.490898
 20
0.216358
 40
0.003
 41
0.003
  0
LWPOLYLINE
  5
12B
100
AcDbEntity
  8
0
 62
   254
100
AcDbPolyline
 90
        2
 70
     0
 39
0.003
 10
0.471811
 20
0.230252
 40
0.003
 41
0.003
 10
0.471555
 20
0.980252
 40
0.003
 41
0.003
  0
LWPOLYLINE
  5
12C
100
AcDbEntity
  8
0
 62
   254
100
AcDbPolyline
 90
        2
 70
     0
 39
0.003
 10
0.471555
 20
0.980252
 40
0.003
 41
0.003
 10
0.451398
 20
0.992807
 40
0.003
 41
0.003
  0
LWPOLYLINE
  5
12D
100
AcDbEntity
  8
0
 62
   254
100
AcDbPolyline
 90
        2
 70
     0
 39
0.003
 10
0.451398
 20
0.992807
 40
0.003
 41
0.003
 10
0.451654
 20
0.242807
 40
0.003
 41
0.003
  0
LWPOLYLINE
  5
12E
100
AcDbEntity
  8
0
 62
   254
100
AcDbPolyline
 90
        2
 70
     0
 39
0.003
 10
0.451654
 20
0.242807
 40
0.003
 41
0.003
 10
0.471811
 20
0.230252
 40
0.003
 41
0.003
  0
LWPOLYLINE
  5
12F
100
AcDbEntity
  8
0
 62
   254
100
AcDbPolyline
 90
        2
 70
     0
 39
0.003
 10
0.451654
 20
0.242807
 40
0.003
 41
0.003
 10
0.451398
 20
0.992807
 40
0.003
 41
0.003
  0
LWPOLYLINE
  5
130
100
AcDbEntity
  8
0
 62
   254
100
AcDbPolyline
 90
        2
 70
     0
 39
0.003
 10
0.451398
 20
0.992807
 40
0.003
 41
0.003
 10
0.430291
 20
1.003945
 40
0.003
 41
0.003
  0
LWPOLYLINE
  5
131
100
AcDbEntity
  8
0
 62
   254
100
AcDbPolyline
 90
        2
 70
     0
 39
0.003
 10
0.430291
 20
1.003945
 40
0.003
 41
0.003
 10
0.430547
 20
0.253945
 40
0.003
 41
0.003
  0
LWPOLYLINE
  5
132
100
AcDbEntity
  8
0
 62
   254
100
AcDbPolyline
 90
        2
 70
     0
 39
0.003
 10
0.430547
 20
0.253945
 40
0.003
 41
0.003
 10
0.451654
 20
0.242807
 40
0.003
 41
0.003
  0
LWPOLYLINE
  5
133
100
AcDbEntity
  8
0
 62
   254
100
AcDbPolyline
 90
        2
 70
     0
 39
0.003
 10
0.430547
 20
0.253945
 40
0.003
 41
0.003
 10
0.430291
 20
1.003945
 40
0.003
 41
0.003
  0
LWPOLYLINE
  5
134
100
AcDbEntity
  8
0
 62
   254
100
AcDbPolyline
 90
        2
 70
     0
 39
0.003
 10
0.430291
 20
1.003945
 40
0.003
 41
0.003
 10
0.408378
 20
1.013606
 40
0.003
 41
0.003
  0
LWPOLYLINE
  5
135
100
AcDbEntity
  8
0
 62
   254
100
AcDbPolyline
 90
        2
 70
     0
 39
0.003
 10
0.408378
 20
1.013606
 40
0.003
 41
0.003
 10
0.408634
 20
0.263606
 40
0.003
 41
0.003
  0
LWPOLYLINE
  5
136
100
AcDbEntity
  8
0
 62
   254
100
AcDbPolyline
 90
        2
 70
     0
 39
0.003
 10
0.408634
 20
0.263606
 40
0.003
 41
0.003
 10
0.430547
 20
0.253945
 40
0.003
 41
0.003
  0
LWPOLYLINE
  5
137
100
AcDbEntity
  8
0
 62
   254
100
AcDbPolyline
 90
        2
 70
     0
 39
0.003
 10
0.408634
 20
0.263606
 40
0.003
 41
0.003
 10
0.408378
 20
1.013606
 40
0.003
 41
0.003
  0
LWPOLYLINE
  5
138
100
AcDbEntity
  8
0
 62
   254
100
AcDbPolyline
 90
        2
 70
     0
 39
0.003
 10
0.408378
 20
1.013606
 40
0.003
 41
0.003
 10
0.385768
 20
1.021697
 40
0.003
 41
0.003
  0
LWPOLYLINE
  5
139
100
AcDbEntity
  8
0
 62
   254
100
AcDbPolyline
 90
        2
 70
     0
 39
0.003
 10
0.385768
 20
1.021697
 40
0.003
 41
0.003
 10
0.386024
 20
0.271697
 40
0.003
 41
0.003
  0
LWPOLYLINE
  5
13A
100
AcDbEntity
  8
0
 62
   254
100
AcDbPolyline
 90
        2
 70
     0
 39
0.003
 10
0.386024
 20
0.271697
 40
0.003
 41
0.003
 10
0.408634
 20
0.263606
 40
0.003
 41
0.003
  0
LWPOLYLINE
  5
13B
100
AcDbEntity
  8
0
 62
     9
100
AcDbPolyline
 90
        2
 70
     0
 39
0.003
 10
0.386024
 20
0.271697
 40
0.003
 41
0.003
 10
0.385768
 20
1.021697
 40
0.003
 41
0.003
  0
LWPOLYLINE
  5
13C
100
AcDbEntity
  8
0
 62
     9
100
AcDbPolyline
 90
        2
 70
     0
 39
0.003
 10
0.385768
 20
1.021697
 40
0.003
 41
0.003
 10
0.362614
 20
1.028157
 40
0.003
 41
0.003
  0
LWPOLYLINE
  5
13D
100
AcDbEntity
  8
0
 62
     9
100
AcDbPolyline
 90
        2
 70
     0
 39
0.003
 10
0.362614
 20
1.028157
 40
0.003
 41
0.003
 10
0.36287
 20
0.278157
 40
0.003
 41
0.003
  0
LWPOLYLINE
  5
13E
100
AcDbEntity
  8
0
 62
     9
100
AcDbPolyline
 90
        2
 70
     0
 39
0.003
 10
0.36287
 20
0.278157
 40
0.003
 41
0.003
 10
0.386024
 20
0.271697
 40
0.003
 41
0.003
  0
LWPOLYLINE
  5
13F
100
AcDbEntity
  8
0
 62
     9
100
AcDbPolyline
 90
        2
 70
     0
 39
0.003
 10
0.36287
 20
0.278157
 40
0.003
 41
0.003
 10
0.362614
 20
1.028157
 40
0.003
 41
0.003
  0
LWPOLYLINE
  5
140
100
AcDbEntity
  8
0
 62
     9
100
AcDbPolyline
 90
        2
 70
     0
 39
0.003
 10
0.362614
 20
1.028157
 40
0.003
 41
0.003
 10
0.339031
 20
1.032902
 40
0.003
 41
0.003
  0
LWPOLYLINE
  5
141
100
AcDbEntity
  8
0
 62
     9
100
AcDbPolyline
 90
        2
 70
     0
 39
0.003
 10
0.339031
 20
1.032902
 40
0.003
 41
0.003
 10
0.339287
 20
0.282902
 40
0.003
 41
0.003
  0
LWPOLYLINE
  5
142
100
AcDbEntity
  8
0
 62
     9
100
AcDbPolyline
 90
        2
 70
     0
 39
0.003
 10
0.339287
 20
0.282902
 40
0.003
 41
0.003
 10
0.36287
 20
0.278157
 40
0.003
 41
0.003
  0
LWPOLYLINE
  5
143
100
AcDbEntity
  8
0
 62
     9
100
AcDbPolyline
 90
        2
 70
     0
 39
0.003
 10
0.339287
 20
0.282902
 40
0.003
 41
0.003
 10
0.339031
 20
1.032902
 40
0.003
 41
0.003
  0
LWPOLYLINE
  5
144
100
AcDbEntity
  8
0
 62
     9
100
AcDbPolyline
 90
        2
 70
     0
 39
0.003
 10
0.339031
 20
1.032902
 40
0.003
 41
0.003
 10
0.315165
 20
1.035866
 40
0.003
 41
0.003
  0
LWPOLYLINE
  5
145
100
AcDbEntity
  8
0
 62
     9
100
AcDbPolyline
 90
        2
 70
     0
 39
0.003
 10
0.315165
 20
1.035866
 40
0.003
 41
0.003
 10
0.315421
 20
0.285866
 40
0.003
 41
0.003
  0
LWPOLYLINE
  5
146
100
AcDbEntity
  8
0
 62
     9
100
AcDbPolyline
 90
        2
 70
     0
 39
0.003
 10
0.315421
 20
0.285866
 40
0.003
 41
0.003
 10
0.339287
 20
0.282902
 40
0.003
 41
0.003
  0
LWPOLYLINE
  5
147
100
AcDbEntity
  8
0
 62
     9
100
AcDbPolyline
 90
        2
 70
     0
 39
0.003
 10
0.315421
 20
0.285866
 40
0.003
 41
0.003
 10
0.315165
 20
1.035866
 40
0.003
 41
0.003
  0
LWPOLYLINE
  5
148
100
AcDbEntity
  8
0
 62
     9
100
AcDbPolyline
 90
        2
 70
     0
 39
0.003
 10
0.315165
 20
1.035866
 40
0.003
 41
0.003
 10
0.29113
 20
1.036961
 40
0.003
 41
0.003
  0
LWPOLYLINE
  5
149
100
AcDbEntity
  8
0
 62
     9
100
AcDbPolyline
 90
        2
 70
     0
 39
0.003
 10
0.29113
 20
1.036961
 40
0.003
 41
0.003
 10
0.291386
 20
0.286961
 40
0.003
 41
0.003
  0
LWPOLYLINE
  5
14A
100
AcDbEntity
  8
0
 62
     9
100
AcDbPolyline
 90
        2
 70
     0
 39
0.003
 10
0.291386
 20
0.286961
 40
0.003
 41
0.003
 10
0.315421
 20
0.285866
 40
0.003
 41
0.003
  0
LWPOLYLINE
  5
14B
100
AcDbEntity
  8
0
 62
     9
100
AcDbPolyline
 90
        2
 70
     0
 39
0.003
 10
0.291386
 20
0.286961
 40
0.003
 41
0.003
 10
0.29113
 20
1.036961
 40
0.003
 41
0.003
  0
LWPOLYLINE
  5
14C
100
AcDbEntity
  8
0
 62
     9
100
AcDbPolyline
 90
        2
 70
     0
 39
0.003
 10
0.29113
 20
1.036961
 40
0.003
 41
0.003
 10
0.267067
 20
1.036122
 40
0.003
 41
0.003
  0
LWPOLYLINE
  5
14D
100
AcDbEntity
  8
0
 62
     9
100
AcDbPolyline
 90
        2
 70
     0
 39
0.003
 10
0.267067
 20
1.036122
 40
0.003
 41
0.003
 10
0.267323
 20
0.286122
 40
0.003
 41
0.003
  0
LWPOLYLINE
  5
14E
100
AcDbEntity
  8
0
 62
     9
100
AcDbPolyline
 90
        2
 70
     0
 39
0.003
 10
0.267323
 20
0.286122
 40
0.003
 41
0.003
 10
0.291386
 20
0.286961
 40
0.003
 41
0.003
  0
LWPOLYLINE
  5
14F
100
AcDbEntity
  8
0
 62
     9
100
AcDbPolyline
 90
        2
 70
     0
 39
0.003
 10
0.267323
 20
0.286122
 40
0.003
 41
0.003
 10
0.267067
 20
1.036122
 40
0.003
 41
0.003
  0
LWPOLYLINE
  5
150
100
AcDbEntity
  8
0
 62
     9
100
AcDbPolyline
 90
        2
 70
     0
 39
0.003
 10
0.267067
 20
1.036122
 40
0.003
 41
0.003
 10
0.243106
 20
1.033272
 40
0.003
 41
0.003
  0
LWPOLYLINE
  5
151
100
AcDbEntity
  8
0
 62
     9
100
AcDbPolyline
 90
        2
 70
     0
 39
0.003
 10
0.243106
 20
1.033272
 40
0.003
 41
0.003
 10
0.243362
 20
0.283272
 40
0.003
 41
0.003
  0
LWPOLYLINE
  5
152
100
AcDbEntity
  8
0
 62
     9
100
AcDbPolyline
 90
        2
 70
     0
 39
0.003
 10
0.243362
 20
0.283272
 40
0.003
 41
0.003
 10
0.267323
 20
0.286122
 40
0.003
 41
0.003
  0
LWPOLYLINE
  5
153
100
AcDbEntity
  8
0
 62
     9
100
AcDbPolyline
 90
        2
 70
     0
 39
0.003
 10
0.243362
 20
0.283272
 40
0.003
 41
0.003
 10
0.243106
 20
1.033272
 40
0.003
 41
0.003
  0
LWPOLYLINE
  5
154
100
AcDbEntity
  8
0
 62
     9
100
AcDbPolyline
 90
        2
 70
     0
 39
0.003
 10
0.243106
 20
1.033272
 40
0.003
 41
0.003
 10
0.219386
 20
1.028343
 40
0.003
 41
0.003
  0
LWPOLYLINE
  5
155
100
AcDbEntity
  8
0
 62
     9
100
AcDbPolyline
 90
        2
 70
     0
 39
0.003
 10
0.219386
 20
1.028343
 40
0.003
 41
0.003
 10
0.219642
 20
0.278343
 40
0.003
 41
0.003
  0
LWPOLYLINE
  5
156
100
AcDbEntity
  8
0
 62
     9
100
AcDbPolyline
 90
        2
 70
     0
 39
0.003
 10
0.219642
 20
0.278343
 40
0.003
 41
0.003
 10
0.243362
 20
0.283272
 40
0.003
 41
0.003
  0
LWPOLYLINE
  5
157
100
AcDbEntity
  8
0
 62
     9
100
AcDbPolyline
 90
        2
 70
     0
 39
0.003
 10
0.219642
 20
0.278343
 40
0.003
 41
0.003
 10
0.219386
 20
1.028343
 40
0.003
 41
0.003
  0
LWPOLYLINE
  5
158
100
AcDbEntity
  8
0
 62
     9
100
AcDbPolyline
 90
        2
 70
     0
 39
0.003
 10
0.219386
 20
1.028343
 40
0.003
 41
0.003
 10
0.19602
 20
1.021248
 40
0.003
 41
0.003
  0
LWPOLYLINE
  5
159
100
AcDbEntity
  8
0
 62
     9
100
AcDbPolyline
 90
        2
 70
     0
 39
0.003
 10
0.19602
 20
1.021248
 40
0.003
 41
0.003
 10
0.196276
 20
0.271248
 40
0.003
 41
0.003
  0
LWPOLYLINE
  5
15A
100
AcDbEntity
  8
0
 62
     9
100
AcDbPolyline
 90
        2
 70
     0
 39
0.003
 10
0.196276
 20
0.271248
 40
0.003
 41
0.003
 10
0.219642
 20
0.278343
 40
0.003
 41
0.003
  0
LWPOLYLINE
  5
15B
100
AcDbEntity
  8
0
 62
     9
100
AcDbPolyline
 90
        2
 70
     0
 39
0.003
 10
0.196276
 20
0.271248
 40
0.003
 41
0.003
 10
0.19602
 20
1.021248
 40
0.003
 41
0.003
  0
LWPOLYLINE
  5
15C
100
AcDbEntity
  8
0
 62
     9
100
AcDbPolyline
 90
        2
 70
     0
 39
0.003
 10
0.19602
 20
1.021248
 40
0.003
 41
0.003
 10
0.173154
 20
1.011929
 40
0.003
 41
0.003
  0
LWPOLYLINE
  5
15D
100
AcDbEntity
  8
0
 62
     9
100
AcDbPolyline
 90
        2
 70
     0
 39
0.003
 10
0.173154
 20
1.011929
 40
0.003
 41
0.003
 10
0.173409
 20
0.261929
 40
0.003
 41
0.003
  0
LWPOLYLINE
  5
15E
100
AcDbEntity
  8
0
 62
     9
100
AcDbPolyline
 90
        2
 70
     0
 39
0.003
 10
0.173409
 20
0.261929
 40
0.003
 41
0.003
 10
0.196276
 20
0.271248
 40
0.003
 41
0.003
  0
LWPOLYLINE
  5
15F
100
AcDbEntity
  8
0
 62
     9
100
AcDbPolyline
 90
        2
 70
     0
 39
0.003
 10
0.173409
 20
0.261929
 40
0.003
 41
0.003
 10
0.173154
 20
1.011929
 40
0.003
 41
0.003
  0
LWPOLYLINE
  5
160
100
AcDbEntity
  8
0
 62
     9
100
AcDbPolyline
 90
        2
 70
     0
 39
0.003
 10
0.173154
 20
1.011929
 40
0.003
 41
0.003
 10
0.150913
 20
1.000295
 40
0.003
 41
0.003
  0
LWPOLYLINE
  5
161
100
AcDbEntity
  8
0
 62
     9
100
AcDbPolyline
 90
        2
 70
     0
 39
0.003
 10
0.150913
 20
1.000295
 40
0.003
 41
0.003
 10
0.151169
 20
0.250295
 40
0.003
 41
0.003
  0
LWPOLYLINE
  5
162
100
AcDbEntity
  8
0
 62
     9
100
AcDbPolyline
 90
        2
 70
     0
 39
0.003
 10
0.151169
 20
0.250295
 40
0.003
 41
0.003
 10
0.173409
 20
0.261929
 40
0.003
 41
0.003
  0
LWPOLYLINE
  5
163
100
AcDbEntity
  8
0
 62
     9
100
AcDbPolyline
 90
        2
 70
     0
 39
0.003
 10
0.151169
 20
0.250295
 40
0.003
 41
0.003
 10
0.150913
 20
1.000295
 40
0.003
 41
0.003
  0
LWPOLYLINE
  5
164
100
AcDbEntity
  8
0
 62
     9
100
AcDbPolyline
 90
        2
 70
     0
 39
0.003
 10
0.150913
 20
1.000295
 40
0.003
 41
0.003
 10
0.129437
 20
0.986283
 40
0.003
 41
0.003
  0
LWPOLYLINE
  5
165
100
AcDbEntity
  8
0
 62
     9
100
AcDbPolyline
 90
        2
 70
     0
 39
0.003
 10
0.129437
 20
0.986283
 40
0.003
 41
0.003
 10
0.129693
 20
0.236283
 40
0.003
 41
0.003
  0
LWPOLYLINE
  5
166
100
AcDbEntity
  8
0
 62
     9
100
AcDbPolyline
 90
        2
 70
     0
 39
0.003
 10
0.129693
 20
0.236283
 40
0.003
 41
0.003
 10
0.151169
 20
0.250295
 40
0.003
 41
0.003
  0
LWPOLYLINE
  5
167
100
AcDbEntity
  8
0
 62
   253
100
AcDbPolyline
 90
        2
 70
     0
 39
0.003
 10
0.129693
 20
0.236283
 40
0.003
 41
0.003
 10
0.129437
 20
0.986283
 40
0.003
 41
0.003
  0
LWPOLYLINE
  5
168
100
AcDbEntity
  8
0
 62
   253
100
AcDbPolyline
 90
        2
 70
     0
 39
0.003
 10
0.129437
 20
0.986283
 40
0.003
 41
0.003
 10
0.108843
 20
0.969803
 40
0.003
 41
0.003
  0
LWPOLYLINE
  5
169
100
AcDbEntity
  8
0
 62
   253
100
AcDbPolyline
 90
        2
 70
     0
 39
0.003
 10
0.108843
 20
0.969803
 40
0.003
 41
0.003
 10
0.109098
 20
0.219803
 40
0.003
 41
0.003
  0
LWPOLYLINE
  5
16A
100
AcDbEntity
  8
0
 62
   253
100
AcDbPolyline
 90
        2
 70
     0
 39
0.003
 10
0.109098
 20
0.219803
 40
0.003
 41
0.003
 10
0.129693
 20
0.236283
 40
0.003
 41
0.003
  0
LWPOLYLINE
  5
16B
100
AcDbEntity
  8
0
 62
   253
100
AcDbPolyline
 90
        2
 70
     0
 39
0.003
 10
0.109098
 20
0.219803
 40
0.003
 41
0.003
 10
0.108843
 20
0.969803
 40
0.003
 41
0.003
  0
LWPOLYLINE
  5
16C
100
AcDbEntity
  8
0
 62
   253
100
AcDbPolyline
 90
        2
 70
     0
 39
0.003
 10
0.108843
 20
0.969803
 40
0.003
 41
0.003
 10
0.089272
 20
0.950799
 40
0.003
 41
0.003
  0
LWPOLYLINE
  5
16D
100
AcDbEntity
  8
0
 62
   253
100
AcDbPolyline
 90
        2
 70
     0
 39
0.003
 10
0.089272
 20
0.950799
 40
0.003
 41
0.003
 10
0.089528
 20
0.200799
 40
0.003
 41
0.003
  0
LWPOLYLINE
  5
16E
100
AcDbEntity
  8
0
 62
   253
100
AcDbPolyline
 90
        2
 70
     0
 39
0.003
 10
0.089528
 20
0.200799
 40
0.003
 41
0.003
 10
0.109098
 20
0.219803
 40
0.003
 41
0.003
  0
LWPOLYLINE
  5
16F
100
AcDbEntity
  8
0
 62
   253
100
AcDbPolyline
 90
        2
 70
     0
 39
0.003
 10
0.089528
 20
0.200799
 40
0.003
 41
0.003
 10
0.089272
 20
0.950799
 40
0.003
 41
0.003
  0
LWPOLYLINE
  5
170
100
AcDbEntity
  8
0
 62
   253
100
AcDbPolyline
 90
        2
 70
     0
 39
0.003
 10
0.089272
 20
0.950799
 40
0.003
 41
0.003
 10
0.070854
 20
0.929189
 40
0.003
 41
0.003
  0
LWPOLYLINE
  5
171
100
AcDbEntity
  8
0
 62
   253
100
AcDbPolyline
 90
        2
 70
     0
 39
0.003
 10
0.070854
 20
0.929189
 40
0.003
 41
0.003
 10
0.07111
 20
0.179189
 40
0.003
 41
0.003
  0
LWPOLYLINE
  5
172
100
AcDbEntity
  8
0
 62
   253
100
AcDbPolyline
 90
        2
 70
     0
 39
0.003
 10
0.07111
 20
0.179189
 40
0.003
 41
0.003
 10
0.089528
 20
0.200799
 40
0.003
 41
0.003
  0
LWPOLYLINE
  5
173
100
AcDbEntity
  8
0
 62
   252
100
AcDbPolyline
 90
        2
 70
     0
 39
0.003
 10
0.07111
 20
0.179189
 40
0.003
 41
0.003
 10
0.070854
 20
0.929189
 40
0.003
 41
0.003
  0
LWPOLYLINE
  5
174
100
AcDbEntity
  8
0
 62
   252
100
AcDbPolyline
 90
        2
 70
     0
 39
0.003
 10
0.070854
 20
0.929189
 40
0.003
 41
0.003
 10
0.053709
 20
0.904898
 40
0.003
 41
0.003
  0
LWPOLYLINE
  5
175
100
AcDbEntity
  8
0
 62
   252
100
AcDbPolyline
 90
        2
 70
     0
 39
0.003
 10
0.053709
 20
0.904898
 40
0.003
 41
0.003
 10
0.053965
 20
0.154898
 40
0.003
 41
0.003
  0
LWPOLYLINE
  5
176
100
AcDbEntity
  8
0
 62
   252
100
AcDbPolyline
 90
        2
 70
     0
 39
0.003
 10
0.053965
 20
0.154898
 40
0.003
 41
0.003
 10
0.07111
 20
0.179189
 40
0.003
 41
0.003
  0
LWPOLYLINE
  5
177
100
AcDbEntity
  8
0
 62
     8
100
AcDbPolyline
 90
        2
 70
     0
 39
0.003
 10
0.053965
 20
0.154898
 40
0.003
 41
0.003
 10
0.053709
 20
0.904898
 40
0.003
 41
0.003
  0
LWPOLYLINE
  5
178
100
AcDbEntity
  8
0
 62
     8
100
AcDbPolyline
 90
        2
 70
     0
 39
0.003
 10
0.053709
 20
0.904898
 40
0.003
 41
0.003
 10
0.037984
 20
0.877846
 40
0.003
 41
0.003
  0
LWPOLYLINE
  5
179
100
AcDbEntity
  8
0
 62
     8
100
AcDbPolyline
 90
        2
 70
     0
 39
0.003
 10
0.037984
 20
0.877846
 40
0.003
 41
0.003
 10
0.03824
 20
0.127846
 40
0.003
 41
0.003
  0
LWPOLYLINE
  5
17A
100
AcDbEntity
  8
0
 62
     8
100
AcDbPolyline
 90
        2
 70
     0
 39
0.003
 10
0.03824
 20
0.127846
 40
0.003
 41
0.003
 10
0.053965
 20
0.154898
 40
0.003
 41
0.003
  0
LWPOLYLINE
  5
17B
100
AcDbEntity
  8
0
 62
   127
100
AcDbPolyline
 90
        2
 70
     0
 39
0.003
 10
0.03824
 20
0.127846
 40
0.003
 41
0.003
 10
0.037984
 20
0.877846
 40
0.003
 41
0.003
  0
LWPOLYLINE
  5
17C
100
AcDbEntity
  8
0
 62
   127
100
AcDbPolyline
 90
        2
 70
     0
 39
0.003
 10
0.037984
 20
0.877846
 40
0.003
 41
0.003
 10
0.023799
 20
0.847969
 40
0.003
 41
0.003
  0
LWPOLYLINE
  5
17D
100
AcDbEntity
  8
0
 62
   127
100
AcDbPolyline
 90
        2
 70
     0
 39
0.003
 10
0.023799
 20
0.847969
 40
0.003
 41
0.003
 10
0.024055
 20
0.097969
 40
0.003
 41
0.003
  0
LWPOLYLINE
  5
17E
100
AcDbEntity
  8
0
 62
   127
100
AcDbPolyline
 90
        2
 70
     0
 39
0.003
 10
0.024055
 20
0.097969
 40
0.003
 41
0.003
 10
0.03824
 20
0.127846
 40
0.003
 41
0.003
  0
LWPOLYLINE
  5
17F
100
AcDbEntity
  8
0
 62
   127
100
AcDbPolyline
 90
        2
 70
     0
 39
0.003
 10
0.024055
 20
0.097969
 40
0.003
 41
0.003
 10
0.023799
 20
0.847969
 40
0.003
 41
0.003
  0
LWPOLYLINE
  5
180
100
AcDbEntity
  8
0
 62
   127
100
AcDbPolyline
 90
        2
 70
     0
 39
0.003
 10
0.023799
 20
0.847969
 40
0.003
 41
0.003
 10
0.011291
 20
0.815181
 40
0.003
 41
0.003
  0
LWPOLYLINE
  5
181
100
AcDbEntity
  8
0
 62
   127
100
AcDbPolyline
 90
        2
 70
     0
 39
0.003
 10
0.011291
 20
0.815181
 40
0.003
 41
0.003
 10
0.011547
 20
0.065181
 40
0.003
 41
0.003
  0
LWPOLYLINE
  5
182
100
AcDbEntity
  8
0
 62
   127
100
AcDbPolyline
 90
        2
 70
     0
 39
0.003
 10
0.011547
 20
0.065181
 40
0.003
 41
0.003
 10
0.024055
 20
0.097969
 40
0.003
 41
0.003
  0
LWPOLYLINE
  5
183
100
AcDbEntity
  8
0
 62
   251
100
AcDbPolyline
 90
        2
 70
     0
 39
0.003
 10
0.011547
 20
0.065181
 40
0.003
 41
0.003
 10
0.011291
 20
0.815181
 40
0.003
 41
0.003
  0
LWPOLYLINE
  5
184
100
AcDbEntity
  8
0
 62
   251
100
AcDbPolyline
 90
        2
 70
     0
 39
0.003
 10
0.011291
 20
0.815181
 40
0.003
 41
0.003
 10
0.000579
 20
0.779425
 40
0.003
 41
0.003
  0
LWPOLYLINE
  5
185
100
AcDbEntity
  8
0
 62
   251
100
AcDbPolyline
 90
        2
 70
     0
 39
0.003
 10
0.000579
 20
0.779425
 40
0.003
 41
0.003
 10
0.000835
 20
0.029425
 40
0.003
 41
0.003
  0
LWPOLYLINE
  5
186
100
AcDbEntity
  8
0
 62
   251
100
AcDbPolyline
 90
        2
 70
     0
 39
0.003
 10
0.000835
 20
0.029425
 40
0.003
 41
0.003
 10
0.011547
 20
0.065181
 40
0.003
 41
0.003
  0
LWPOLYLINE
  5
187
100
AcDbEntity
  8
0
 62
     0
100
AcDbPolyline
 90
        2
 70
     0
 39
0.003
 10
0.589024
 20
0.065972
 40
0.003
 41
0.003
 10
0.588768
 20
0.815972
 40
0.003
 41
0.003
  0
LWPOLYLINE
  5
188
100
AcDbEntity
  8
0
 62
     0
100
AcDbPolyline
 90
        2
 70
     0
 39
0.003
 10
0.588768
 20
0.815972
 40
0.003
 41
0.003
 10
0.58302
 20
0.837882
 40
0.003
 41
0.003
  0
LWPOLYLINE
  5
189
100
AcDbEntity
  8
0
 62
     0
100
AcDbPolyline
 90
        2
 70
     0
 39
0.003
 10
0.58302
 20
0.837882
 40
0.003
 41
0.003
 10
0.575154
 20
0.859059
 40
0.003
 41
0.003
  0
LWPOLYLINE
  5
18A
100
AcDbEntity
  8
0
 62
     0
100
AcDbPolyline
 90
        2
 70
     0
 39
0.003
 10
0.575154
 20
0.859059
 40
0.003
 41
0.003
 10
0.565287
 20
0.879417
 40
0.003
 41
0.003
  0
LWPOLYLINE
  5
18B
100
AcDbEntity
  8
0
 62
     0
100
AcDbPolyline
 90
        2
 70
     0
 39
0.003
 10
0.565287
 20
0.879417
 40
0.003
 41
0.003
 10
0.553567
 20
0.898886
 40
0.003
 41
0.003
  0
LWPOLYLINE
  5
18C
100
AcDbEntity
  8
0
 62
     0
100
AcDbPolyline
 90
        2
 70
     0
 39
0.003
 10
0.553567
 20
0.898886
 40
0.003
 41
0.003
 10
0.540102
 20
0.917382
 40
0.003
 41
0.003
  0
LWPOLYLINE
  5
18D
100
AcDbEntity
  8
0
 62
     0
100
AcDbPolyline
 90
        2
 70
     0
 39
0.003
 10
0.540102
 20
0.917382
 40
0.003
 41
0.003
 10
0.525043
 20
0.93485
 40
0.003
 41
0.003
  0
LWPOLYLINE
  5
18E
100
AcDbEntity
  8
0
 62
     0
100
AcDbPolyline
 90
        2
 70
     0
 39
0.003
 10
0.525043
 20
0.93485
 40
0.003
 41
0.003
 10
0.508512
 20
0.951197
 40
0.003
 41
0.003
  0
LWPOLYLINE
  5
18F
100
AcDbEntity
  8
0
 62
     0
100
AcDbPolyline
 90
        2
 70
     0
 39
0.003
 10
0.508512
 20
0.951197
 40
0.003
 41
0.003
 10
0.490642
 20
0.966358
 40
0.003
 41
0.003
  0
LWPOLYLINE
  5
190
100
AcDbEntity
  8
0
 62
     0
100
AcDbPolyline
 90
        2
 70
     0
 39
0.003
 10
0.490642
 20
0.966358
 40
0.003
 41
0.003
 10
0.471555
 20
0.980252
 40
0.003
 41
0.003
  0
LWPOLYLINE
  5
191
100
AcDbEntity
  8
0
 62
     0
100
AcDbPolyline
 90
        2
 70
     0
 39
0.003
 10
0.471555
 20
0.980252
 40
0.003
 41
0.003
 10
0.451398
 20
0.992807
 40
0.003
 41
0.003
  0
LWPOLYLINE
  5
192
100
AcDbEntity
  8
0
 62
     0
100
AcDbPolyline
 90
        2
 70
     0
 39
0.003
 10
0.451398
 20
0.992807
 40
0.003
 41
0.003
 10
0.430291
 20
1.003945
 40
0.003
 41
0.003
  0
LWPOLYLINE
  5
193
100
AcDbEntity
  8
0
 62
     0
100
AcDbPolyline
 90
        2
 70
     0
 39
0.003
 10
0.430291
 20
1.003945
 40
0.003
 41
0.003
 10
0.408378
 20
1.013606
 40
0.003
 41
0.003
  0
LWPOLYLINE
  5
194
100
AcDbEntity
  8
0
 62
     0
100
AcDbPolyline
 90
        2
 70
     0
 39
0.003
 10
0.408378
 20
1.013606
 40
0.003
 41
0.003
 10
0.385768
 20
1.021697
 40
0.003
 41
0.003
  0
LWPOLYLINE
  5
195
100
AcDbEntity
  8
0
 62
     0
100
AcDbPolyline
 90
        2
 70
     0
 39
0.003
 10
0.385768
 20
1.021697
 40
0.003
 41
0.003
 10
0.362614
 20
1.028157
 40
0.003
 41
0.003
  0
LWPOLYLINE
  5
196
100
AcDbEntity
  8
0
 62
     0
100
AcDbPolyline
 90
        2
 70
     0
 39
0.003
 10
0.362614
 20
1.028157
 40
0.003
 41
0.003
 10
0.339031
 20
1.032902
 40
0.003
 41
0.003
  0
LWPOLYLINE
  5
197
100
AcDbEntity
  8
0
 62
     0
100
AcDbPolyline
 90
        2
 70
     0
 39
0.003
 10
0.339031
 20
1.032902
 40
0.003
 41
0.003
 10
0.315165
 20
1.035866
 40
0.003
 41
0.003
  0
LWPOLYLINE
  5
198
100
AcDbEntity
  8
0
 62
     0
100
AcDbPolyline
 90
        2
 70
     0
 39
0.003
 10
0.315165
 20
1.035866
 40
0.003
 41
0.003
 10
0.29113
 20
1.036961
 40
0.003
 41
0.003
  0
LWPOLYLINE
  5
199
100
AcDbEntity
  8
0
 62
     0
100
AcDbPolyline
 90
        2
 70
     0
 39
0.003
 10
0.29113
 20
1.036961
 40
0.003
 41
0.003
 10
0.267067
 20
1.036122
 40
0.003
 41
0.003
  0
LWPOLYLINE
  5
19A
100
AcDbEntity
  8
0
 62
     0
100
AcDbPolyline
 90
        2
 70
     0
 39
0.003
 10
0.267067
 20
1.036122
 40
0.003
 41
0.003
 10
0.243106
 20
1.033272
 40
0.003
 41
0.003
  0
LWPOLYLINE
  5
19B
100
AcDbEntity
  8
0
 62
     0
100
AcDbPolyline
 90
        2
 70
     0
 39
0.003
 10
0.243106
 20
1.033272
 40
0.003
 41
0.003
 10
0.219386
 20
1.028343
 40
0.003
 41
0.003
  0
LWPOLYLINE
  5
19C
100
AcDbEntity
  8
0
 62
     0
100
AcDbPolyline
 90
        2
 70
     0
 39
0.003
 10
0.219386
 20
1.028343
 40
0.003
 41
0.003
 10
0.19602
 20
1.021248
 40
0.003
 41
0.003
  0
LWPOLYLINE
  5
19D
100
AcDbEntity
  8
0
 62
     0
100
AcDbPolyline
 90
        2
 70
     0
 39
0.003
 10
0.19602
 20
1.021248
 40
0.003
 41
0.003
 10
0.173154
 20
1.011929
 40
0.003
 41
0.003
  0
LWPOLYLINE
  5
19E
100
AcDbEntity
  8
0
 62
     0
100
AcDbPolyline
 90
        2
 70
     0
 39
0.003
 10
0.173154
 20
1.011929
 40
0.003
 41
0.003
 10
0.150913
 20
1.000295
 40
0.003
 41
0.003
  0
LWPOLYLINE
  5
19F
100
AcDbEntity
  8
0
 62
     0
100
AcDbPolyline
 90
        2
 70
     0
 39
0.003
 10
0.150913
 20
1.000295
 40
0.003
 41
0.003
 10
0.129437
 20
0.986283
 40
0.003
 41
0.003
  0
LWPOLYLINE
  5
1A0
100
AcDbEntity
  8
0
 62
     0
100
AcDbPolyline
 90
        2
 70
     0
 39
0.003
 10
0.129437
 20
0.986283
 40
0.003
 41
0.003
 10
0.108843
 20
0.969803
 40
0.003
 41
0.003
  0
LWPOLYLINE
  5
1A1
100
AcDbEntity
  8
0
 62
     0
100
AcDbPolyline
 90
        2
 70
     0
 39
0.003
 10
0.108843
 20
0.969803
 40
0.003
 41
0.003
 10
0.089272
 20
0.950799
 40
0.003
 41
0.003
  0
LWPOLYLINE
  5
1A2
100
AcDbEntity
  8
0
 62
     0
100
AcDbPolyline
 90
        2
 70
     0
 39
0.003
 10
0.089272
 20
0.950799
 40
0.003
 41
0.003
 10
0.070854
 20
0.929189
 40
0.003
 41
0.003
  0
LWPOLYLINE
  5
1A3
100
AcDbEntity
  8
0
 62
     0
100
AcDbPolyline
 90
        2
 70
     0
 39
0.003
 10
0.070854
 20
0.929189
 40
0.003
 41
0.003
 10
0.053709
 20
0.904898
 40
0.003
 41
0.003
  0
LWPOLYLINE
  5
1A4
100
AcDbEntity
  8
0
 62
     0
100
AcDbPolyline
 90
        2
 70
     0
 39
0.003
 10
0.053709
 20
0.904898
 40
0.003
 41
0.003
 10
0.037984
 20
0.877846
 40
0.003
 41
0.003
  0
LWPOLYLINE
  5
1A5
100
AcDbEntity
  8
0
 62
     0
100
AcDbPolyline
 90
        2
 70
     0
 39
0.003
 10
0.037984
 20
0.877846
 40
0.003
 41
0.003
 10
0.023799
 20
0.847969
 40
0.003
 41
0.003
  0
LWPOLYLINE
  5
1A6
100
AcDbEntity
  8
0
 62
     0
100
AcDbPolyline
 90
        2
 70
     0
 39
0.003
 10
0.023799
 20
0.847969
 40
0.003
 41
0.003
 10
0.011291
 20
0.815181
 40
0.003
 41
0.003
  0
LWPOLYLINE
  5
1A7
100
AcDbEntity
  8
0
 62
     0
100
AcDbPolyline
 90
        2
 70
     0
 39
0.003
 10
0.011291
 20
0.815181
 40
0.003
 41
0.003
 10
0.000579
 20
0.779425
 40
0.003
 41
0.003
  0
LWPOLYLINE
  5
1A8
100
AcDbEntity
  8
0
 62
     0
100
AcDbPolyline
 90
        2
 70
     0
 39
0.003
 10
0.000579
 20
0.779425
 40
0.003
 41
0.003
 10
0.000835
 20
0.029425
 40
0.003
 41
0.003
  0
LWPOLYLINE
  5
1A9
100
AcDbEntity
  8
0
 62
     0
100
AcDbPolyline
 90
        2
 70
     0
 39
0.003
 10
0.000835
 20
0.029425
 40
0.003
 41
0.003
 10
0.011547
 20
0.065181
 40
0.003
 41
0.003
  0
LWPOLYLINE
  5
1AA
100
AcDbEntity
  8
0
 62
     0
100
AcDbPolyline
 90
        2
 70
     0
 39
0.003
 10
0.011547
 20
0.065181
 40
0.003
 41
0.003
 10
0.024055
 20
0.097969
 40
0.003
 41
0.003
  0
LWPOLYLINE
  5
1AB
100
AcDbEntity
  8
0
 62
     0
100
AcDbPolyline
 90
        2
 70
     0
 39
0.003
 10
0.024055
 20
0.097969
 40
0.003
 41
0.003
 10
0.03824
 20
0.127846
 40
0.003
 41
0.003
  0
LWPOLYLINE
  5
1AC
100
AcDbEntity
  8
0
 62
     0
100
AcDbPolyline
 90
        2
 70
     0
 39
0.003
 10
0.03824
 20
0.127846
 40
0.003
 41
0.003
 10
0.053965
 20
0.154898
 40
0.003
 41
0.003
  0
LWPOLYLINE
  5
1AD
100
AcDbEntity
  8
0
 62
     0
100
AcDbPolyline
 90
        2
 70
     0
 39
0.003
 10
0.053965
 20
0.154898
 40
0.003
 41
0.003
 10
0.07111
 20
0.179189
 40
0.003
 41
0.003
  0
LWPOLYLINE
  5
1AE
100
AcDbEntity
  8
0
 62
     0
100
AcDbPolyline
 90
        2
 70
     0
 39
0.003
 10
0.07111
 20
0.179189
 40
0.003
 41
0.003
 10
0.089528
 20
0.200799
 40
0.003
 41
0.003
  0
LWPOLYLINE
  5
1AF
100
AcDbEntity
  8
0
 62
     0
100
AcDbPolyline
 90
        2
 70
     0
 39
0.003
 10
0.089528
 20
0.200799
 40
0.003
 41
0.003
 10
0.109098
 20
0.219803
 40
0.003
 41
0.003
  0
LWPOLYLINE
  5
1B0
100
AcDbEntity
  8
0
 62
     0
100
AcDbPolyline
 90
        2
 70
     0
 39
0.003
 10
0.109098
 20
0.219803
 40
0.003
 41
0.003
 10
0.129693
 20
0.236283
 40
0.003
 41
0.003
  0
LWPOLYLINE
  5
1B1
100
AcDbEntity
  8
0
 62
     0
100
AcDbPolyline
 90
        2
 70
     0
 39
0.003
 10
0.129693
 20
0.236283
 40
0.003
 41
0.003
 10
0.151169
 20
0.250295
 40
0.003
 41
0.003
  0
LWPOLYLINE
  5
1B2
100
AcDbEntity
  8
0
 62
     0
100
AcDbPolyline
 90
        2
 70
     0
 39
0.003
 10
0.151169
 20
0.250295
 40
0.003
 41
0.003
 10
0.173409
 20
0.261929
 40
0.003
 41
0.003
  0
LWPOLYLINE
  5
1B3
100
AcDbEntity
  8
0
 62
     0
100
AcDbPolyline
 90
        2
 70
     0
 39
0.003
 10
0.173409
 20
0.261929
 40
0.003
 41
0.003
 10
0.196276
 20
0.271248
 40
0.003
 41
0.003
  0
LWPOLYLINE
  5
1B4
100
AcDbEntity
  8
0
 62
     0
100
AcDbPolyline
 90
        2
 70
     0
 39
0.003
 10
0.196276
 20
0.271248
 40
0.003
 41
0.003
 10
0.219642
 20
0.278343
 40
0.003
 41
0.003
  0
LWPOLYLINE
  5
1B5
100
AcDbEntity
  8
0
 62
     0
100
AcDbPolyline
 90
        2
 70
     0
 39
0.003
 10
0.219642
 20
0.278343
 40
0.003
 41
0.003
 10
0.243362
 20
0.283272
 40
0.003
 41
0.003
  0
LWPOLYLINE
  5
1B6
100
AcDbEntity
  8
0
 62
     0
100
AcDbPolyline
 90
        2
 70
     0
 39
0.003
 10
0.243362
 20
0.283272
 40
0.003
 41
0.003
 10
0.267323
 20
0.286122
 40
0.003
 41
0.003
  0
LWPOLYLINE
  5
1B7
100
AcDbEntity
  8
0
 62
     0
100
AcDbPolyline
 90
        2
 70
     0
 39
0.003
 10
0.267323
 20
0.286122
 40
0.003
 41
0.003
 10
0.291386
 20
0.286961
 40
0.003
 41
0.003
  0
LWPOLYLINE
  5
1B8
100
AcDbEntity
  8
0
 62
     0
100
AcDbPolyline
 90
        2
 70
     0
 39
0.003
 10
0.291386
 20
0.286961
 40
0.003
 41
0.003
 10
0.315421
 20
0.285866
 40
0.003
 41
0.003
  0
LWPOLYLINE
  5
1B9
100
AcDbEntity
  8
0
 62
     0
100
AcDbPolyline
 90
        2
 70
     0
 39
0.003
 10
0.315421
 20
0.285866
 40
0.003
 41
0.003
 10
0.339287
 20
0.282902
 40
0.003
 41
0.003
  0
LWPOLYLINE
  5
1BA
100
AcDbEntity
  8
0
 62
     0
100
AcDbPolyline
 90
        2
 70
     0
 39
0.003
 10
0.339287
 20
0.282902
 40
0.003
 41
0.003
 10
0.36287
 20
0.278157
 40
0.003
 41
0.003
  0
LWPOLYLINE
  5
1BB
100
AcDbEntity
  8
0
 62
     0
100
AcDbPolyline
 90
        2
 70
     0
 39
0.003
 10
0.36287
 20
0.278157
 40
0.003
 41
0.003
 10
0.386024
 20
0.271697
 40
0.003
 41
0.003
  0
LWPOLYLINE
  5
1BC
100
AcDbEntity
  8
0
 62
     0
100
AcDbPolyline
 90
        2
 70
     0
 39
0.003
 10
0.386024
 20
0.271697
 40
0.003
 41
0.003
 10
0.408634
 20
0.263606
 40
0.003
 41
0.003
  0
LWPOLYLINE
  5
1BD
100
AcDbEntity
  8
0
 62
     0
100
AcDbPolyline
 90
        2
 70
     0
 39
0.003
 10
0.408634
 20
0.263606
 40
0.003
 41
0.003
 10
0.430547
 20
0.253945
 40
0.003
 41
0.003
  0
LWPOLYLINE
  5
1BE
100
AcDbEntity
  8
0
 62
     0
100
AcDbPolyline
 90
        2
 70
     0
 39
0.003
 10
0.430547
 20
0.253945
 40
0.003
 41
0.003
 10
0.451654
 20
0.242807
 40
0.003
 41
0.003
  0
LWPOLYLINE
  5
1BF
100
AcDbEntity
  8
0
 62
     0
100
AcDbPolyline
 90
        2
 70
     0
 39
0.003
 10
0.451654
 20
0.242807
 40
0.003
 41
0.003
 10
0.471811
 20
0.230252
 40
0.003
 41
0.003
  0
LWPOLYLINE
  5
1C0
100
AcDbEntity
  8
0
 62
     0
100
AcDbPolyline
 90
        2
 70
     0
 39
0.003
 10
0.471811
 20
0.230252
 40
0.003
 41
0.003
 10
0.490898
 20
0.216358
 40
0.003
 41
0.003
  0
LWPOLYLINE
  5
1C1
100
AcDbEntity
  8
0
 62
     0
100
AcDbPolyline
 90
        2
 70
     0
 39
0.003
 10
0.490898
 20
0.216358
 40
0.003
 41
0.003
 10
0.508768
 20
0.201197
 40
0.003
 41
0.003
  0
LWPOLYLINE
  5
1C2
100
AcDbEntity
  8
0
 62
     0
100
AcDbPolyline
 90
        2
 70
     0
 39
0.003
 10
0.508768
 20
0.201197
 40
0.003
 41
0.003
 10
0.525299
 20
0.18485
 40
0.003
 41
0.003
  0
LWPOLYLINE
  5
1C3
100
AcDbEntity
  8
0
 62
     0
100
AcDbPolyline
 90
        2
 70
     0
 39
0.003
 10
0.525299
 20
0.18485
 40
0.003
 41
0.003
 10
0.540358
 20
0.167382
 40
0.003
 41
0.003
  0
LWPOLYLINE
  5
1C4
100
AcDbEntity
  8
0
 62
     0
100
AcDbPolyline
 90
        2
 70
     0
 39
0.003
 10
0.540358
 20
0.167382
 40
0.003
 41
0.003
 10
0.553823
 20
0.148886
 40
0.003
 41
0.003
  0
LWPOLYLINE
  5
1C5
100
AcDbEntity
  8
0
 62
     0
100
AcDbPolyline
 90
        2
 70
     0
 39
0.003
 10
0.553823
 20
0.148886
 40
0.003
 41
0.003
 10
0.565543
 20
0.129417
 40
0.003
 41
0.003
  0
LWPOLYLINE
  5
1C6
100
AcDbEntity
  8
0
 62
     0
100
AcDbPolyline
 90
        2
 70
     0
 39
0.003
 10
0.565543
 20
0.129417
 40
0.003
 41
0.003
 10
0.575409
 20
0.109059
 40
0.003
 41
0.003
  0
LWPOLYLINE
  5
1C7
100
AcDbEntity
  8
0
 62
     0
100
AcDbPolyline
 90
        2
 70
     0
 39
0.003
 10
0.575409
 20
0.109059
 40
0.003
 41
0.003
 10
0.583276
 20
0.087882
 40
0.003
 41
0.003
  0
LWPOLYLINE
  5
1C8
100
AcDbEntity
  8
0
 62
     0
100
AcDbPolyline
 90
        2
 70
     0
 39
0.003
 10
0.583276
 20
0.087882
 40
0.003
 41
0.003
 10
0.589024
 20
0.065972
 40
0.003
 41
0.003
  0
LWPOLYLINE
  5
1C9
100
AcDbEntity
  8
0
 62
     9
100
AcDbPolyline
 90
        2
 70
     0
 39
0.003
 10
0.000835
 20
0.029425
 40
0.003
 41
0.003
 10
0.000579
 20
0.779425
 40
0.003
 41
0.003
  0
LWPOLYLINE
  5
1CA
100
AcDbEntity
  8
0
 62
     9
100
AcDbPolyline
 90
        2
 70
     0
 39
0.003
 10
0.000579
 20
0.779425
 40
0.003
 41
0.003
 10
-0.238795
 20
0.779425
 40
0.003
 41
0.003
  0
LWPOLYLINE
  5
1CB
100
AcDbEntity
  8
0
 62
     9
100
AcDbPolyline
 90
        2
 70
     0
 39
0.003
 10
-0.238795
 20
0.779425
 40
0.003
 41
0.003
 10
-0.238539
 20
0.029425
 40
0.003
 41
0.003
  0
LWPOLYLINE
  5
1CC
100
AcDbEntity
  8
0
 62
     9
100
AcDbPolyline
 90
        2
 70
     0
 39
0.003
 10
-0.238539
 20
0.029425
 40
0.003
 41
0.003
 10
0.000835
 20
0.029425
 40
0.003
 41
0.003
  0
LWPOLYLINE
  5
1CD
100
AcDbEntity
  8
0
 62
     0
100
AcDbPolyline
 90
        2
 70
     0
 39
0.003
 10
0.000835
 20
0.029425
 40
0.003
 41
0.003
 10
0.000579
 20
0.779425
 40
0.003
 41
0.003
  0
LWPOLYLINE
  5
1CE
100
AcDbEntity
  8
0
 62
     0
100
AcDbPolyline
 90
        2
 70
     0
 39
0.003
 10
0.000579
 20
0.779425
 40
0.003
 41
0.003
 10
-0.238795
 20
0.779425
 40
0.003
 41
0.003
  0
LWPOLYLINE
  5
1CF
100
AcDbEntity
  8
0
 62
     0
100
AcDbPolyline
 90
        2
 70
     0
 39
0.003
 10
-0.238795
 20
0.779425
 40
0.003
 41
0.003
 10
-0.238539
 20
0.029425
 40
0.003
 41
0.003
  0
LWPOLYLINE
  5
1D0
100
AcDbEntity
  8
0
 62
     0
100
AcDbPolyline
 90
        2
 70
     0
 39
0.003
 10
-0.238539
 20
0.029425
 40
0.003
 41
0.003
 10
0.000835
 20
0.029425
 40
0.003
 41
0.003
  0
LWPOLYLINE
  5
1D1
100
AcDbEntity
  8
0
 62
     7
100
AcDbPolyline
 90
        2
 70
     0
 39
0.003
 10
-0.23752
 20
-0.18637
 40
0.003
 41
0.003
 10
0.762539
 20
-0.18637
 40
0.003
 41
0.003
  0
LWPOLYLINE
  5
1D2
100
AcDbEntity
  8
0
 62
     7
100
AcDbPolyline
 90
        2
 70
     0
 39
0.003
 10
0.762539
 20
-0.18637
 40
0.003
 41
0.003
 10
0.762539
 20
0.064717
 40
0.003
 41
0.003
  0
LWPOLYLINE
  5
1D3
100
AcDbEntity
  8
0
 62
     7
100
AcDbPolyline
 90
        2
 70
     0
 39
0.003
 10
0.762539
 20
0.064717
 40
0.003
 41
0.003
 10
0.589024
 20
0.065972
 40
0.003
 41
0.003
  0
SPLINE
  5
1D4
100
AcDbEntity
  8
0
 62
     7
100
AcDbSpline
210
0.0
220
0.0
230
1.0
 70
     0
 71
     3
 72
     0
 73
     0
 74
    16
 44
0.0000000001
 11
0.5890236220472441
 21
0.0659724409448819
 31
0.0
 11
0.5754094488188977
 21
0.1090590551181102
 31
0.0
 11
0.5538228346456693
 21
0.1488858267716536
 31
0.0
 11
0.5252992125984252
 21
0.1848503937007874
 31
0.0
 11
0.4908976377952756
 21
0.2163582677165354
 31
0.0
 11
0.4516535433070866
 21
0.2428070866141732
 31
0.0
 11
0.4086299212598425
 21
0.2636062992125984
 31
0.0
 11
0.3628661417322835
 21
0.2781574803149606
 31
0.0
 11
0.3154173228346457
 21
0.2858661417322835
 31
0.0
 11
0.2673188976377953
 21
0.2861220472440945
 31
0.0
 11
0.2196377952755906
 21
0.2783425196850394
 31
0.0
 11
0.1734055118110236
 21
0.2619291338582677
 31
0.0
 11
0.1296889763779528
 21
0.2362834645669291
 31
0.0
 11
0.0895196850393701
 21
0.2007992125984252
 31
0.0
 11
0.0539566929133858
 21
0.1548976377952756
 31
0.0
 11
0.0240433070866142
 21
0.0979685039370079
 31
0.0
  0
LWPOLYLINE
  5
1D5
100
AcDbEntity
  8
0
 62
     7
100
AcDbPolyline
 90
        2
 70
     0
 39
0.003
 10
0.024043
 20
0.097969
 40
0.003
 41
0.003
 10
0.000835
 20
0.029425
 40
0.003
 41
0.003
  0
LWPOLYLINE
  5
1D6
100
AcDbEntity
  8
0
 62
     7
100
AcDbPolyline
 90
        2
 70
     0
 39
0.003
 10
0.000835
 20
0.029425
 40
0.003
 41
0.003
 10
-0.238539
 20
0.029425
 40
0.003
 41
0.003
  0
LWPOLYLINE
  5
1D7
100
AcDbEntity
  8
0
 62
     7
100
AcDbPolyline
 90
        2
 70
     0
 39
0.003
 10
-0.238539
 20
0.029425
 40
0.003
 41
0.003
 10
-0.23752
 20
-0.18637
 40
0.003
 41
0.003
  0
MTEXT
  5
1D8
100
AcDbEntity
  8
0
 62
     0
100
AcDbMText
 10
-0.381394
 20
-0.102823
 30
0.0
 40
0.166665
 41
0.0
 71
     1
 72
     1
  1
{\fBookman Old Style|b0|i0|c0|p32;BA  1390}
 73
     1
 44
1.0
  0
MTEXT
  5
1D9
100
AcDbEntity
  8
0
 62
     0
100
AcDbMText
 10
-0.381394
 20
-0.290323
 30
0.0
 40
0.166665
 41
0.0
 71
     1
 72
     1
  1
{\fBookman Old Style|b0|i0|c0|p32;?"x 1" }
 73
     1
 44
1.0
  0
ENDSEC
  0
SECTION
  2
OBJECTS
  0
DICTIONARY
  5
19
100
AcDbDictionary
280
     0
281
     1
  3
ACAD_GROUP
350
1A
  3
ACAD_MLINESTYLE
350
1B
  3
ACAD_LAYOUT
350
1E
  3
ACAD_PLOTSETTINGS
350
22
  3
ACAD_PLOTSTYLENAME
350
1F
  3
ACAD_WIPEOUT_VARS
350
23
  0
DICTIONARY
  5
1A
102
{ACAD_REACTORS
330
19
102
}
100
AcDbDictionary
280
     0
281
     1
  0
DICTIONARY
  5
1B
102
{ACAD_REACTORS
330
19
102
}
100
AcDbDictionary
280
     0
281
     1
  3
Standard
350
1C
  0
MLINESTYLE
  5
1C
102
{ACAD_REACTORS
330
1B
102
}
100
AcDbMlineStyle
  2
Standard
 70
     0
  3

 62
     0
 51
90.0
 52
90.0
 71
     2
 49
0.5
 62
   256
  6
BYLAYER
 49
-0.5
 62
   256
  6
BYLAYER
  0
ACDBDICTIONARYWDFLT
  5
1F
102
{ACAD_REACTORS
330
19
102
}
100
AcDbDictionary
281
     1
  3
Normal
350
1D
100
AcDbDictionaryWithDefault
340
1D
  0
ACDBPLACEHOLDER
  5
1D
102
{ACAD_REACTORS
330
1F
102
}
  0
LAYOUT
  5
20
102
{ACAD_REACTORS
330
1E
102
}
100
AcDbPlotSettings
  1

  2

  4

  6

 40
0.0
 41
0.0
 42
0.0
 43
0.0
 44
0.0
 45
0.0
 46
0.0
 47
0.0
 48
0.0
 49
0.0
140
0.0
141
0.0
142
1.0
143
1.0
 70
  1024
 72
     0
 73
     0
 74
     0
  7

 75
     0
147
1.0
148
0.0
149
0.0
100
AcDbLayout
  1
Model
 70
     0
 71
     0
 10
0.0
 20
0.0
 11
0.0
 21
0.0
 12
0.0
 22
0.0
 32
0.0
 14
0.0
 24
0.0
 34
0.0
 15
0.0
 25
0.0
 35
0.0
146
0.0
 13
0.0
 23
0.0
 33
0.0
 16
0.0
 26
0.0
 36
0.0
 17
0.0
 27
0.0
 37
0.0
 76
     0
330
A
331
0
345
0
346
0
  0
LAYOUT
  5
21
102
{ACAD_REACTORS
330
1E
102
}
100
AcDbPlotSettings
  1

  2

  4

  6

 40
0.0
 41
0.0
 42
0.0
 43
0.0
 44
0.0
 45
0.0
 46
0.0
 47
0.0
 48
0.0
 49
0.0
140
0.0
141
0.0
142
1.0
143
1.0
 70
     0
 72
     0
 73
     0
 74
     0
  7

 75
     0
147
1.0
148
0.0
149
0.0
100
AcDbLayout
  1
Layout1
 70
     0
 71
     0
 10
0.0
 20
0.0
 11
0.0
 21
0.0
 12
0.0
 22
0.0
 32
0.0
 14
0.0
 24
0.0
 34
0.0
 15
0.0
 25
0.0
 35
0.0
146
0.0
 13
0.0
 23
0.0
 33
0.0
 16
0.0
 26
0.0
 36
0.0
 17
0.0
 27
0.0
 37
0.0
 76
     0
330
B
331
0
345
0
346
0
  0
DICTIONARY
  5
1E
102
{ACAD_REACTORS
330
19
102
}
100
AcDbDictionary
280
     0
281
     1
  3
Layout1
350
21
  3
Model
350
20
  0
DICTIONARY
  5
22
102
{ACAD_REACTORS
330
19
102
}
100
AcDbDictionary
280
     0
281
     1
  0
WIPEOUTVARIABLES
  5
23
100
AcDbWipeoutVariables
 70
     1
  0
ENDSEC
  0
EOF
