  0
SECTION
  2
HEADER
  9
$ACADVER
  1
AC1015
  9
$ACADMAINTVER
 70
     6
  9
$DWGCODEPAGE
  3
DOS850
  9
$INSBASE
 10
0.0
 20
0.0
 30
0.0
  9
$EXTMIN
 10
1.000000E+20
 20
1.000000E+20
 30
1.000000E+20
  9
$EXTMAX
 10
-1.000000E+20
 20
-1.000000E+20
 30
-1.000000E+20
  9
$LIMMIN
 10
0.0
 20
0.0
  9
$LIMMAX
 10
0.0
 20
0.0
  9
$ORTHOMODE
 70
     0
  9
$REGENMODE
 70
     1
  9
$FILLMODE
 70
     1
  9
$QTEXTMODE
 70
     0
  9
$MIRRTEXT
 70
     1
  9
$LTSCALE
 40
1.0
  9
$ATTMODE
 70
     1
  9
$TEXTSIZE
 40
0.2
  9
$TRACEWID
 40
0.05
  9
$TEXTSTYLE
  7
Standard
  9
$CLAYER
  8
0
  9
$CELTYPE
  6
Continuous
  9
$CECOLOR
 62
   256
  9
$CELTSCALE
 40
1.0
  9
$DISPSILH
 70
     0
  9
$DIMSCALE
 40
1.0
  9
$DIMASZ
 40
0.18
  9
$DIMEXO
 40
0.0625
  9
$DIMDLI
 40
0.38
  9
$DIMRND
 40
0.0
  9
$DIMDLE
 40
0.0
  9
$DIMEXE
 40
0.18
  9
$DIMTP
 40
0.0
  9
$DIMTM
 40
0.0
  9
$DIMTXT
 40
0.18
  9
$DIMCEN
 40
0.09
  9
$DIMTSZ
 40
0.0
  9
$DIMTOL
 70
     0
  9
$DIMLIM
 70
     0
  9
$DIMTIH
 70
     1
  9
$DIMTOH
 70
     1
  9
$DIMSE1
 70
     0
  9
$DIMSE2
 70
     0
  9
$DIMTAD
 70
     0
  9
$DIMZIN
 70
     0
  9
$DIMBLK
  1

  9
$DIMASO
 70
     1
  9
$DIMSHO
 70
     1
  9
$DIMPOST
  1

  9
$DIMAPOST
  1

  9
$DIMALT
 70
     0
  9
$DIMALTD
 70
     2
  9
$DIMALTF
 40
25.4
  9
$DIMLFAC
 40
1.0
  9
$DIMTOFL
 70
     0
  9
$DIMTVP
 40
0.0
  9
$DIMTIX
 70
     0
  9
$DIMSOXD
 70
     0
  9
$DIMSAH
 70
     0
  9
$DIMBLK1
  1

  9
$DIMBLK2
  1

  9
$DIMSTYLE
  2
Standard
  9
$DIMCLRD
 70
     0
  9
$DIMCLRE
 70
     0
  9
$DIMCLRT
 70
     0
  9
$DIMTFAC
 40
1.0
  9
$DIMGAP
 40
0.09
  9
$DIMJUST
 70
     0
  9
$DIMSD1
 70
     0
  9
$DIMSD2
 70
     0
  9
$DIMTOLJ
 70
     1
  9
$DIMTZIN
 70
     0
  9
$DIMALTZ
 70
     0
  9
$DIMALTTZ
 70
     0
  9
$DIMUPT
 70
     0
  9
$DIMDEC
 70
     4
  9
$DIMTDEC
 70
     4
  9
$DIMALTU
 70
     2
  9
$DIMALTTD
 70
     2
  9
$DIMTXSTY
  7
Standard
  9
$DIMAUNIT
 70
     0
  9
$DIMADEC
 70
     0
  9
$DIMALTRND
 40
0.0
  9
$DIMAZIN
 70
     0
  9
$DIMDSEP
 70
     0
  9
$DIMATFIT
 70
     3
  9
$DIMFRAC
 70
     0
  9
$DIMLDRBLK
  1

  9
$DIMLUNIT
 70
     2
  9
$DIMLWD
 70
     0
  9
$DIMLWE
 70
     0
  9
$DIMTMOVE
 70
     0
  9
$LUNITS
 70
     2
  9
$LUPREC
 70
     4
  9
$SKETCHINC
 40
0.1
  9
$FILLETRAD
 40
0.0
  9
$AUNITS
 70
     0
  9
$AUPREC
 70
     0
  9
$MENU
  1
acad
  9
$ELEVATION
 40
0.0
  9
$PELEVATION
 40
0.0
  9
$THICKNESS
 40
0.0
  9
$LIMCHECK
 70
     0
  9
$CHAMFERA
 40
0.0
  9
$CHAMFERB
 40
0.0
  9
$CHAMFERC
 40
0.0
  9
$CHAMFERD
 40
0.0
  9
$SKPOLY
 70
     0
  9
$TDCREATE
 40
0.000000000
  9
$TDUCREATE
 40
0.000000000
  9
$TDUPDATE
 40
0.000000000
  9
$TDUUPDATE
 40
0.000000000
  9
$TDINDWG
 40
0.0000000000
  9
$TDUSRTIMER
 40
0.0000000000
  9
$USRTIMER
 70
     1
  9
$ANGBASE
 50
0.0
  9
$ANGDIR
 70
     0
  9
$PDMODE
 70
     0
  9
$PDSIZE
 40
0.0
  9
$PLINEWID
 40
0.0
  9
$SPLFRAME
 70
     0
  9
$SPLINETYPE
 70
     6
  9
$SPLINESEGS
 70
     8
  9
$HANDSEED
  5
C2
  9
$SURFTAB1
 70
     6
  9
$SURFTAB2
 70
     6
  9
$SURFTYPE
 70
     6
  9
$SURFU
 70
     6
  9
$SURFV
 70
     6
  9
$UCSBASE
  2

  9
$UCSNAME
  2

  9
$UCSORG
 10
0.0
 20
0.0
 30
0.0
  9
$UCSXDIR
 10
1.0
 20
0.0
 30
0.0
  9
$UCSYDIR
 10
0.0
 20
1.0
 30
0.0
  9
$UCSORTHOREF
  2

  9
$UCSORTHOVIEW
 70
     0
  9
$UCSORGTOP
 10
0.0
 20
0.0
 30
0.0
  9
$UCSORGBOTTOM
 10
0.0
 20
0.0
 30
0.0
  9
$UCSORGLEFT
 10
0.0
 20
0.0
 30
0.0
  9
$UCSORGRIGHT
 10
0.0
 20
0.0
 30
0.0
  9
$UCSORGFRONT
 10
0.0
 20
0.0
 30
0.0
  9
$UCSORGBACK
 10
0.0
 20
0.0
 30
0.0
  9
$PUCSBASE
  2

  9
$PUCSNAME
  2

  9
$PUCSORG
 10
0.0
 20
0.0
 30
0.0
  9
$PUCSXDIR
 10
1.0
 20
0.0
 30
0.0
  9
$PUCSYDIR
 10
0.0
 20
1.0
 30
0.0
  9
$PUCSORTHOREF
  2

  9
$PUCSORTHOVIEW
 70
     0
  9
$PUCSORGTOP
 10
0.0
 20
0.0
 30
0.0
  9
$PUCSORGBOTTOM
 10
0.0
 20
0.0
 30
0.0
  9
$PUCSORGLEFT
 10
0.0
 20
0.0
 30
0.0
  9
$PUCSORGRIGHT
 10
0.0
 20
0.0
 30
0.0
  9
$PUCSORGFRONT
 10
0.0
 20
0.0
 30
0.0
  9
$PUCSORGBACK
 10
0.0
 20
0.0
 30
0.0
  9
$USERI1
 70
     0
  9
$USERI2
 70
     0
  9
$USERI3
 70
     0
  9
$USERI4
 70
     0
  9
$USERI5
 70
     0
  9
$USERR1
 40
0.0
  9
$USERR2
 40
0.0
  9
$USERR3
 40
0.0
  9
$USERR4
 40
0.0
  9
$USERR5
 40
0.0
  9
$WORLDVIEW
 70
     1
  9
$SHADEDGE
 70
     3
  9
$SHADEDIF
 70
    70
  9
$TILEMODE
 70
     1
  9
$MAXACTVP
 70
    16
  9
$PINSBASE
 10
0.0
 20
0.0
 30
0.0
  9
$PLIMCHECK
 70
     0
  9
$PEXTMIN
 10
1.000000E+20
 20
1.000000E+20
 30
1.000000E+20
  9
$PEXTMAX
 10
-1.000000E+20
 20
-1.000000E+20
 30
-1.000000E+20
  9
$PLIMMIN
 10
0.0
 20
0.0
  9
$PLIMMAX
 10
12.0
 20
9.0
  9
$UNITMODE
 70
     0
  9
$VISRETAIN
 70
     0
  9
$PLINEGEN
 70
     1
  9
$PSLTSCALE
 70
     0
  9
$TREEDEPTH
 70
  3020
  9
$CMLSTYLE
  2
Standard
  9
$CMLJUST
 70
     0
  9
$CMLSCALE
 40
1.0
  9
$PROXYGRAPHICS
 70
     0
  9
$MEASUREMENT
 70
     0
  9
$CELWEIGHT
370
     0
  9
$ENDCAPS
280
     0
  9
$JOINSTYLE
280
     0
  9
$LWDISPLAY
290
     0
  9
$INSUNITS
 70
     0
  9
$HYPERLINKBASE
  1

  9
$XEDIT
290
     1
  9
$CEPSNTYPE
380
     0
  9
$PSTYLEMODE
290
     1
  9
$FINGERPRINTGUID
  2

  9
$VERSIONGUID
  2

  9
$EXTNAMES
290
     1
  9
$PSVPSCALE
 40
0.0
  0
ENDSEC
  0
SECTION
  2
CLASSES
  0
CLASS
  1
LWPOLYLINE
  2
AcDbPolyline
  3
AutoCAD 2000
 90
    32768
280
     0
281
     1
  0
CLASS
  1
IMAGE
  2
AcDbRasterImage
  3
ISM
 90
    32895
280
     0
281
     1
  0
CLASS
  1
OLE2FRAME
  2
AcDbOle2Frame
  3
AutoCAD 2000
 90
    32768
280
     0
281
     1
  0
CLASS
  1
HATCH
  2
AcDbHatch
  3
AutoCAD 2000
 90
    32768
280
     0
281
     1
  0
CLASS
  1
DICTIONARYVAR
  2
AcDbDictionaryVar
  3
AutoCAD 2000
 90
    32768
280
     0
281
     0
  0
CLASS
  1
RASTERVARIABLES
  2
AcDbRasterVariables
  3
ISM
 90
    32768
280
     0
281
     0
  0
CLASS
  1
IMAGEDEF
  2
AcDbRasterImageDef
  3
ISM
 90
    32768
280
     0
281
     0
  0
CLASS
  1
IMAGEDEF_REACTOR
  2
AcDbRasterImageDefReactor
  3
ISM
 90
    32769
280
     0
281
     0
  0
CLASS
  1
IDBUFFER
  2
AcDbIdBuffer
  3
AutoCAD 2000
 90
    32768
280
     0
281
     0
  0
CLASS
  1
SPATIAL_FILTER
  2
AcDbSpatialFilter
  3
AutoCAD 2000
 90
    32768
280
     0
281
     0
  0
CLASS
  1
XRECORD
  2
AcDbXrecord
  3
AutoCAD 2000
 90
    32768
280
     0
281
     0
  0
CLASS
  1
SORTENTSTABLE
  2
AcDbSortentsTable
  3
AutoCAD 2000
 90
    32768
280
     0
281
     0
  0
CLASS
  1
LAYER_INDEX
  2
AcDbLayerIndex
  3
AutoCAD 2000
 90
    32768
280
     0
281
     0
  0
CLASS
  1
SPATIAL_INDEX
  2
AcDbSpatialIndex
  3
AutoCAD 2000
 90
    32768
280
     0
281
     0
  0
CLASS
  1
OBJECT_PTR
  2
CAseDLPNTableRecord
  3
"ASE-LPNTableRecord"
 90
    32769
280
     0
281
     0
  0
CLASS
  1
LAYOUT
  2
AcDbLayout
  3
AutoCAD 2000
 90
        0
280
     0
281
     0
  0
CLASS
  1
PLOTSETTINGS
  2
AcDbPlotSettings
  3
AutoCAD 2000
 90
    32768
280
     0
281
     0
  0
CLASS
  1
ACDBDICTIONARYWDFLT
  2
AcDbDictionaryWithDefault
  3
AutoCAD 2000
 90
        0
280
     0
281
     0
  0
CLASS
  1
ACDBPLACEHOLDER
  2
AcDbPlaceHolder
  3
AutoCAD 2000
 90
        0
280
     0
281
     0
  0
CLASS
  1
VBA_PROJECT
  2
AcDbVbaProject
  3
acadvba
 90
    32768
280
     0
281
     0
  0
CLASS
  1
WIPEOUT
  2
AcDbWipeout
  3
WipeOut|AutoCAD Express Tool|expresstools@autodesk.com
 90
    32895
280
     0
281
     1
  0
CLASS
  1
WIPEOUTVARIABLES
  2
AcDbWipeoutVariables
  3
WipeOut|AutoCAD Express Tool|expresstools@autodesk.com
 90
        0
280
     0
281
     0
  0
CLASS
  1
RTEXT
  2
RText
  3
RText|AutoCAD Express Tool|expresstools@autodesk.com
 90
    32768
280
     0
281
     1
  0
CLASS
  1
ARCALIGNEDTEXT
  2
AcDbArcAlignedText
  3
ATEXT|AutoCAD Express Tool|expresstools@autodesk.com
 90
    32768
280
     0
281
     1
  0
ENDSEC
  0
SECTION
  2
TABLES
  0
TABLE
  2
VPORT
  5
7
100
AcDbSymbolTable
 70
     1
  0
VPORT
  5
15
100
AcDbSymbolTableRecord
100
AcDbViewportTableRecord
  2
*ACTIVE
 70
     0
 10
0.0
 20
0.0
 11
1.0
 21
1.0
 12
6.591288
 22
4.579184
 13
0.0
 23
0.0
 14
1.0
 24
1.0
 15
0.0
 25
0.0
 16
0.0
 26
0.0
 36
1.0
 17
0.0
 27
0.0
 37
0.0
 40
9.158369
 41
0.688564
 42
50.0
 43
0.0
 44
0.0
 50
0.0
 51
0.0
 71
     0
 72
   100
 73
     1
 74
     1
 75
     0
 76
     0
 77
     0
 78
     0
281
     0
 65
     0
110
0.0
120
0.0
130
0.0
111
1.0
121
0.0
131
0.0
112
0.0
122
1.0
132
0.0
345
0
346
0
 79
     0
146
0.0
  0
ENDTAB
  0
TABLE
  2
LTYPE
  5
4
100
AcDbSymbolTable
 70
     3
  0
LTYPE
  5
11
100
AcDbSymbolTableRecord
100
AcDbLinetypeTableRecord
  2
ByBlock
 70
    64
  3

 72
    65
 73
     0
 40
0.0
  0
LTYPE
  5
12
100
AcDbSymbolTableRecord
100
AcDbLinetypeTableRecord
  2
ByLayer
 70
    64
  3

 72
    65
 73
     0
 40
0.0
  0
LTYPE
  5
13
100
AcDbSymbolTableRecord
100
AcDbLinetypeTableRecord
  2
Continuous
 70
    64
  3
Solid line
 72
    65
 73
     0
 40
0.0
  0
ENDTAB
  0
TABLE
  2
LAYER
  5
2
100
AcDbSymbolTable
 70
     1
  0
LAYER
  5
14
100
AcDbSymbolTableRecord
100
AcDbLayerTableRecord
  2
0
 70
     0
 62
     7
  6
Continuous
290
     1
370
    -3
390
1D
  0
ENDTAB
  0
TABLE
  2
STYLE
  5
3
100
AcDbSymbolTable
 70
     1
  0
STYLE
  5
17
100
AcDbSymbolTableRecord
100
AcDbTextStyleTableRecord
  2
Standard
 70
     0
 40
0.0
 41
1.0
 50
0.0
 71
     0
 42
0.0
  3
txt
  4

  0
ENDTAB
  0
TABLE
  2
VIEW
  5
5
100
AcDbSymbolTable
 70
     0
  0
ENDTAB
  0
TABLE
  2
UCS
  5
6
100
AcDbSymbolTable
 70
     0
  0
ENDTAB
  0
TABLE
  2
APPID
  5
8
100
AcDbSymbolTable
 70
     1
  0
APPID
  5
16
100
AcDbSymbolTableRecord
100
AcDbRegAppTableRecord
  2
ACAD
 70
     0
  0
ENDTAB
  0
TABLE
  2
DIMSTYLE
  5
9
100
AcDbSymbolTable
 70
     1
100
AcDbDimStyleTable
 71
     0
  0
DIMSTYLE
105
18
100
AcDbSymbolTableRecord
100
AcDbDimStyleTableRecord
  2
Standard
 70
     0
  3

  4

 40
1.0
 41
0.18
 42
0.0625
 43
0.38
 44
0.18
 45
0.0
 46
0.0
 47
0.0
 48
0.0
 71
     0
 72
     0
 73
     1
 74
     1
 75
     0
 76
     0
 77
     0
 78
     0
 79
     0
140
0.18
141
0.09
142
0.0
143
25.4
144
1.0
145
0.0
146
1.0
147
0.09
148
0.0
170
     0
171
     2
172
     0
173
     0
174
     0
175
     0
176
     0
177
     0
178
     0
179
     0
271
     4
272
     4
273
     2
274
     2
275
     0
276
     0
277
     2
278
    46
279
     0
280
     0
281
     0
282
     0
283
     1
284
     0
285
     0
286
     0
288
     0
340
17
341
0
342
0
343
0
344
0
371
    -2
372
    -2
  0
ENDTAB
  0
TABLE
  2
BLOCK_RECORD
  5
1
100
AcDbSymbolTable
 70
     0
  0
BLOCK_RECORD
  5
A
100
AcDbSymbolTableRecord
100
AcDbBlockTableRecord
  2
*MODEL_SPACE
340
20
  0
BLOCK_RECORD
  5
B
100
AcDbSymbolTableRecord
100
AcDbBlockTableRecord
  2
*PAPER_SPACE
340
21
  0
ENDTAB
  0
ENDSEC
  0
SECTION
  2
BLOCKS
  0
BLOCK
  5
D
100
AcDbEntity
  8
0
100
AcDbBlockBegin
  2
*MODEL_SPACE
 70
     0
 10
0.0
 20
0.0
 30
0.0
  3
*MODEL_SPACE
  1

  0
ENDBLK
  5
E
100
AcDbEntity
  8
0
100
AcDbBlockEnd
  0
BLOCK
  5
F
100
AcDbEntity
 67
     1
  8
0
100
AcDbBlockBegin
  2
*PAPER_SPACE
 70
     0
 10
0.0
 20
0.0
 30
0.0
  3
*PAPER_SPACE
  1

  0
ENDBLK
  5
10
100
AcDbEntity
 67
     1
  8
0
100
AcDbBlockEnd
  0
ENDSEC
  0
SECTION
  2
ENTITIES
  0
LINE
  5
24
100
AcDbEntity
  8
0
 62
   252
100
AcDbLine
 10
-0.567083
 20
-0.65963
 30
0.0
 11
-0.569161
 21
0.088709
 31
0.0
  0
LINE
  5
25
100
AcDbEntity
  8
0
 62
   252
100
AcDbLine
 10
-0.569161
 20
0.088709
 30
0.0
 11
-0.536598
 21
0.127512
 31
0.0
  0
LINE
  5
26
100
AcDbEntity
  8
0
 62
   252
100
AcDbLine
 10
-0.536598
 20
0.127512
 30
0.0
 11
-0.53452
 21
-0.620827
 31
0.0
  0
LINE
  5
27
100
AcDbEntity
  8
0
 62
   252
100
AcDbLine
 10
-0.53452
 20
-0.620827
 30
0.0
 11
-0.567083
 21
-0.65963
 31
0.0
  0
LINE
  5
28
100
AcDbEntity
  8
0
 62
   252
100
AcDbLine
 10
-0.53452
 20
-0.620827
 30
0.0
 11
-0.536598
 21
0.127512
 31
0.0
  0
LINE
  5
29
100
AcDbEntity
  8
0
 62
   252
100
AcDbLine
 10
-0.536598
 20
0.127512
 30
0.0
 11
-0.504035
 21
0.158693
 31
0.0
  0
LINE
  5
2A
100
AcDbEntity
  8
0
 62
   252
100
AcDbLine
 10
-0.504035
 20
0.158693
 30
0.0
 11
-0.501957
 21
-0.589646
 31
0.0
  0
LINE
  5
2B
100
AcDbEntity
  8
0
 62
   252
100
AcDbLine
 10
-0.501957
 20
-0.589646
 30
0.0
 11
-0.53452
 21
-0.620827
 31
0.0
  0
LINE
  5
2C
100
AcDbEntity
  8
0
 62
   252
100
AcDbLine
 10
-0.501957
 20
-0.589646
 30
0.0
 11
-0.504035
 21
0.158693
 31
0.0
  0
LINE
  5
2D
100
AcDbEntity
  8
0
 62
   252
100
AcDbLine
 10
-0.504035
 20
0.158693
 30
0.0
 11
-0.472165
 21
0.182941
 31
0.0
  0
LINE
  5
2E
100
AcDbEntity
  8
0
 62
   252
100
AcDbLine
 10
-0.472165
 20
0.182941
 30
0.0
 11
-0.469394
 21
-0.565394
 31
0.0
  0
LINE
  5
2F
100
AcDbEntity
  8
0
 62
   252
100
AcDbLine
 10
-0.469394
 20
-0.565394
 30
0.0
 11
-0.501957
 21
-0.589646
 31
0.0
  0
LINE
  5
30
100
AcDbEntity
  8
0
 62
   253
100
AcDbLine
 10
-0.469394
 20
-0.565394
 30
0.0
 11
-0.472165
 21
0.182941
 31
0.0
  0
LINE
  5
31
100
AcDbEntity
  8
0
 62
   253
100
AcDbLine
 10
-0.472165
 20
0.182941
 30
0.0
 11
-0.439602
 21
0.200957
 31
0.0
  0
LINE
  5
32
100
AcDbEntity
  8
0
 62
   253
100
AcDbLine
 10
-0.439602
 20
0.200957
 30
0.0
 11
-0.437524
 21
-0.547378
 31
0.0
  0
LINE
  5
33
100
AcDbEntity
  8
0
 62
   253
100
AcDbLine
 10
-0.437524
 20
-0.547378
 30
0.0
 11
-0.469394
 21
-0.565394
 31
0.0
  0
LINE
  5
34
100
AcDbEntity
  8
0
 62
   253
100
AcDbLine
 10
-0.437524
 20
-0.547378
 30
0.0
 11
-0.439602
 21
0.200957
 31
0.0
  0
LINE
  5
35
100
AcDbEntity
  8
0
 62
   253
100
AcDbLine
 10
-0.439602
 20
0.200957
 30
0.0
 11
-0.407732
 21
0.213429
 31
0.0
  0
LINE
  5
36
100
AcDbEntity
  8
0
 62
   253
100
AcDbLine
 10
-0.407732
 20
0.213429
 30
0.0
 11
-0.405654
 21
-0.534906
 31
0.0
  0
LINE
  5
37
100
AcDbEntity
  8
0
 62
   253
100
AcDbLine
 10
-0.405654
 20
-0.534906
 30
0.0
 11
-0.437524
 21
-0.547378
 31
0.0
  0
LINE
  5
38
100
AcDbEntity
  8
0
 62
   253
100
AcDbLine
 10
-0.405654
 20
-0.534906
 30
0.0
 11
-0.407732
 21
0.213429
 31
0.0
  0
LINE
  5
39
100
AcDbEntity
  8
0
 62
   253
100
AcDbLine
 10
-0.407732
 20
0.213429
 30
0.0
 11
-0.376555
 21
0.220358
 31
0.0
  0
LINE
  5
3A
100
AcDbEntity
  8
0
 62
   253
100
AcDbLine
 10
-0.376555
 20
0.220358
 30
0.0
 11
-0.374476
 21
-0.527976
 31
0.0
  0
LINE
  5
3B
100
AcDbEntity
  8
0
 62
   253
100
AcDbLine
 10
-0.374476
 20
-0.527976
 30
0.0
 11
-0.405654
 21
-0.534906
 31
0.0
  0
LINE
  5
3C
100
AcDbEntity
  8
0
 62
   253
100
AcDbLine
 10
-0.374476
 20
-0.527976
 30
0.0
 11
-0.376555
 21
0.220358
 31
0.0
  0
LINE
  5
3D
100
AcDbEntity
  8
0
 62
   253
100
AcDbLine
 10
-0.376555
 20
0.220358
 30
0.0
 11
-0.345378
 21
0.22313
 31
0.0
  0
LINE
  5
3E
100
AcDbEntity
  8
0
 62
   253
100
AcDbLine
 10
-0.345378
 20
0.22313
 30
0.0
 11
-0.343299
 21
-0.525205
 31
0.0
  0
LINE
  5
3F
100
AcDbEntity
  8
0
 62
   253
100
AcDbLine
 10
-0.343299
 20
-0.525205
 30
0.0
 11
-0.374476
 21
-0.527976
 31
0.0
  0
LINE
  5
40
100
AcDbEntity
  8
0
 62
     9
100
AcDbLine
 10
-0.343299
 20
-0.525205
 30
0.0
 11
-0.345378
 21
0.22313
 31
0.0
  0
LINE
  5
41
100
AcDbEntity
  8
0
 62
     9
100
AcDbLine
 10
-0.345378
 20
0.22313
 30
0.0
 11
-0.314894
 21
0.220358
 31
0.0
  0
LINE
  5
42
100
AcDbEntity
  8
0
 62
     9
100
AcDbLine
 10
-0.314894
 20
0.220358
 30
0.0
 11
-0.312122
 21
-0.527283
 31
0.0
  0
LINE
  5
43
100
AcDbEntity
  8
0
 62
     9
100
AcDbLine
 10
-0.312122
 20
-0.527283
 30
0.0
 11
-0.343299
 21
-0.525205
 31
0.0
  0
LINE
  5
44
100
AcDbEntity
  8
0
 62
     9
100
AcDbLine
 10
-0.312122
 20
-0.527283
 30
0.0
 11
-0.314894
 21
0.220358
 31
0.0
  0
LINE
  5
45
100
AcDbEntity
  8
0
 62
     9
100
AcDbLine
 10
-0.314894
 20
0.220358
 30
0.0
 11
-0.284409
 21
0.214815
 31
0.0
  0
LINE
  5
46
100
AcDbEntity
  8
0
 62
     9
100
AcDbLine
 10
-0.284409
 20
0.214815
 30
0.0
 11
-0.282331
 21
-0.53352
 31
0.0
  0
LINE
  5
47
100
AcDbEntity
  8
0
 62
     9
100
AcDbLine
 10
-0.282331
 20
-0.53352
 30
0.0
 11
-0.312122
 21
-0.527283
 31
0.0
  0
LINE
  5
48
100
AcDbEntity
  8
0
 62
     9
100
AcDbLine
 10
-0.282331
 20
-0.53352
 30
0.0
 11
-0.284409
 21
0.214815
 31
0.0
  0
LINE
  5
49
100
AcDbEntity
  8
0
 62
     9
100
AcDbLine
 10
-0.284409
 20
0.214815
 30
0.0
 11
-0.254618
 21
0.205114
 31
0.0
  0
LINE
  5
4A
100
AcDbEntity
  8
0
 62
     9
100
AcDbLine
 10
-0.254618
 20
0.205114
 30
0.0
 11
-0.252539
 21
-0.54322
 31
0.0
  0
LINE
  5
4B
100
AcDbEntity
  8
0
 62
     9
100
AcDbLine
 10
-0.252539
 20
-0.54322
 30
0.0
 11
-0.282331
 21
-0.53352
 31
0.0
  0
LINE
  5
4C
100
AcDbEntity
  8
0
 62
     9
100
AcDbLine
 10
-0.252539
 20
-0.54322
 30
0.0
 11
-0.254618
 21
0.205114
 31
0.0
  0
LINE
  5
4D
100
AcDbEntity
  8
0
 62
     9
100
AcDbLine
 10
-0.254618
 20
0.205114
 30
0.0
 11
-0.225516
 21
0.192642
 31
0.0
  0
LINE
  5
4E
100
AcDbEntity
  8
0
 62
     9
100
AcDbLine
 10
-0.225516
 20
0.192642
 30
0.0
 11
-0.223437
 21
-0.555693
 31
0.0
  0
LINE
  5
4F
100
AcDbEntity
  8
0
 62
     9
100
AcDbLine
 10
-0.223437
 20
-0.555693
 30
0.0
 11
-0.252539
 21
-0.54322
 31
0.0
  0
LINE
  5
50
100
AcDbEntity
  8
0
 62
     9
100
AcDbLine
 10
-0.223437
 20
-0.555693
 30
0.0
 11
-0.225516
 21
0.192642
 31
0.0
  0
LINE
  5
51
100
AcDbEntity
  8
0
 62
     9
100
AcDbLine
 10
-0.225516
 20
0.192642
 30
0.0
 11
-0.19711
 21
0.177398
 31
0.0
  0
LINE
  5
52
100
AcDbEntity
  8
0
 62
     9
100
AcDbLine
 10
-0.19711
 20
0.177398
 30
0.0
 11
-0.195031
 21
-0.570244
 31
0.0
  0
LINE
  5
53
100
AcDbEntity
  8
0
 62
     9
100
AcDbLine
 10
-0.195031
 20
-0.570244
 30
0.0
 11
-0.223437
 21
-0.555693
 31
0.0
  0
LINE
  5
54
100
AcDbEntity
  8
0
 62
     9
100
AcDbLine
 10
-0.195031
 20
-0.570244
 30
0.0
 11
-0.19711
 21
0.177398
 31
0.0
  0
LINE
  5
55
100
AcDbEntity
  8
0
 62
     9
100
AcDbLine
 10
-0.19711
 20
0.177398
 30
0.0
 11
-0.141685
 21
0.142063
 31
0.0
  0
LINE
  5
56
100
AcDbEntity
  8
0
 62
     9
100
AcDbLine
 10
-0.141685
 20
0.142063
 30
0.0
 11
-0.139606
 21
-0.606276
 31
0.0
  0
LINE
  5
57
100
AcDbEntity
  8
0
 62
     9
100
AcDbLine
 10
-0.139606
 20
-0.606276
 30
0.0
 11
-0.195031
 21
-0.570244
 31
0.0
  0
LINE
  5
58
100
AcDbEntity
  8
0
 62
     9
100
AcDbLine
 10
-0.139606
 20
-0.606276
 30
0.0
 11
-0.141685
 21
0.142063
 31
0.0
  0
LINE
  5
59
100
AcDbEntity
  8
0
 62
     9
100
AcDbLine
 10
-0.141685
 20
0.142063
 30
0.0
 11
-0.089724
 21
0.102567
 31
0.0
  0
LINE
  5
5A
100
AcDbEntity
  8
0
 62
     9
100
AcDbLine
 10
-0.089724
 20
0.102567
 30
0.0
 11
-0.086953
 21
-0.645772
 31
0.0
  0
LINE
  5
5B
100
AcDbEntity
  8
0
 62
     9
100
AcDbLine
 10
-0.086953
 20
-0.645772
 30
0.0
 11
-0.139606
 21
-0.606276
 31
0.0
  0
LINE
  5
5C
100
AcDbEntity
  8
0
 62
     9
100
AcDbLine
 10
-0.086953
 20
-0.645772
 30
0.0
 11
-0.089724
 21
0.102567
 31
0.0
  0
LINE
  5
5D
100
AcDbEntity
  8
0
 62
     9
100
AcDbLine
 10
-0.089724
 20
0.102567
 30
0.0
 11
-0.037067
 21
0.064457
 31
0.0
  0
LINE
  5
5E
100
AcDbEntity
  8
0
 62
     9
100
AcDbLine
 10
-0.037067
 20
0.064457
 30
0.0
 11
-0.034988
 21
-0.683882
 31
0.0
  0
LINE
  5
5F
100
AcDbEntity
  8
0
 62
     9
100
AcDbLine
 10
-0.034988
 20
-0.683882
 30
0.0
 11
-0.086953
 21
-0.645772
 31
0.0
  0
LINE
  5
60
100
AcDbEntity
  8
0
 62
     9
100
AcDbLine
 10
-0.034988
 20
-0.683882
 30
0.0
 11
-0.037067
 21
0.064457
 31
0.0
  0
LINE
  5
61
100
AcDbEntity
  8
0
 62
     9
100
AcDbLine
 10
-0.037067
 20
0.064457
 30
0.0
 11
0.016972
 21
0.03189
 31
0.0
  0
LINE
  5
62
100
AcDbEntity
  8
0
 62
     9
100
AcDbLine
 10
0.016972
 20
0.03189
 30
0.0
 11
0.019051
 21
-0.716449
 31
0.0
  0
LINE
  5
63
100
AcDbEntity
  8
0
 62
     9
100
AcDbLine
 10
0.019051
 20
-0.716449
 30
0.0
 11
-0.034988
 21
-0.683882
 31
0.0
  0
LINE
  5
64
100
AcDbEntity
  8
0
 62
     9
100
AcDbLine
 10
0.019051
 20
-0.716449
 30
0.0
 11
0.016972
 21
0.03189
 31
0.0
  0
LINE
  5
65
100
AcDbEntity
  8
0
 62
     9
100
AcDbLine
 10
0.016972
 20
0.03189
 30
0.0
 11
0.045378
 21
0.018724
 31
0.0
  0
LINE
  5
66
100
AcDbEntity
  8
0
 62
     9
100
AcDbLine
 10
0.045378
 20
0.018724
 30
0.0
 11
0.047457
 21
-0.729614
 31
0.0
  0
LINE
  5
67
100
AcDbEntity
  8
0
 62
     9
100
AcDbLine
 10
0.047457
 20
-0.729614
 30
0.0
 11
0.019051
 21
-0.716449
 31
0.0
  0
LINE
  5
68
100
AcDbEntity
  8
0
 62
     9
100
AcDbLine
 10
0.047457
 20
-0.729614
 30
0.0
 11
0.045378
 21
0.018724
 31
0.0
  0
LINE
  5
69
100
AcDbEntity
  8
0
 62
     9
100
AcDbLine
 10
0.045378
 20
0.018724
 30
0.0
 11
0.073783
 21
0.007638
 31
0.0
  0
LINE
  5
6A
100
AcDbEntity
  8
0
 62
     9
100
AcDbLine
 10
0.073783
 20
0.007638
 30
0.0
 11
0.075862
 21
-0.740701
 31
0.0
  0
LINE
  5
6B
100
AcDbEntity
  8
0
 62
     9
100
AcDbLine
 10
0.075862
 20
-0.740701
 30
0.0
 11
0.047457
 21
-0.729614
 31
0.0
  0
LINE
  5
6C
100
AcDbEntity
  8
0
 62
     9
100
AcDbLine
 10
0.075862
 20
-0.740701
 30
0.0
 11
0.073783
 21
0.007638
 31
0.0
  0
LINE
  5
6D
100
AcDbEntity
  8
0
 62
     9
100
AcDbLine
 10
0.073783
 20
0.007638
 30
0.0
 11
0.102882
 21
-0.000677
 31
0.0
  0
LINE
  5
6E
100
AcDbEntity
  8
0
 62
     9
100
AcDbLine
 10
0.102882
 20
-0.000677
 30
0.0
 11
0.104961
 21
-0.748323
 31
0.0
  0
LINE
  5
6F
100
AcDbEntity
  8
0
 62
     9
100
AcDbLine
 10
0.104961
 20
-0.748323
 30
0.0
 11
0.075862
 21
-0.740701
 31
0.0
  0
LINE
  5
70
100
AcDbEntity
  8
0
 62
     9
100
AcDbLine
 10
0.104961
 20
-0.748323
 30
0.0
 11
0.102882
 21
-0.000677
 31
0.0
  0
LINE
  5
71
100
AcDbEntity
  8
0
 62
     9
100
AcDbLine
 10
0.102882
 20
-0.000677
 30
0.0
 11
0.132673
 21
-0.005528
 31
0.0
  0
LINE
  5
72
100
AcDbEntity
  8
0
 62
     9
100
AcDbLine
 10
0.132673
 20
-0.005528
 30
0.0
 11
0.135445
 21
-0.753866
 31
0.0
  0
LINE
  5
73
100
AcDbEntity
  8
0
 62
     9
100
AcDbLine
 10
0.135445
 20
-0.753866
 30
0.0
 11
0.104961
 21
-0.748323
 31
0.0
  0
LINE
  5
74
100
AcDbEntity
  8
0
 62
     9
100
AcDbLine
 10
0.135445
 20
-0.753866
 30
0.0
 11
0.132673
 21
-0.005528
 31
0.0
  0
LINE
  5
75
100
AcDbEntity
  8
0
 62
     9
100
AcDbLine
 10
0.132673
 20
-0.005528
 30
0.0
 11
0.163157
 21
-0.007606
 31
0.0
  0
LINE
  5
76
100
AcDbEntity
  8
0
 62
     9
100
AcDbLine
 10
0.163157
 20
-0.007606
 30
0.0
 11
0.165236
 21
-0.755945
 31
0.0
  0
LINE
  5
77
100
AcDbEntity
  8
0
 62
     9
100
AcDbLine
 10
0.165236
 20
-0.755945
 30
0.0
 11
0.135445
 21
-0.753866
 31
0.0
  0
LINE
  5
78
100
AcDbEntity
  8
0
 62
     9
100
AcDbLine
 10
0.165236
 20
-0.755945
 30
0.0
 11
0.163157
 21
-0.007606
 31
0.0
  0
LINE
  5
79
100
AcDbEntity
  8
0
 62
     9
100
AcDbLine
 10
0.163157
 20
-0.007606
 30
0.0
 11
0.194339
 21
-0.005528
 31
0.0
  0
LINE
  5
7A
100
AcDbEntity
  8
0
 62
     9
100
AcDbLine
 10
0.194339
 20
-0.005528
 30
0.0
 11
0.196417
 21
-0.753866
 31
0.0
  0
LINE
  5
7B
100
AcDbEntity
  8
0
 62
     9
100
AcDbLine
 10
0.196417
 20
-0.753866
 30
0.0
 11
0.165236
 21
-0.755945
 31
0.0
  0
LINE
  5
7C
100
AcDbEntity
  8
0
 62
     9
100
AcDbLine
 10
0.196417
 20
-0.753866
 30
0.0
 11
0.194339
 21
-0.005528
 31
0.0
  0
LINE
  5
7D
100
AcDbEntity
  8
0
 62
     9
100
AcDbLine
 10
0.194339
 20
-0.005528
 30
0.0
 11
0.225516
 21
0.000016
 31
0.0
  0
LINE
  5
7E
100
AcDbEntity
  8
0
 62
     9
100
AcDbLine
 10
0.225516
 20
0.000016
 30
0.0
 11
0.228287
 21
-0.748323
 31
0.0
  0
LINE
  5
7F
100
AcDbEntity
  8
0
 62
     9
100
AcDbLine
 10
0.228287
 20
-0.748323
 30
0.0
 11
0.196417
 21
-0.753866
 31
0.0
  0
LINE
  5
80
100
AcDbEntity
  8
0
 62
     9
100
AcDbLine
 10
0.228287
 20
-0.748323
 30
0.0
 11
0.225516
 21
0.000016
 31
0.0
  0
LINE
  5
81
100
AcDbEntity
  8
0
 62
     9
100
AcDbLine
 10
0.225516
 20
0.000016
 30
0.0
 11
0.258079
 21
0.009717
 31
0.0
  0
LINE
  5
82
100
AcDbEntity
  8
0
 62
     9
100
AcDbLine
 10
0.258079
 20
0.009717
 30
0.0
 11
0.260157
 21
-0.737929
 31
0.0
  0
LINE
  5
83
100
AcDbEntity
  8
0
 62
     9
100
AcDbLine
 10
0.260157
 20
-0.737929
 30
0.0
 11
0.228287
 21
-0.748323
 31
0.0
  0
LINE
  5
84
100
AcDbEntity
  8
0
 62
   253
100
AcDbLine
 10
0.260157
 20
-0.737929
 30
0.0
 11
0.258079
 21
0.009717
 31
0.0
  0
LINE
  5
85
100
AcDbEntity
  8
0
 62
   253
100
AcDbLine
 10
0.258079
 20
0.009717
 30
0.0
 11
0.290642
 21
0.024268
 31
0.0
  0
LINE
  5
86
100
AcDbEntity
  8
0
 62
   253
100
AcDbLine
 10
0.290642
 20
0.024268
 30
0.0
 11
0.293413
 21
-0.724071
 31
0.0
  0
LINE
  5
87
100
AcDbEntity
  8
0
 62
   253
100
AcDbLine
 10
0.293413
 20
-0.724071
 30
0.0
 11
0.260157
 21
-0.737929
 31
0.0
  0
LINE
  5
88
100
AcDbEntity
  8
0
 62
   253
100
AcDbLine
 10
0.293413
 20
-0.724071
 30
0.0
 11
0.290642
 21
0.024268
 31
0.0
  0
LINE
  5
89
100
AcDbEntity
  8
0
 62
   253
100
AcDbLine
 10
0.290642
 20
0.024268
 30
0.0
 11
0.324591
 21
0.043669
 31
0.0
  0
LINE
  5
8A
100
AcDbEntity
  8
0
 62
   253
100
AcDbLine
 10
0.324591
 20
0.043669
 30
0.0
 11
0.326669
 21
-0.704669
 31
0.0
  0
LINE
  5
8B
100
AcDbEntity
  8
0
 62
   253
100
AcDbLine
 10
0.326669
 20
-0.704669
 30
0.0
 11
0.293413
 21
-0.724071
 31
0.0
  0
LINE
  5
8C
100
AcDbEntity
  8
0
 62
   253
100
AcDbLine
 10
0.326669
 20
-0.704669
 30
0.0
 11
0.324591
 21
0.043669
 31
0.0
  0
LINE
  5
8D
100
AcDbEntity
  8
0
 62
   253
100
AcDbLine
 10
0.324591
 20
0.043669
 30
0.0
 11
0.358539
 21
0.067921
 31
0.0
  0
LINE
  5
8E
100
AcDbEntity
  8
0
 62
   253
100
AcDbLine
 10
0.358539
 20
0.067921
 30
0.0
 11
0.360618
 21
-0.679724
 31
0.0
  0
LINE
  5
8F
100
AcDbEntity
  8
0
 62
   253
100
AcDbLine
 10
0.360618
 20
-0.679724
 30
0.0
 11
0.326669
 21
-0.704669
 31
0.0
  0
LINE
  5
90
100
AcDbEntity
  8
0
 62
   253
100
AcDbLine
 10
0.360618
 20
-0.679724
 30
0.0
 11
0.358539
 21
0.067921
 31
0.0
  0
LINE
  5
91
100
AcDbEntity
  8
0
 62
   253
100
AcDbLine
 10
0.358539
 20
0.067921
 30
0.0
 11
0.392488
 21
0.098409
 31
0.0
  0
LINE
  5
92
100
AcDbEntity
  8
0
 62
   253
100
AcDbLine
 10
0.392488
 20
0.098409
 30
0.0
 11
0.39526
 21
-0.649929
 31
0.0
  0
LINE
  5
93
100
AcDbEntity
  8
0
 62
   253
100
AcDbLine
 10
0.39526
 20
-0.649929
 30
0.0
 11
0.360618
 21
-0.679724
 31
0.0
  0
LINE
  5
94
100
AcDbEntity
  8
0
 62
     9
100
AcDbLine
 10
0.39526
 20
-0.649929
 30
0.0
 11
0.392488
 21
0.098409
 31
0.0
  0
LINE
  5
95
100
AcDbEntity
  8
0
 62
     9
100
AcDbLine
 10
0.392488
 20
0.098409
 30
0.0
 11
0.714654
 21
-0.119858
 31
0.0
  0
LINE
  5
96
100
AcDbEntity
  8
0
 62
     9
100
AcDbLine
 10
0.714654
 20
-0.119858
 30
0.0
 11
0.716732
 21
-0.868193
 31
0.0
  0
LINE
  5
97
100
AcDbEntity
  8
0
 62
     9
100
AcDbLine
 10
0.716732
 20
-0.868193
 30
0.0
 11
0.39526
 21
-0.649929
 31
0.0
  0
LINE
  5
98
100
AcDbEntity
  8
0
 62
     8
100
AcDbLine
 10
-0.656457
 20
-0.953421
 30
0.0
 11
-0.659228
 21
-0.205083
 31
0.0
  0
LINE
  5
99
100
AcDbEntity
  8
0
 62
     8
100
AcDbLine
 10
-0.659228
 20
-0.205083
 30
0.0
 11
-0.659228
 21
0.088709
 31
0.0
  0
LINE
  5
9A
100
AcDbEntity
  8
0
 62
     8
100
AcDbLine
 10
-0.659228
 20
0.088709
 30
0.0
 11
-0.656457
 21
-0.65963
 31
0.0
  0
LINE
  5
9B
100
AcDbEntity
  8
0
 62
     8
100
AcDbLine
 10
-0.656457
 20
-0.65963
 30
0.0
 11
-0.656457
 21
-0.953421
 31
0.0
  0
LINE
  5
9C
100
AcDbEntity
  8
0
 62
     9
100
AcDbLine
 10
-0.656457
 20
-0.65963
 30
0.0
 11
-0.659228
 21
0.088709
 31
0.0
  0
LINE
  5
9D
100
AcDbEntity
  8
0
 62
     9
100
AcDbLine
 10
-0.659228
 20
0.088709
 30
0.0
 11
-0.569161
 21
0.088709
 31
0.0
  0
LINE
  5
9E
100
AcDbEntity
  8
0
 62
     9
100
AcDbLine
 10
-0.569161
 20
0.088709
 30
0.0
 11
-0.567083
 21
-0.65963
 31
0.0
  0
LINE
  5
9F
100
AcDbEntity
  8
0
 62
     9
100
AcDbLine
 10
-0.567083
 20
-0.65963
 30
0.0
 11
-0.656457
 21
-0.65963
 31
0.0
  0
LINE
  5
A0
100
AcDbEntity
  8
0
 62
     7
100
AcDbLine
 10
-0.567083
 20
-0.65963
 30
0.0
 11
-0.53452
 21
-0.620827
 31
0.0
  0
LINE
  5
A1
100
AcDbEntity
  8
0
 62
     7
100
AcDbLine
 10
-0.53452
 20
-0.620827
 30
0.0
 11
-0.501957
 21
-0.589646
 31
0.0
  0
LINE
  5
A2
100
AcDbEntity
  8
0
 62
     7
100
AcDbLine
 10
-0.501957
 20
-0.589646
 30
0.0
 11
-0.469394
 21
-0.565394
 31
0.0
  0
LINE
  5
A3
100
AcDbEntity
  8
0
 62
     7
100
AcDbLine
 10
-0.469394
 20
-0.565394
 30
0.0
 11
-0.437524
 21
-0.547378
 31
0.0
  0
LINE
  5
A4
100
AcDbEntity
  8
0
 62
     7
100
AcDbLine
 10
-0.437524
 20
-0.547378
 30
0.0
 11
-0.405654
 21
-0.534906
 31
0.0
  0
LINE
  5
A5
100
AcDbEntity
  8
0
 62
     7
100
AcDbLine
 10
-0.405654
 20
-0.534906
 30
0.0
 11
-0.374476
 21
-0.527976
 31
0.0
  0
LINE
  5
A6
100
AcDbEntity
  8
0
 62
     7
100
AcDbLine
 10
-0.374476
 20
-0.527976
 30
0.0
 11
-0.343299
 21
-0.525205
 31
0.0
  0
LINE
  5
A7
100
AcDbEntity
  8
0
 62
     7
100
AcDbLine
 10
-0.343299
 20
-0.525205
 30
0.0
 11
-0.312122
 21
-0.527283
 31
0.0
  0
LINE
  5
A8
100
AcDbEntity
  8
0
 62
     7
100
AcDbLine
 10
-0.312122
 20
-0.527283
 30
0.0
 11
-0.282331
 21
-0.53352
 31
0.0
  0
LINE
  5
A9
100
AcDbEntity
  8
0
 62
     7
100
AcDbLine
 10
-0.282331
 20
-0.53352
 30
0.0
 11
-0.252539
 21
-0.54322
 31
0.0
  0
LINE
  5
AA
100
AcDbEntity
  8
0
 62
     7
100
AcDbLine
 10
-0.252539
 20
-0.54322
 30
0.0
 11
-0.223437
 21
-0.555693
 31
0.0
  0
LINE
  5
AB
100
AcDbEntity
  8
0
 62
     7
100
AcDbLine
 10
-0.223437
 20
-0.555693
 30
0.0
 11
-0.195031
 21
-0.570244
 31
0.0
  0
LINE
  5
AC
100
AcDbEntity
  8
0
 62
     7
100
AcDbLine
 10
-0.195031
 20
-0.570244
 30
0.0
 11
-0.139606
 21
-0.606276
 31
0.0
  0
LINE
  5
AD
100
AcDbEntity
  8
0
 62
     7
100
AcDbLine
 10
-0.139606
 20
-0.606276
 30
0.0
 11
-0.086953
 21
-0.645772
 31
0.0
  0
LINE
  5
AE
100
AcDbEntity
  8
0
 62
     7
100
AcDbLine
 10
-0.086953
 20
-0.645772
 30
0.0
 11
-0.034988
 21
-0.683882
 31
0.0
  0
LINE
  5
AF
100
AcDbEntity
  8
0
 62
     7
100
AcDbLine
 10
-0.034988
 20
-0.683882
 30
0.0
 11
0.019051
 21
-0.716449
 31
0.0
  0
LINE
  5
B0
100
AcDbEntity
  8
0
 62
     7
100
AcDbLine
 10
0.019051
 20
-0.716449
 30
0.0
 11
0.047457
 21
-0.729614
 31
0.0
  0
LINE
  5
B1
100
AcDbEntity
  8
0
 62
     7
100
AcDbLine
 10
0.047457
 20
-0.729614
 30
0.0
 11
0.075862
 21
-0.740701
 31
0.0
  0
LINE
  5
B2
100
AcDbEntity
  8
0
 62
     7
100
AcDbLine
 10
0.075862
 20
-0.740701
 30
0.0
 11
0.104961
 21
-0.748323
 31
0.0
  0
LINE
  5
B3
100
AcDbEntity
  8
0
 62
     7
100
AcDbLine
 10
0.104961
 20
-0.748323
 30
0.0
 11
0.135445
 21
-0.753866
 31
0.0
  0
LINE
  5
B4
100
AcDbEntity
  8
0
 62
     7
100
AcDbLine
 10
0.135445
 20
-0.753866
 30
0.0
 11
0.165236
 21
-0.755945
 31
0.0
  0
LINE
  5
B5
100
AcDbEntity
  8
0
 62
     7
100
AcDbLine
 10
0.165236
 20
-0.755945
 30
0.0
 11
0.196417
 21
-0.753866
 31
0.0
  0
LINE
  5
B6
100
AcDbEntity
  8
0
 62
     7
100
AcDbLine
 10
0.196417
 20
-0.753866
 30
0.0
 11
0.228287
 21
-0.748323
 31
0.0
  0
LINE
  5
B7
100
AcDbEntity
  8
0
 62
     7
100
AcDbLine
 10
0.228287
 20
-0.748323
 30
0.0
 11
0.260157
 21
-0.737929
 31
0.0
  0
LINE
  5
B8
100
AcDbEntity
  8
0
 62
     7
100
AcDbLine
 10
0.260157
 20
-0.737929
 30
0.0
 11
0.293413
 21
-0.724071
 31
0.0
  0
LINE
  5
B9
100
AcDbEntity
  8
0
 62
     7
100
AcDbLine
 10
0.293413
 20
-0.724071
 30
0.0
 11
0.326669
 21
-0.704669
 31
0.0
  0
LINE
  5
BA
100
AcDbEntity
  8
0
 62
     7
100
AcDbLine
 10
0.326669
 20
-0.704669
 30
0.0
 11
0.360618
 21
-0.679724
 31
0.0
  0
LINE
  5
BB
100
AcDbEntity
  8
0
 62
     7
100
AcDbLine
 10
0.360618
 20
-0.679724
 30
0.0
 11
0.39526
 21
-0.649929
 31
0.0
  0
LINE
  5
BC
100
AcDbEntity
  8
0
 62
     7
100
AcDbLine
 10
0.39526
 20
-0.649929
 30
0.0
 11
0.716732
 21
-0.868193
 31
0.0
  0
LINE
  5
BD
100
AcDbEntity
  8
0
 62
     7
100
AcDbLine
 10
0.716732
 20
-0.868193
 30
0.0
 11
0.716732
 21
-0.953421
 31
0.0
  0
LINE
  5
BE
100
AcDbEntity
  8
0
 62
     7
100
AcDbLine
 10
0.716732
 20
-0.953421
 30
0.0
 11
-0.656457
 21
-0.953421
 31
0.0
  0
LINE
  5
BF
100
AcDbEntity
  8
0
 62
     7
100
AcDbLine
 10
-0.656457
 20
-0.953421
 30
0.0
 11
-0.656457
 21
-0.65963
 31
0.0
  0
LINE
  5
C0
100
AcDbEntity
  8
0
 62
     7
100
AcDbLine
 10
-0.656457
 20
-0.65963
 30
0.0
 11
-0.567083
 21
-0.65963
 31
0.0
  0
SPLINE
  5
C1
100
AcDbEntity
  8
0
 62
     0
100
AcDbSpline
210
0.0
220
0.0
230
1.0
 70
     0
 71
     3
 72
     0
 73
     0
 74
   129
 44
0.0000000001
 11
-0.6197362204724409
 21
1.2028976377952756
 31
0.0
 11
-0.5870590551181102
 21
1.2413503937007875
 31
0.0
 11
-0.5545433070866142
 21
1.2725787401574804
 31
0.0
 11
-0.5222283464566929
 21
1.2970590551181103
 31
0.0
 11
-0.4901614173228346
 21
1.3152677165354332
 31
0.0
 11
-0.4583740157480315
 21
1.3276653543307086
 31
0.0
 11
-0.4269291338582677
 21
1.334744094488189
 31
0.0
 11
-0.3958543307086614
 21
1.3369645669291339
 31
0.0
 11
-0.3652047244094488
 21
1.3348110236220472
 31
0.0
 11
-0.3350078740157481
 21
1.328740157480315
 31
0.0
 11
-0.3053228346456693
 21
1.3192480314960631
 31
0.0
 11
-0.2761889763779528
 21
1.3067913385826773
 31
0.0
 11
-0.2476496062992126
 21
1.2918582677165353
 31
0.0
 11
-0.219744094488189
 21
1.2749055118110235
 31
0.0
 11
-0.1925236220472441
 21
1.2564291338582678
 31
0.0
 11
-0.1660236220472441
 21
1.2368858267716536
 31
0.0
 11
-0.1402992125984252
 21
1.2167559055118111
 31
0.0
 11
-0.1145393700787402
 21
1.1969645669291338
 31
0.0
 11
-0.0882007874015748
 21
1.1783464566929134
 31
0.0
 11
-0.0612795275590551
 21
1.1612007874015748
 31
0.0
 11
-0.0337755905511811
 21
1.1458385826771653
 31
0.0
 11
-0.0056850393700787
 21
1.1325590551181102
 31
0.0
 11
0.022988188976378
 21
1.1216771653543307
 31
0.0
 11
0.052244094488189
 21
1.1134921259842521
 31
0.0
 11
0.0820944881889764
 21
1.1083149606299212
 31
0.0
 11
0.1125196850393701
 21
1.1064488188976378
 31
0.0
 11
0.1435354330708661
 21
1.1082007874015749
 31
0.0
 11
0.1751338582677166
 21
1.1138818897637794
 31
0.0
 11
0.2073267716535433
 21
1.1237952755905511
 31
0.0
 11
0.2400905511811024
 21
1.1382440944881891
 31
0.0
 11
0.2734448818897638
 21
1.1575433070866141
 31
0.0
 11
0.3073818897637795
 21
1.181996062992126
 31
0.0
 11
0.3419133858267717
 21
1.2119055118110236
 31
0.0
 11
0.3419133858267717
 21
1.2119055118110236
 31
0.0
 11
0.3419133858267717
 21
1.2119055118110236
 31
0.0
 11
0.3419133858267717
 21
1.2119055118110236
 31
0.0
 11
0.3419133858267717
 21
1.2119055118110236
 31
0.0
 11
0.3419133858267717
 21
1.2119055118110236
 31
0.0
 11
0.3419133858267717
 21
1.2119055118110236
 31
0.0
 11
0.3419133858267717
 21
1.2119055118110236
 31
0.0
 11
0.3419133858267717
 21
1.2119055118110236
 31
0.0
 11
0.3419133858267717
 21
1.2119055118110236
 31
0.0
 11
0.3419133858267717
 21
1.2119055118110236
 31
0.0
 11
0.3419133858267717
 21
1.2119055118110236
 31
0.0
 11
0.3419133858267717
 21
1.2119055118110236
 31
0.0
 11
0.3419133858267717
 21
1.2119055118110236
 31
0.0
 11
0.3419133858267717
 21
1.2119055118110236
 31
0.0
 11
0.3419133858267717
 21
1.2119055118110236
 31
0.0
 11
0.3419133858267717
 21
1.2119055118110236
 31
0.0
 11
0.3619212598425197
 21
1.198263779527559
 31
0.0
 11
0.3819527559055118
 21
1.1846220472440945
 31
0.0
 11
0.401992125984252
 21
1.1709803149606299
 31
0.0
 11
0.4220511811023622
 21
1.1573385826771654
 31
0.0
 11
0.4421141732283465
 21
1.1436968503937008
 31
0.0
 11
0.4621968503937008
 21
1.1300551181102363
 31
0.0
 11
0.4822834645669291
 21
1.1164133858267717
 31
0.0
 11
0.5023858267716536
 21
1.1027716535433072
 31
0.0
 11
0.5224881889763779
 21
1.0891299212598424
 31
0.0
 11
0.5426023622047245
 21
1.0754881889763779
 31
0.0
 11
0.5627204724409449
 21
1.0618464566929133
 31
0.0
 11
0.5828464566929134
 21
1.0482047244094488
 31
0.0
 11
0.6029724409448819
 21
1.0345629921259842
 31
0.0
 11
0.6231102362204725
 21
1.0209212598425197
 31
0.0
 11
0.643248031496063
 21
1.0072795275590551
 31
0.0
 11
0.6633858267716536
 21
0.9936417322834645
 31
0.0
 11
0.6633858267716536
 21
0.9884330708661417
 31
0.0
 11
0.6633858267716536
 21
0.9832125984251968
 31
0.0
 11
0.6633858267716536
 21
0.9779763779527559
 31
0.0
 11
0.6633858267716536
 21
0.972732283464567
 31
0.0
 11
0.6633858267716536
 21
0.9674685039370079
 31
0.0
 11
0.6633858267716536
 21
0.9622007874015748
 31
0.0
 11
0.6633858267716536
 21
0.9569173228346457
 31
0.0
 11
0.6633858267716536
 21
0.9516338582677165
 31
0.0
 11
0.6633858267716536
 21
0.9463307086614173
 31
0.0
 11
0.6633858267716536
 21
0.9410275590551182
 31
0.0
 11
0.6633858267716536
 21
0.9357125984251968
 31
0.0
 11
0.6633858267716536
 21
0.9304015748031496
 31
0.0
 11
0.6633858267716536
 21
0.9250748031496063
 31
0.0
 11
0.6633858267716536
 21
0.9197559055118111
 31
0.0
 11
0.6633858267716536
 21
0.9144291338582677
 31
0.0
 11
0.6633858267716536
 21
0.9091062992125985
 31
0.0
 11
0.5776338582677165
 21
0.9091062992125985
 31
0.0
 11
0.4918740157480315
 21
0.9091062992125985
 31
0.0
 11
0.4060984251968504
 21
0.9091062992125985
 31
0.0
 11
0.3203110236220472
 21
0.9091062992125985
 31
0.0
 11
0.234507874015748
 21
0.9091062992125985
 31
0.0
 11
0.1486968503937008
 21
0.9091062992125985
 31
0.0
 11
0.0628740157480315
 21
0.9091062992125985
 31
0.0
 11
-0.0229488188976378
 21
0.9091062992125985
 31
0.0
 11
-0.1087834645669291
 21
0.9091062992125985
 31
0.0
 11
-0.1946299212598425
 21
0.9091062992125985
 31
0.0
 11
-0.2804803149606299
 21
0.9091062992125985
 31
0.0
 11
-0.3663385826771654
 21
0.9091062992125985
 31
0.0
 11
-0.4521968503937008
 21
0.9091062992125985
 31
0.0
 11
-0.5380629921259843
 21
0.9091062992125985
 31
0.0
 11
-0.6239291338582678
 21
0.9091062992125985
 31
0.0
 11
-0.7098031496062992
 21
0.9091062992125985
 31
0.0
 11
-0.7098031496062992
 21
0.9274251968503937
 31
0.0
 11
-0.7098031496062992
 21
0.945744094488189
 31
0.0
 11
-0.7098031496062992
 21
0.9640629921259842
 31
0.0
 11
-0.7098031496062992
 21
0.9823897637795276
 31
0.0
 11
-0.7098031496062992
 21
1.0007165354330709
 31
0.0
 11
-0.7098031496062992
 21
1.0190511811023621
 31
0.0
 11
-0.7098031496062992
 21
1.0373897637795275
 31
0.0
 11
-0.7098031496062992
 21
1.0557401574803149
 31
0.0
 11
-0.7098031496062992
 21
1.0740905511811023
 31
0.0
 11
-0.7098031496062992
 21
1.0924566929133859
 31
0.0
 11
-0.7098031496062992
 21
1.1108307086614173
 31
0.0
 11
-0.7098031496062992
 21
1.1292204724409449
 31
0.0
 11
-0.7098031496062992
 21
1.1476141732283465
 31
0.0
 11
-0.7098031496062992
 21
1.1660275590551181
 31
0.0
 11
-0.7098031496062992
 21
1.1844527559055118
 31
0.0
 11
-0.7098031496062992
 21
1.2028976377952756
 31
0.0
 11
-0.7042125984251969
 21
1.2028976377952756
 31
0.0
 11
-0.6986259842519685
 21
1.2028976377952756
 31
0.0
 11
-0.6930314960629921
 21
1.2028976377952756
 31
0.0
 11
-0.6874448818897638
 21
1.2028976377952756
 31
0.0
 11
-0.6818425196850394
 21
1.2028976377952756
 31
0.0
 11
-0.676244094488189
 21
1.2028976377952756
 31
0.0
 11
-0.6706338582677165
 21
1.2028976377952756
 31
0.0
 11
-0.6650236220472441
 21
1.2028976377952756
 31
0.0
 11
-0.6593937007874016
 21
1.2028976377952756
 31
0.0
 11
-0.653763779527559
 21
1.2028976377952756
 31
0.0
 11
-0.6481220472440945
 21
1.2028976377952756
 31
0.0
 11
-0.6424724409448819
 21
1.2028976377952756
 31
0.0
 11
-0.6368070866141732
 21
1.2028976377952756
 31
0.0
 11
-0.6311299212598426
 21
1.2028976377952756
 31
0.0
 11
-0.6254370078740158
 21
1.2028976377952756
 31
0.0
 11
-0.6197362204724409
 21
1.2028976377952756
 31
0.0
  0
ENDSEC
  0
SECTION
  2
OBJECTS
  0
DICTIONARY
  5
19
100
AcDbDictionary
280
     0
281
     1
  3
ACAD_GROUP
350
1A
  3
ACAD_MLINESTYLE
350
1B
  3
ACAD_LAYOUT
350
1E
  3
ACAD_PLOTSETTINGS
350
22
  3
ACAD_PLOTSTYLENAME
350
1F
  3
ACAD_WIPEOUT_VARS
350
23
  0
DICTIONARY
  5
1A
102
{ACAD_REACTORS
330
19
102
}
100
AcDbDictionary
280
     0
281
     1
  0
DICTIONARY
  5
1B
102
{ACAD_REACTORS
330
19
102
}
100
AcDbDictionary
280
     0
281
     1
  3
Standard
350
1C
  0
MLINESTYLE
  5
1C
102
{ACAD_REACTORS
330
1B
102
}
100
AcDbMlineStyle
  2
Standard
 70
     0
  3

 62
     0
 51
90.0
 52
90.0
 71
     2
 49
0.5
 62
   256
  6
BYLAYER
 49
-0.5
 62
   256
  6
BYLAYER
  0
ACDBDICTIONARYWDFLT
  5
1F
102
{ACAD_REACTORS
330
19
102
}
100
AcDbDictionary
281
     1
  3
Normal
350
1D
100
AcDbDictionaryWithDefault
340
1D
  0
ACDBPLACEHOLDER
  5
1D
102
{ACAD_REACTORS
330
1F
102
}
  0
LAYOUT
  5
20
102
{ACAD_REACTORS
330
1E
102
}
100
AcDbPlotSettings
  1

  2

  4

  6

 40
0.0
 41
0.0
 42
0.0
 43
0.0
 44
0.0
 45
0.0
 46
0.0
 47
0.0
 48
0.0
 49
0.0
140
0.0
141
0.0
142
1.0
143
1.0
 70
  1024
 72
     0
 73
     0
 74
     0
  7

 75
     0
147
1.0
148
0.0
149
0.0
100
AcDbLayout
  1
Model
 70
     0
 71
     0
 10
0.0
 20
0.0
 11
0.0
 21
0.0
 12
0.0
 22
0.0
 32
0.0
 14
0.0
 24
0.0
 34
0.0
 15
0.0
 25
0.0
 35
0.0
146
0.0
 13
0.0
 23
0.0
 33
0.0
 16
0.0
 26
0.0
 36
0.0
 17
0.0
 27
0.0
 37
0.0
 76
     0
330
A
331
0
345
0
346
0
  0
LAYOUT
  5
21
102
{ACAD_REACTORS
330
1E
102
}
100
AcDbPlotSettings
  1

  2

  4

  6

 40
0.0
 41
0.0
 42
0.0
 43
0.0
 44
0.0
 45
0.0
 46
0.0
 47
0.0
 48
0.0
 49
0.0
140
0.0
141
0.0
142
1.0
143
1.0
 70
     0
 72
     0
 73
     0
 74
     0
  7

 75
     0
147
1.0
148
0.0
149
0.0
100
AcDbLayout
  1
Layout1
 70
     0
 71
     0
 10
0.0
 20
0.0
 11
0.0
 21
0.0
 12
0.0
 22
0.0
 32
0.0
 14
0.0
 24
0.0
 34
0.0
 15
0.0
 25
0.0
 35
0.0
146
0.0
 13
0.0
 23
0.0
 33
0.0
 16
0.0
 26
0.0
 36
0.0
 17
0.0
 27
0.0
 37
0.0
 76
     0
330
B
331
0
345
0
346
0
  0
DICTIONARY
  5
1E
102
{ACAD_REACTORS
330
19
102
}
100
AcDbDictionary
280
     0
281
     1
  3
Layout1
350
21
  3
Model
350
20
  0
DICTIONARY
  5
22
102
{ACAD_REACTORS
330
19
102
}
100
AcDbDictionary
280
     0
281
     1
  0
WIPEOUTVARIABLES
  5
23
100
AcDbWipeoutVariables
 70
     1
  0
ENDSEC
  0
EOF
