  0
SECTION
  2
HEADER
  9
$ACADVER
  1
AC1006
  9
$EXTMIN
 10
2.420440
 20
2.015200
  9
$EXTMAX
 10
6.098400
 20
8.271560
  9
$LTSCALE
 40
0.044000
  9
$PDMODE
 70
    35
  9
$PDSIZE
 40
0.035200
  0
ENDSEC
  0
SECTION
  2
TABLES
  0
TABLE
  2
LTYPE
 70
     9
  0
LTYPE
  2
CONTINUOUS
 70
    64
  3
Solid line
 72
    65
 73
     0
 40
0.000000
  0
LTYPE
  2
DASHED
 70
    64
  3
__ __ __ __ __ __ __ __ __ __ __ __ __ __ __
 72
    65
 73
     2
 40
0.000330
 49
0.000220
 49
-0.000110
  0
LTYPE
  2
HIDDEN
 70
    64
  3
 _ _ _ _ _ _ _ _ _ _ _ _ _ _ _ _ _ _ _ _ _ _
 72
    65
 73
     2
 40
0.000165
 49
0.000110
 49
-0.000055
  0
LTYPE
  2
CENTER
 70
    64
  3
____ _ ____ _ ____ _ ____ _ ____ _ ____ _ ____
 72
    65
 73
     4
 40
0.000880
 49
0.000550
 49
-0.000110
 49
0.000110
 49
-0.000110
  0
LTYPE
  2
PHANTOM
 70
    64
  3
_____ _ _ _____ _ _ _____ _ _ _____ _ _ ____
 72
    65
 73
     6
 40
0.001100
 49
0.000550
 49
-0.000110
 49
0.000110
 49
-0.000110
 49
0.000110
 49
-0.000110
  0
LTYPE
  2
DOT
 70
    64
  3
...............................................
 72
    65
 73
     2
 40
0.000110
 49
0.000000
 49
-0.000110
  0
LTYPE
  2
DASHDOT
 70
    64
  3
__ . __ . __ . __ . __ . __ . __ . __ . __ . __
 72
    65
 73
     4
 40
0.000440
 49
0.000220
 49
-0.000110
 49
0.000000
 49
-0.000110
  0
LTYPE
  2
BORDER
 70
    64
  3
__ __ . __ __ . __ __ . __ __ . __ __ . __ __
 72
    65
 73
     6
 40
0.000770
 49
0.000220
 49
-0.000110
 49
0.000220
 49
-0.000110
 49
0.000000
 49
-0.000110
  0
LTYPE
  2
DIVIDE
 70
    64
  3
__ . . __ . . __ . . __ . . __ . . __ . . __
 72
    65
 73
     6
 40
0.000550
 49
0.000220
 49
-0.000110
 49
0.000000
 49
-0.000110
 49
0.000000
 49
-0.000110
  0
LTYPE
  2
DOTDOT
 70
    64
  3
 . .  . .  . .  . .  . .  . . 
 72
    65
 73
     5
 40
0.000242
 49
-0.000110
 49
0.000000
 49
-0.000110
 49
0.000000
 49
-0.000110
  0
ENDTAB
  0
TABLE
  2
STYLE
 70
     4
  0
STYLE
 70
     0
  2
SN0
 40
0.000000
 41
0.000440
 50
0.000000
 71
     0
 42
0.000000
  3
ROMAND
  0
STYLE
 70
    68
  2
SV0
 40
0.000000
 41
0.000440
 50
0.000000
 71
     0
 42
0.000000
  3
ROMAND
  0
STYLE
 70
     0
  2
SN1
 40
0.000000
 41
0.000440
 50
0.000000
 71
     0
 42
0.000000
  3
ROMAND
  0
STYLE
 70
    68
  2
SV1
 40
0.000000
 41
0.000440
 50
0.000000
 71
     0
 42
0.000000
  3
ROMAND
  0
ENDTAB
  0
TABLE
  2
LAYER
 70
     3
  0
LAYER
  2
FOREGROUND
 70
    64
 62
     7
  6
CONTINUOUS
  0
LAYER
  2
BACKGROUND
 70
    65
 62
    -7
  6
CONTINUOUS
  0
LAYER
  2
0
 70
    64
 62
     7
  6
CONTINUOUS
  0
ENDTAB
  0
ENDSEC
  0
SECTION
  2
ENTITIES
  0
POLYLINE
  8
FOREGROUND
  6
CONTINUOUS
 66
     1
 40
0.000000
 41
0.000000
  0
VERTEX
  8
FOREGROUND
  6
CONTINUOUS
 10
0.000000
 20
10.286760
  0
VERTEX
  8
FOREGROUND
  6
CONTINUOUS
 10
8.499920
 20
10.286760
  0
VERTEX
  8
FOREGROUND
  6
CONTINUOUS
 10
8.499920
 20
-0.713240
  0
VERTEX
  8
FOREGROUND
  6
CONTINUOUS
 10
0.000000
 20
-0.713240
  0
VERTEX
  8
FOREGROUND
  6
CONTINUOUS
 10
0.000000
 20
10.286760
  0
SEQEND
  8
0
  0
POLYLINE
  8
FOREGROUND
  6
CONTINUOUS
 66
     1
 40
0.000000
 41
0.000000
  0
VERTEX
  8
FOREGROUND
  6
CONTINUOUS
 10
0.000000
 20
10.286760
  0
VERTEX
  8
FOREGROUND
  6
CONTINUOUS
 10
8.499920
 20
10.286760
  0
VERTEX
  8
FOREGROUND
  6
CONTINUOUS
 10
8.499920
 20
-0.713240
  0
VERTEX
  8
FOREGROUND
  6
CONTINUOUS
 10
0.000000
 20
-0.713240
  0
VERTEX
  8
FOREGROUND
  6
CONTINUOUS
 10
0.000000
 20
10.286760
  0
SEQEND
  8
0
  0
TEXT
  8
0
 10
3.713160
 20
7.733880
 40
0.138218
  1
BA  1348
 41
1.000000
  7
SN0
 71
     0
 72
     5
 11
4.396042
 21
7.733880
  0
TEXT
  8
0
 10
3.511200
 20
7.542040
 40
0.138218
  1
13/16" x 3-1/4"
 41
1.000000
  7
SN0
 71
     0
 72
     5
 11
4.596991
 21
7.542040
  0
POLYLINE
  8
0
  6
CONTINUOUS
 66
     1
 40
0.014080
 41
0.014080
  0
VERTEX
  8
0
  6
CONTINUOUS
 10
5.677320
 20
7.597920
  0
VERTEX
  8
0
  6
CONTINUOUS
 10
5.677320
 20
7.454040
  0
VERTEX
  8
0
  6
CONTINUOUS
 10
2.428360
 20
7.454040
  0
VERTEX
  8
0
  6
CONTINUOUS
 10
2.428360
 20
8.264080
  0
VERTEX
  8
0
  6
CONTINUOUS
 10
2.725360
 20
8.264080
  0
VERTEX
  8
0
  6
CONTINUOUS
 10
2.725360
 20
8.197200
  0
VERTEX
  8
0
  6
CONTINUOUS
 10
2.794440
 20
8.197200
  0
VERTEX
  8
0
  6
CONTINUOUS
 10
2.806760
 20
8.220960
  0
VERTEX
  8
0
  6
CONTINUOUS
 10
2.823480
 20
8.240320
  0
VERTEX
  8
0
  6
CONTINUOUS
 10
2.833600
 20
8.247800
  0
VERTEX
  8
0
  6
CONTINUOUS
 10
2.844600
 20
8.253520
  0
VERTEX
  8
0
  6
CONTINUOUS
 10
2.856920
 20
8.257920
  0
VERTEX
  8
0
  6
CONTINUOUS
 10
2.870560
 20
8.260560
  0
VERTEX
  8
0
  6
CONTINUOUS
 10
2.885520
 20
8.261000
  0
VERTEX
  8
0
  6
CONTINUOUS
 10
2.910160
 20
8.257920
  0
VERTEX
  8
0
  6
CONTINUOUS
 10
2.937880
 20
8.250440
  0
VERTEX
  8
0
  6
CONTINUOUS
 10
2.979240
 20
8.231520
  0
VERTEX
  8
0
  6
CONTINUOUS
 10
3.026760
 20
8.202480
  0
VERTEX
  8
0
  6
CONTINUOUS
 10
3.063280
 20
8.179160
  0
VERTEX
  8
0
  6
CONTINUOUS
 10
3.098040
 20
8.161120
  0
VERTEX
  8
0
  6
CONTINUOUS
 10
3.139840
 20
8.143960
  0
VERTEX
  8
0
  6
CONTINUOUS
 10
3.177680
 20
8.133400
  0
VERTEX
  8
0
  6
CONTINUOUS
 10
3.210240
 20
8.127680
  0
VERTEX
  8
0
  6
CONTINUOUS
 10
3.237520
 20
8.125480
  0
VERTEX
  8
0
  6
CONTINUOUS
 10
3.286800
 20
8.126360
  0
VERTEX
  8
0
  6
CONTINUOUS
 10
3.291640
 20
8.124600
  0
VERTEX
  8
0
  6
CONTINUOUS
 10
3.294280
 20
8.121520
  0
VERTEX
  8
0
  6
CONTINUOUS
 10
3.300880
 20
8.088520
  0
VERTEX
  8
0
  6
CONTINUOUS
 10
3.331240
 20
8.088520
  0
VERTEX
  8
0
  6
CONTINUOUS
 10
3.333000
 20
8.104360
  0
VERTEX
  8
0
  6
CONTINUOUS
 10
3.337840
 20
8.118000
  0
VERTEX
  8
0
  6
CONTINUOUS
 10
3.345320
 20
8.129440
  0
VERTEX
  8
0
  6
CONTINUOUS
 10
3.360720
 20
8.142200
  0
VERTEX
  8
0
  6
CONTINUOUS
 10
3.380080
 20
8.150560
  0
VERTEX
  8
0
  6
CONTINUOUS
 10
3.393720
 20
8.153200
  0
VERTEX
  8
0
  6
CONTINUOUS
 10
3.408240
 20
8.153640
  0
VERTEX
  8
0
  6
CONTINUOUS
 10
3.422320
 20
8.151880
  0
VERTEX
  8
0
  6
CONTINUOUS
 10
3.443000
 20
8.144400
  0
VERTEX
  8
0
  6
CONTINUOUS
 10
3.455320
 20
8.136920
  0
VERTEX
  8
0
  6
CONTINUOUS
 10
3.470720
 20
8.121080
  0
VERTEX
  8
0
  6
CONTINUOUS
 10
3.480840
 20
8.099960
  0
VERTEX
  8
0
  6
CONTINUOUS
 10
3.483920
 20
8.082800
  0
VERTEX
  8
0
  6
CONTINUOUS
 10
3.484360
 20
8.032640
  0
VERTEX
  8
0
  6
CONTINUOUS
 10
3.542440
 20
8.032640
  0
VERTEX
  8
0
  6
CONTINUOUS
 10
3.544200
 20
8.021640
  0
VERTEX
  8
0
  6
CONTINUOUS
 10
3.554760
 20
8.000520
  0
VERTEX
  8
0
  6
CONTINUOUS
 10
3.567960
 20
7.985560
  0
VERTEX
  8
0
  6
CONTINUOUS
 10
3.586440
 20
7.971040
  0
VERTEX
  8
0
  6
CONTINUOUS
 10
3.611080
 20
7.958280
  0
VERTEX
  8
0
  6
CONTINUOUS
 10
3.642760
 20
7.948600
  0
VERTEX
  8
0
  6
CONTINUOUS
 10
3.660800
 20
7.945080
  0
VERTEX
  8
0
  6
CONTINUOUS
 10
3.703480
 20
7.942440
  0
VERTEX
  8
0
  6
CONTINUOUS
 10
3.703480
 20
7.897560
  0
VERTEX
  8
0
  6
CONTINUOUS
 10
4.543440
 20
7.897560
  0
VERTEX
  8
0
  6
CONTINUOUS
 10
4.543440
 20
7.839040
  0
VERTEX
  8
0
  6
CONTINUOUS
 10
5.294520
 20
7.838600
  0
VERTEX
  8
0
  6
CONTINUOUS
 10
5.294520
 20
7.784480
  0
VERTEX
  8
0
  6
CONTINUOUS
 10
5.312120
 20
7.784040
  0
VERTEX
  8
0
  6
CONTINUOUS
 10
5.343800
 20
7.780080
  0
VERTEX
  8
0
  6
CONTINUOUS
 10
5.371520
 20
7.772160
  0
VERTEX
  8
0
  6
CONTINUOUS
 10
5.396160
 20
7.761600
  0
VERTEX
  8
0
  6
CONTINUOUS
 10
5.428280
 20
7.741360
  0
VERTEX
  8
0
  6
CONTINUOUS
 10
5.464800
 20
7.708800
  0
VERTEX
  8
0
  6
CONTINUOUS
 10
5.518040
 20
7.656880
  0
VERTEX
  8
0
  6
CONTINUOUS
 10
5.547960
 20
7.634000
  0
VERTEX
  8
0
  6
CONTINUOUS
 10
5.570840
 20
7.620800
  0
VERTEX
  8
0
  6
CONTINUOUS
 10
5.596360
 20
7.610240
  0
VERTEX
  8
0
  6
CONTINUOUS
 10
5.625840
 20
7.602320
  0
VERTEX
  8
0
  6
CONTINUOUS
 10
5.659280
 20
7.598360
  0
VERTEX
  8
0
  6
CONTINUOUS
 10
5.677760
 20
7.597920
  0
VERTEX
  8
0
  6
CONTINUOUS
 10
5.677320
 20
7.597920
  0
SEQEND
  8
0
  0
POLYLINE
  8
0
  6
CONTINUOUS
 66
     1
 40
0.000000
 41
0.000000
  0
VERTEX
  8
0
  6
CONTINUOUS
 10
2.428360
 20
2.159080
  0
VERTEX
  8
0
  6
CONTINUOUS
 10
2.428360
 20
2.015200
  0
VERTEX
  8
0
  6
CONTINUOUS
 10
5.677760
 20
2.015200
  0
VERTEX
  8
0
  6
CONTINUOUS
 10
5.677760
 20
2.825240
  0
VERTEX
  8
0
  6
CONTINUOUS
 10
5.380320
 20
2.825240
  0
VERTEX
  8
0
  6
CONTINUOUS
 10
5.381200
 20
2.824800
  0
VERTEX
  8
0
  6
CONTINUOUS
 10
5.380320
 20
2.758360
  0
VERTEX
  8
0
  6
CONTINUOUS
 10
5.311680
 20
2.758360
  0
VERTEX
  8
0
  6
CONTINUOUS
 10
5.298920
 20
2.782560
  0
VERTEX
  8
0
  6
CONTINUOUS
 10
5.291440
 20
2.792680
  0
VERTEX
  8
0
  6
CONTINUOUS
 10
5.272520
 20
2.809400
  0
VERTEX
  8
0
  6
CONTINUOUS
 10
5.248760
 20
2.819520
  0
VERTEX
  8
0
  6
CONTINUOUS
 10
5.220600
 20
2.822600
  0
VERTEX
  8
0
  6
CONTINUOUS
 10
5.195960
 20
2.819520
  0
VERTEX
  8
0
  6
CONTINUOUS
 10
5.168240
 20
2.811600
  0
VERTEX
  8
0
  6
CONTINUOUS
 10
5.126440
 20
2.792680
  0
VERTEX
  8
0
  6
CONTINUOUS
 10
5.078920
 20
2.763640
  0
VERTEX
  8
0
  6
CONTINUOUS
 10
5.042400
 20
2.740320
  0
VERTEX
  8
0
  6
CONTINUOUS
 10
5.007640
 20
2.722280
  0
VERTEX
  8
0
  6
CONTINUOUS
 10
4.965840
 20
2.705120
  0
VERTEX
  8
0
  6
CONTINUOUS
 10
4.928000
 20
2.694560
  0
VERTEX
  8
0
  6
CONTINUOUS
 10
4.895440
 20
2.688840
  0
VERTEX
  8
0
  6
CONTINUOUS
 10
4.856720
 20
2.686640
  0
VERTEX
  8
0
  6
CONTINUOUS
 10
4.818880
 20
2.687960
  0
VERTEX
  8
0
  6
CONTINUOUS
 10
4.814040
 20
2.686200
  0
VERTEX
  8
0
  6
CONTINUOUS
 10
4.811400
 20
2.683120
  0
VERTEX
  8
0
  6
CONTINUOUS
 10
4.804800
 20
2.649680
  0
VERTEX
  8
0
  6
CONTINUOUS
 10
4.774440
 20
2.649680
  0
VERTEX
  8
0
  6
CONTINUOUS
 10
4.772680
 20
2.665520
  0
VERTEX
  8
0
  6
CONTINUOUS
 10
4.764320
 20
2.685320
  0
VERTEX
  8
0
  6
CONTINUOUS
 10
4.750240
 20
2.699840
  0
VERTEX
  8
0
  6
CONTINUOUS
 10
4.732200
 20
2.709960
  0
VERTEX
  8
0
  6
CONTINUOUS
 10
4.711960
 20
2.714800
  0
VERTEX
  8
0
  6
CONTINUOUS
 10
4.697440
 20
2.715240
  0
VERTEX
  8
0
  6
CONTINUOUS
 10
4.683360
 20
2.713040
  0
VERTEX
  8
0
  6
CONTINUOUS
 10
4.662680
 20
2.706000
  0
VERTEX
  8
0
  6
CONTINUOUS
 10
4.650360
 20
2.698520
  0
VERTEX
  8
0
  6
CONTINUOUS
 10
4.634960
 20
2.682240
  0
VERTEX
  8
0
  6
CONTINUOUS
 10
4.627480
 20
2.668600
  0
VERTEX
  8
0
  6
CONTINUOUS
 10
4.623080
 20
2.652760
  0
VERTEX
  8
0
  6
CONTINUOUS
 10
4.621320
 20
2.634280
  0
VERTEX
  8
0
  6
CONTINUOUS
 10
4.621320
 20
2.594240
  0
VERTEX
  8
0
  6
CONTINUOUS
 10
4.563680
 20
2.594240
  0
VERTEX
  8
0
  6
CONTINUOUS
 10
4.561920
 20
2.582800
  0
VERTEX
  8
0
  6
CONTINUOUS
 10
4.550920
 20
2.561680
  0
VERTEX
  8
0
  6
CONTINUOUS
 10
4.537720
 20
2.546720
  0
VERTEX
  8
0
  6
CONTINUOUS
 10
4.519240
 20
2.532200
  0
VERTEX
  8
0
  6
CONTINUOUS
 10
4.494600
 20
2.519880
  0
VERTEX
  8
0
  6
CONTINUOUS
 10
4.463360
 20
2.510200
  0
VERTEX
  8
0
  6
CONTINUOUS
 10
4.444880
 20
2.506680
  0
VERTEX
  8
0
  6
CONTINUOUS
 10
4.402640
 20
2.504040
  0
VERTEX
  8
0
  6
CONTINUOUS
 10
4.402640
 20
2.458720
  0
VERTEX
  8
0
  6
CONTINUOUS
 10
3.562680
 20
2.458720
  0
VERTEX
  8
0
  6
CONTINUOUS
 10
3.562680
 20
2.400200
  0
VERTEX
  8
0
  6
CONTINUOUS
 10
2.811160
 20
2.400200
  0
VERTEX
  8
0
  6
CONTINUOUS
 10
2.811160
 20
2.346080
  0
VERTEX
  8
0
  6
CONTINUOUS
 10
2.777280
 20
2.343880
  0
VERTEX
  8
0
  6
CONTINUOUS
 10
2.747800
 20
2.338160
  0
VERTEX
  8
0
  6
CONTINUOUS
 10
2.721400
 20
2.328920
  0
VERTEX
  8
0
  6
CONTINUOUS
 10
2.698520
 20
2.317040
  0
VERTEX
  8
0
  6
CONTINUOUS
 10
2.658920
 20
2.287120
  0
VERTEX
  8
0
  6
CONTINUOUS
 10
2.588080
 20
2.218040
  0
VERTEX
  8
0
  6
CONTINUOUS
 10
2.546720
 20
2.188120
  0
VERTEX
  8
0
  6
CONTINUOUS
 10
2.522520
 20
2.176240
  0
VERTEX
  8
0
  6
CONTINUOUS
 10
2.495240
 20
2.167000
  0
VERTEX
  8
0
  6
CONTINUOUS
 10
2.463560
 20
2.161280
  0
VERTEX
  8
0
  6
CONTINUOUS
 10
2.446400
 20
2.159520
  0
VERTEX
  8
0
  6
CONTINUOUS
 10
2.427920
 20
2.159080
  0
VERTEX
  8
0
  6
CONTINUOUS
 10
2.428360
 20
2.159080
  0
SEQEND
  8
0
  0
POLYLINE
  8
0
  6
CONTINUOUS
 66
     1
 40
0.000000
 41
0.000000
  0
VERTEX
  8
0
  6
CONTINUOUS
 10
5.677320
 20
3.357640
  0
VERTEX
  8
0
  6
CONTINUOUS
 10
5.677320
 20
3.213760
  0
VERTEX
  8
0
  6
CONTINUOUS
 10
2.427920
 20
3.213760
  0
VERTEX
  8
0
  6
CONTINUOUS
 10
2.427920
 20
4.023800
  0
VERTEX
  8
0
  6
CONTINUOUS
 10
2.725360
 20
4.023800
  0
VERTEX
  8
0
  6
CONTINUOUS
 10
2.724480
 20
4.023360
  0
VERTEX
  8
0
  6
CONTINUOUS
 10
2.725360
 20
3.956920
  0
VERTEX
  8
0
  6
CONTINUOUS
 10
2.794000
 20
3.956920
  0
VERTEX
  8
0
  6
CONTINUOUS
 10
2.806760
 20
3.980680
  0
VERTEX
  8
0
  6
CONTINUOUS
 10
2.814240
 20
3.991240
  0
VERTEX
  8
0
  6
CONTINUOUS
 10
2.833160
 20
4.007520
  0
VERTEX
  8
0
  6
CONTINUOUS
 10
2.856920
 20
4.017640
  0
VERTEX
  8
0
  6
CONTINUOUS
 10
2.870560
 20
4.020280
  0
VERTEX
  8
0
  6
CONTINUOUS
 10
2.885080
 20
4.020720
  0
VERTEX
  8
0
  6
CONTINUOUS
 10
2.909720
 20
4.017640
  0
VERTEX
  8
0
  6
CONTINUOUS
 10
2.937440
 20
4.010160
  0
VERTEX
  8
0
  6
CONTINUOUS
 10
2.978800
 20
3.991240
  0
VERTEX
  8
0
  6
CONTINUOUS
 10
3.026320
 20
3.962200
  0
VERTEX
  8
0
  6
CONTINUOUS
 10
3.074720
 20
3.932720
  0
VERTEX
  8
0
  6
CONTINUOUS
 10
3.097600
 20
3.920840
  0
VERTEX
  8
0
  6
CONTINUOUS
 10
3.139840
 20
3.903680
  0
VERTEX
  8
0
  6
CONTINUOUS
 10
3.177680
 20
3.893120
  0
VERTEX
  8
0
  6
CONTINUOUS
 10
3.210240
 20
3.887400
  0
VERTEX
  8
0
  6
CONTINUOUS
 10
3.237520
 20
3.885200
  0
VERTEX
  8
0
  6
CONTINUOUS
 10
3.286800
 20
3.886080
  0
VERTEX
  8
0
  6
CONTINUOUS
 10
3.291200
 20
3.884320
  0
VERTEX
  8
0
  6
CONTINUOUS
 10
3.294280
 20
3.881240
  0
VERTEX
  8
0
  6
CONTINUOUS
 10
3.300880
 20
3.848240
  0
VERTEX
  8
0
  6
CONTINUOUS
 10
3.331240
 20
3.848240
  0
VERTEX
  8
0
  6
CONTINUOUS
 10
3.333000
 20
3.864080
  0
VERTEX
  8
0
  6
CONTINUOUS
 10
3.341360
 20
3.883880
  0
VERTEX
  8
0
  6
CONTINUOUS
 10
3.355440
 20
3.898400
  0
VERTEX
  8
0
  6
CONTINUOUS
 10
3.373480
 20
3.908520
  0
VERTEX
  8
0
  6
CONTINUOUS
 10
3.393720
 20
3.913360
  0
VERTEX
  8
0
  6
CONTINUOUS
 10
3.408240
 20
3.913800
  0
VERTEX
  8
0
  6
CONTINUOUS
 10
3.422320
 20
3.911600
  0
VERTEX
  8
0
  6
CONTINUOUS
 10
3.443000
 20
3.904560
  0
VERTEX
  8
0
  6
CONTINUOUS
 10
3.455320
 20
3.897080
  0
VERTEX
  8
0
  6
CONTINUOUS
 10
3.470720
 20
3.880800
  0
VERTEX
  8
0
  6
CONTINUOUS
 10
3.478200
 20
3.867160
  0
VERTEX
  8
0
  6
CONTINUOUS
 10
3.482600
 20
3.851320
  0
VERTEX
  8
0
  6
CONTINUOUS
 10
3.484360
 20
3.832840
  0
VERTEX
  8
0
  6
CONTINUOUS
 10
3.484360
 20
3.792360
  0
VERTEX
  8
0
  6
CONTINUOUS
 10
3.542000
 20
3.792360
  0
VERTEX
  8
0
  6
CONTINUOUS
 10
3.543760
 20
3.781360
  0
VERTEX
  8
0
  6
CONTINUOUS
 10
3.554760
 20
3.760240
  0
VERTEX
  8
0
  6
CONTINUOUS
 10
3.567960
 20
3.745280
  0
VERTEX
  8
0
  6
CONTINUOUS
 10
3.586440
 20
3.730760
  0
VERTEX
  8
0
  6
CONTINUOUS
 10
3.611080
 20
3.718440
  0
VERTEX
  8
0
  6
CONTINUOUS
 10
3.642320
 20
3.708760
  0
VERTEX
  8
0
  6
CONTINUOUS
 10
3.660800
 20
3.705240
  0
VERTEX
  8
0
  6
CONTINUOUS
 10
3.703040
 20
3.702600
  0
VERTEX
  8
0
  6
CONTINUOUS
 10
3.703040
 20
3.657280
  0
VERTEX
  8
0
  6
CONTINUOUS
 10
4.543000
 20
3.657280
  0
VERTEX
  8
0
  6
CONTINUOUS
 10
4.543000
 20
3.598760
  0
VERTEX
  8
0
  6
CONTINUOUS
 10
5.294080
 20
3.598320
  0
VERTEX
  8
0
  6
CONTINUOUS
 10
5.294080
 20
3.544200
  0
VERTEX
  8
0
  6
CONTINUOUS
 10
5.311680
 20
3.543760
  0
VERTEX
  8
0
  6
CONTINUOUS
 10
5.343360
 20
3.539800
  0
VERTEX
  8
0
  6
CONTINUOUS
 10
5.371080
 20
3.531880
  0
VERTEX
  8
0
  6
CONTINUOUS
 10
5.395720
 20
3.521320
  0
VERTEX
  8
0
  6
CONTINUOUS
 10
5.427840
 20
3.501080
  0
VERTEX
  8
0
  6
CONTINUOUS
 10
5.464800
 20
3.468520
  0
VERTEX
  8
0
  6
CONTINUOUS
 10
5.517600
 20
3.416600
  0
VERTEX
  8
0
  6
CONTINUOUS
 10
5.547960
 20
3.393720
  0
VERTEX
  8
0
  6
CONTINUOUS
 10
5.570840
 20
3.380520
  0
VERTEX
  8
0
  6
CONTINUOUS
 10
5.596360
 20
3.369960
  0
VERTEX
  8
0
  6
CONTINUOUS
 10
5.625840
 20
3.362040
  0
VERTEX
  8
0
  6
CONTINUOUS
 10
5.659280
 20
3.358080
  0
VERTEX
  8
0
  6
CONTINUOUS
 10
5.677760
 20
3.357640
  0
VERTEX
  8
0
  6
CONTINUOUS
 10
5.677320
 20
3.357640
  0
SEQEND
  8
0
  0
SOLID
  8
0
 62
    15
 10
5.676000
 20
5.496480
 11
5.678200
 21
6.248000
 12
5.676000
 22
5.352600
 13
5.678200
 23
6.104120
  0
POLYLINE
  8
0
  6
CONTINUOUS
 66
     1
 40
0.000000
 41
0.000000
  0
VERTEX
  8
0
  6
CONTINUOUS
 10
5.676000
 20
5.496480
  0
VERTEX
  8
0
  6
CONTINUOUS
 10
5.678200
 20
6.248000
  0
VERTEX
  8
0
  6
CONTINUOUS
 10
5.678200
 20
6.104120
  0
VERTEX
  8
0
  6
CONTINUOUS
 10
5.676000
 20
5.352600
  0
VERTEX
  8
0
  6
CONTINUOUS
 10
5.676000
 20
5.496480
  0
SEQEND
  8
0
  0
SOLID
  8
0
 62
    15
 10
2.723600
 20
6.162200
 11
2.725800
 21
6.913720
 12
2.724040
 22
6.095760
 13
2.726240
 23
6.847280
  0
POLYLINE
  8
0
  6
CONTINUOUS
 66
     1
 40
0.000000
 41
0.000000
  0
VERTEX
  8
0
  6
CONTINUOUS
 10
2.723600
 20
6.162200
  0
VERTEX
  8
0
  6
CONTINUOUS
 10
2.725800
 20
6.913720
  0
VERTEX
  8
0
  6
CONTINUOUS
 10
2.726240
 20
6.847280
  0
VERTEX
  8
0
  6
CONTINUOUS
 10
2.724040
 20
6.095760
  0
VERTEX
  8
0
  6
CONTINUOUS
 10
2.723600
 20
6.162200
  0
SEQEND
  8
0
  0
SOLID
  8
0
 62
    15
 10
2.427040
 20
6.162640
 11
2.428800
 21
6.914160
 12
2.724040
 22
6.162640
 13
2.726240
 23
6.914160
  0
POLYLINE
  8
0
  6
CONTINUOUS
 66
     1
 40
0.000000
 41
0.000000
  0
VERTEX
  8
0
  6
CONTINUOUS
 10
2.427040
 20
6.162640
  0
VERTEX
  8
0
  6
CONTINUOUS
 10
2.428800
 20
6.914160
  0
VERTEX
  8
0
  6
CONTINUOUS
 10
2.726240
 20
6.914160
  0
VERTEX
  8
0
  6
CONTINUOUS
 10
2.724040
 20
6.162640
  0
VERTEX
  8
0
  6
CONTINUOUS
 10
2.427040
 20
6.162640
  0
SEQEND
  8
0
  0
SOLID
  8
0
 62
    15
 10
2.724040
 20
6.095760
 11
2.726240
 21
6.847280
 12
2.793120
 22
6.095760
 13
2.794880
 23
6.847280
  0
POLYLINE
  8
0
  6
CONTINUOUS
 66
     1
 40
0.000000
 41
0.000000
  0
VERTEX
  8
0
  6
CONTINUOUS
 10
2.724040
 20
6.095760
  0
VERTEX
  8
0
  6
CONTINUOUS
 10
2.726240
 20
6.847280
  0
VERTEX
  8
0
  6
CONTINUOUS
 10
2.794880
 20
6.847280
  0
VERTEX
  8
0
  6
CONTINUOUS
 10
2.793120
 20
6.095760
  0
VERTEX
  8
0
  6
CONTINUOUS
 10
2.724040
 20
6.095760
  0
SEQEND
  8
0
  0
SOLID
  8
0
 62
    15
 10
2.793120
 20
6.095760
 11
2.794880
 21
6.847280
 12
2.805440
 22
6.119960
 13
2.807640
 23
6.871480
  0
POLYLINE
  8
0
  6
CONTINUOUS
 66
     1
 40
0.000000
 41
0.000000
  0
VERTEX
  8
0
  6
CONTINUOUS
 10
2.793120
 20
6.095760
  0
VERTEX
  8
0
  6
CONTINUOUS
 10
2.794880
 20
6.847280
  0
VERTEX
  8
0
  6
CONTINUOUS
 10
2.807640
 20
6.871480
  0
VERTEX
  8
0
  6
CONTINUOUS
 10
2.805440
 20
6.119960
  0
VERTEX
  8
0
  6
CONTINUOUS
 10
2.793120
 20
6.095760
  0
SEQEND
  8
0
  0
SOLID
  8
0
 62
    15
 10
2.805440
 20
6.119960
 11
2.807640
 21
6.871480
 12
2.822160
 22
6.138880
 13
2.824360
 23
6.890400
  0
POLYLINE
  8
0
  6
CONTINUOUS
 66
     1
 40
0.000000
 41
0.000000
  0
VERTEX
  8
0
  6
CONTINUOUS
 10
2.805440
 20
6.119960
  0
VERTEX
  8
0
  6
CONTINUOUS
 10
2.807640
 20
6.871480
  0
VERTEX
  8
0
  6
CONTINUOUS
 10
2.824360
 20
6.890400
  0
VERTEX
  8
0
  6
CONTINUOUS
 10
2.822160
 20
6.138880
  0
VERTEX
  8
0
  6
CONTINUOUS
 10
2.805440
 20
6.119960
  0
SEQEND
  8
0
  0
SOLID
  8
0
 62
    15
 10
2.822160
 20
6.138880
 11
2.824360
 21
6.890400
 12
2.843280
 22
6.152520
 13
2.845480
 23
6.904040
  0
POLYLINE
  8
0
  6
CONTINUOUS
 66
     1
 40
0.000000
 41
0.000000
  0
VERTEX
  8
0
  6
CONTINUOUS
 10
2.822160
 20
6.138880
  0
VERTEX
  8
0
  6
CONTINUOUS
 10
2.824360
 20
6.890400
  0
VERTEX
  8
0
  6
CONTINUOUS
 10
2.845480
 20
6.904040
  0
VERTEX
  8
0
  6
CONTINUOUS
 10
2.843280
 20
6.152520
  0
VERTEX
  8
0
  6
CONTINUOUS
 10
2.822160
 20
6.138880
  0
SEQEND
  8
0
  0
SOLID
  8
0
 62
    15
 10
2.843280
 20
6.152520
 11
2.845480
 21
6.904040
 12
2.869240
 22
6.159120
 13
2.871440
 23
6.910640
  0
POLYLINE
  8
0
  6
CONTINUOUS
 66
     1
 40
0.000000
 41
0.000000
  0
VERTEX
  8
0
  6
CONTINUOUS
 10
2.843280
 20
6.152520
  0
VERTEX
  8
0
  6
CONTINUOUS
 10
2.845480
 20
6.904040
  0
VERTEX
  8
0
  6
CONTINUOUS
 10
2.871440
 20
6.910640
  0
VERTEX
  8
0
  6
CONTINUOUS
 10
2.869240
 20
6.159120
  0
VERTEX
  8
0
  6
CONTINUOUS
 10
2.843280
 20
6.152520
  0
SEQEND
  8
0
  0
SOLID
  8
0
 62
    15
 10
2.869240
 20
6.159120
 11
2.871440
 21
6.910640
 12
2.900480
 22
6.158240
 13
2.902240
 23
6.909760
  0
POLYLINE
  8
0
  6
CONTINUOUS
 66
     1
 40
0.000000
 41
0.000000
  0
VERTEX
  8
0
  6
CONTINUOUS
 10
2.869240
 20
6.159120
  0
VERTEX
  8
0
  6
CONTINUOUS
 10
2.871440
 20
6.910640
  0
VERTEX
  8
0
  6
CONTINUOUS
 10
2.902240
 20
6.909760
  0
VERTEX
  8
0
  6
CONTINUOUS
 10
2.900480
 20
6.158240
  0
VERTEX
  8
0
  6
CONTINUOUS
 10
2.869240
 20
6.159120
  0
SEQEND
  8
0
  0
SOLID
  8
0
 62
    15
 10
2.900480
 20
6.158240
 11
2.902240
 21
6.909760
 12
2.936560
 22
6.149000
 13
2.938320
 23
6.900520
  0
POLYLINE
  8
0
  6
CONTINUOUS
 66
     1
 40
0.000000
 41
0.000000
  0
VERTEX
  8
0
  6
CONTINUOUS
 10
2.900480
 20
6.158240
  0
VERTEX
  8
0
  6
CONTINUOUS
 10
2.902240
 20
6.909760
  0
VERTEX
  8
0
  6
CONTINUOUS
 10
2.938320
 20
6.900520
  0
VERTEX
  8
0
  6
CONTINUOUS
 10
2.936560
 20
6.149000
  0
VERTEX
  8
0
  6
CONTINUOUS
 10
2.900480
 20
6.158240
  0
SEQEND
  8
0
  0
SOLID
  8
0
 62
    15
 10
2.936560
 20
6.149000
 11
2.938320
 21
6.900520
 12
2.977920
 22
6.130080
 13
2.980120
 23
6.881600
  0
POLYLINE
  8
0
  6
CONTINUOUS
 66
     1
 40
0.000000
 41
0.000000
  0
VERTEX
  8
0
  6
CONTINUOUS
 10
2.936560
 20
6.149000
  0
VERTEX
  8
0
  6
CONTINUOUS
 10
2.938320
 20
6.900520
  0
VERTEX
  8
0
  6
CONTINUOUS
 10
2.980120
 20
6.881600
  0
VERTEX
  8
0
  6
CONTINUOUS
 10
2.977920
 20
6.130080
  0
VERTEX
  8
0
  6
CONTINUOUS
 10
2.936560
 20
6.149000
  0
SEQEND
  8
0
  0
SOLID
  8
0
 62
    15
 10
2.977920
 20
6.130080
 11
2.980120
 21
6.881600
 12
3.073840
 22
6.071120
 13
3.076040
 23
6.823080
  0
POLYLINE
  8
0
  6
CONTINUOUS
 66
     1
 40
0.000000
 41
0.000000
  0
VERTEX
  8
0
  6
CONTINUOUS
 10
2.977920
 20
6.130080
  0
VERTEX
  8
0
  6
CONTINUOUS
 10
2.980120
 20
6.881600
  0
VERTEX
  8
0
  6
CONTINUOUS
 10
3.076040
 20
6.823080
  0
VERTEX
  8
0
  6
CONTINUOUS
 10
3.073840
 20
6.071120
  0
VERTEX
  8
0
  6
CONTINUOUS
 10
2.977920
 20
6.130080
  0
SEQEND
  8
0
  0
SOLID
  8
0
 62
    15
 10
3.073840
 20
6.071120
 11
3.076040
 21
6.823080
 12
3.118280
 22
6.050440
 13
3.120480
 23
6.801960
  0
POLYLINE
  8
0
  6
CONTINUOUS
 66
     1
 40
0.000000
 41
0.000000
  0
VERTEX
  8
0
  6
CONTINUOUS
 10
3.073840
 20
6.071120
  0
VERTEX
  8
0
  6
CONTINUOUS
 10
3.076040
 20
6.823080
  0
VERTEX
  8
0
  6
CONTINUOUS
 10
3.120480
 20
6.801960
  0
VERTEX
  8
0
  6
CONTINUOUS
 10
3.118280
 20
6.050440
  0
VERTEX
  8
0
  6
CONTINUOUS
 10
3.073840
 20
6.071120
  0
SEQEND
  8
0
  0
SOLID
  8
0
 62
    15
 10
3.118280
 20
6.050440
 11
3.120480
 21
6.801960
 12
3.158320
 22
6.036360
 13
3.160080
 23
6.787880
  0
POLYLINE
  8
0
  6
CONTINUOUS
 66
     1
 40
0.000000
 41
0.000000
  0
VERTEX
  8
0
  6
CONTINUOUS
 10
3.118280
 20
6.050440
  0
VERTEX
  8
0
  6
CONTINUOUS
 10
3.120480
 20
6.801960
  0
VERTEX
  8
0
  6
CONTINUOUS
 10
3.160080
 20
6.787880
  0
VERTEX
  8
0
  6
CONTINUOUS
 10
3.158320
 20
6.036360
  0
VERTEX
  8
0
  6
CONTINUOUS
 10
3.118280
 20
6.050440
  0
SEQEND
  8
0
  0
SOLID
  8
0
 62
    15
 10
3.158320
 20
6.036360
 11
3.160080
 21
6.787880
 12
3.193520
 22
6.028440
 13
3.195280
 23
6.779960
  0
POLYLINE
  8
0
  6
CONTINUOUS
 66
     1
 40
0.000000
 41
0.000000
  0
VERTEX
  8
0
  6
CONTINUOUS
 10
3.158320
 20
6.036360
  0
VERTEX
  8
0
  6
CONTINUOUS
 10
3.160080
 20
6.787880
  0
VERTEX
  8
0
  6
CONTINUOUS
 10
3.195280
 20
6.779960
  0
VERTEX
  8
0
  6
CONTINUOUS
 10
3.193520
 20
6.028440
  0
VERTEX
  8
0
  6
CONTINUOUS
 10
3.158320
 20
6.036360
  0
SEQEND
  8
0
  0
SOLID
  8
0
 62
    15
 10
3.193520
 20
6.028440
 11
3.195280
 21
6.779960
 12
3.223440
 22
6.024480
 13
3.225640
 23
6.776440
  0
POLYLINE
  8
0
  6
CONTINUOUS
 66
     1
 40
0.000000
 41
0.000000
  0
VERTEX
  8
0
  6
CONTINUOUS
 10
3.193520
 20
6.028440
  0
VERTEX
  8
0
  6
CONTINUOUS
 10
3.195280
 20
6.779960
  0
VERTEX
  8
0
  6
CONTINUOUS
 10
3.225640
 20
6.776440
  0
VERTEX
  8
0
  6
CONTINUOUS
 10
3.223440
 20
6.024480
  0
VERTEX
  8
0
  6
CONTINUOUS
 10
3.193520
 20
6.028440
  0
SEQEND
  8
0
  0
SOLID
  8
0
 62
    15
 10
3.223440
 20
6.024480
 11
3.225640
 21
6.776440
 12
3.248080
 22
6.024040
 13
3.249840
 23
6.775560
  0
POLYLINE
  8
0
  6
CONTINUOUS
 66
     1
 40
0.000000
 41
0.000000
  0
VERTEX
  8
0
  6
CONTINUOUS
 10
3.223440
 20
6.024480
  0
VERTEX
  8
0
  6
CONTINUOUS
 10
3.225640
 20
6.776440
  0
VERTEX
  8
0
  6
CONTINUOUS
 10
3.249840
 20
6.775560
  0
VERTEX
  8
0
  6
CONTINUOUS
 10
3.248080
 20
6.024040
  0
VERTEX
  8
0
  6
CONTINUOUS
 10
3.223440
 20
6.024480
  0
SEQEND
  8
0
  0
SOLID
  8
0
 62
    15
 10
3.248080
 20
6.024040
 11
3.249840
 21
6.775560
 12
3.266560
 22
6.024480
 13
3.268760
 23
6.776440
  0
POLYLINE
  8
0
  6
CONTINUOUS
 66
     1
 40
0.000000
 41
0.000000
  0
VERTEX
  8
0
  6
CONTINUOUS
 10
3.248080
 20
6.024040
  0
VERTEX
  8
0
  6
CONTINUOUS
 10
3.249840
 20
6.775560
  0
VERTEX
  8
0
  6
CONTINUOUS
 10
3.268760
 20
6.776440
  0
VERTEX
  8
0
  6
CONTINUOUS
 10
3.266560
 20
6.024480
  0
VERTEX
  8
0
  6
CONTINUOUS
 10
3.248080
 20
6.024040
  0
SEQEND
  8
0
  0
SOLID
  8
0
 62
    15
 10
3.266560
 20
6.024480
 11
3.268760
 21
6.776440
 12
3.279320
 22
6.025360
 13
3.281080
 23
6.777320
  0
POLYLINE
  8
0
  6
CONTINUOUS
 66
     1
 40
0.000000
 41
0.000000
  0
VERTEX
  8
0
  6
CONTINUOUS
 10
3.266560
 20
6.024480
  0
VERTEX
  8
0
  6
CONTINUOUS
 10
3.268760
 20
6.776440
  0
VERTEX
  8
0
  6
CONTINUOUS
 10
3.281080
 20
6.777320
  0
VERTEX
  8
0
  6
CONTINUOUS
 10
3.279320
 20
6.025360
  0
VERTEX
  8
0
  6
CONTINUOUS
 10
3.266560
 20
6.024480
  0
SEQEND
  8
0
  0
SOLID
  8
0
 62
    15
 10
3.279320
 20
6.025360
 11
3.281080
 21
6.777320
 12
3.290320
 22
6.023160
 13
3.292520
 23
6.775120
  0
POLYLINE
  8
0
  6
CONTINUOUS
 66
     1
 40
0.000000
 41
0.000000
  0
VERTEX
  8
0
  6
CONTINUOUS
 10
3.279320
 20
6.025360
  0
VERTEX
  8
0
  6
CONTINUOUS
 10
3.281080
 20
6.777320
  0
VERTEX
  8
0
  6
CONTINUOUS
 10
3.292520
 20
6.775120
  0
VERTEX
  8
0
  6
CONTINUOUS
 10
3.290320
 20
6.023160
  0
VERTEX
  8
0
  6
CONTINUOUS
 10
3.279320
 20
6.025360
  0
SEQEND
  8
0
  0
SOLID
  8
0
 62
    15
 10
3.290320
 20
6.023160
 11
3.292520
 21
6.775120
 12
3.293840
 22
6.015680
 13
3.296040
 23
6.767640
  0
POLYLINE
  8
0
  6
CONTINUOUS
 66
     1
 40
0.000000
 41
0.000000
  0
VERTEX
  8
0
  6
CONTINUOUS
 10
3.290320
 20
6.023160
  0
VERTEX
  8
0
  6
CONTINUOUS
 10
3.292520
 20
6.775120
  0
VERTEX
  8
0
  6
CONTINUOUS
 10
3.296040
 20
6.767640
  0
VERTEX
  8
0
  6
CONTINUOUS
 10
3.293840
 20
6.015680
  0
VERTEX
  8
0
  6
CONTINUOUS
 10
3.290320
 20
6.023160
  0
SEQEND
  8
0
  0
SOLID
  8
0
 62
    15
 10
3.293840
 20
6.015680
 11
3.296040
 21
6.767640
 12
3.299560
 22
5.987080
 13
3.301760
 23
6.738600
  0
POLYLINE
  8
0
  6
CONTINUOUS
 66
     1
 40
0.000000
 41
0.000000
  0
VERTEX
  8
0
  6
CONTINUOUS
 10
3.293840
 20
6.015680
  0
VERTEX
  8
0
  6
CONTINUOUS
 10
3.296040
 20
6.767640
  0
VERTEX
  8
0
  6
CONTINUOUS
 10
3.301760
 20
6.738600
  0
VERTEX
  8
0
  6
CONTINUOUS
 10
3.299560
 20
5.987080
  0
VERTEX
  8
0
  6
CONTINUOUS
 10
3.293840
 20
6.015680
  0
SEQEND
  8
0
  0
SOLID
  8
0
 62
    15
 10
3.299560
 20
5.987080
 11
3.301760
 21
6.738600
 12
3.329920
 22
5.987080
 13
3.332120
 23
6.738600
  0
POLYLINE
  8
0
  6
CONTINUOUS
 66
     1
 40
0.000000
 41
0.000000
  0
VERTEX
  8
0
  6
CONTINUOUS
 10
3.299560
 20
5.987080
  0
VERTEX
  8
0
  6
CONTINUOUS
 10
3.301760
 20
6.738600
  0
VERTEX
  8
0
  6
CONTINUOUS
 10
3.332120
 20
6.738600
  0
VERTEX
  8
0
  6
CONTINUOUS
 10
3.329920
 20
5.987080
  0
VERTEX
  8
0
  6
CONTINUOUS
 10
3.299560
 20
5.987080
  0
SEQEND
  8
0
  0
POLYLINE
  8
0
  6
CONTINUOUS
 66
     1
 40
0.000000
 41
0.000000
  0
VERTEX
  8
0
  6
CONTINUOUS
 10
3.329920
 20
5.987080
  0
VERTEX
  8
0
  6
CONTINUOUS
 10
3.332120
 20
6.738600
  0
VERTEX
  8
0
  6
CONTINUOUS
 10
3.329920
 20
5.987080
  0
SEQEND
  8
0
  0
SOLID
  8
0
 62
    15
 10
3.329920
 20
5.987080
 11
3.332120
 21
6.738600
 12
3.331680
 22
6.002920
 13
3.333880
 23
6.754440
  0
POLYLINE
  8
0
  6
CONTINUOUS
 66
     1
 40
0.000000
 41
0.000000
  0
VERTEX
  8
0
  6
CONTINUOUS
 10
3.329920
 20
5.987080
  0
VERTEX
  8
0
  6
CONTINUOUS
 10
3.332120
 20
6.738600
  0
VERTEX
  8
0
  6
CONTINUOUS
 10
3.333880
 20
6.754440
  0
VERTEX
  8
0
  6
CONTINUOUS
 10
3.331680
 20
6.002920
  0
VERTEX
  8
0
  6
CONTINUOUS
 10
3.329920
 20
5.987080
  0
SEQEND
  8
0
  0
SOLID
  8
0
 62
    15
 10
3.331680
 20
6.002920
 11
3.333880
 21
6.754440
 12
3.336520
 22
6.016560
 13
3.338720
 23
6.768080
  0
POLYLINE
  8
0
  6
CONTINUOUS
 66
     1
 40
0.000000
 41
0.000000
  0
VERTEX
  8
0
  6
CONTINUOUS
 10
3.331680
 20
6.002920
  0
VERTEX
  8
0
  6
CONTINUOUS
 10
3.333880
 20
6.754440
  0
VERTEX
  8
0
  6
CONTINUOUS
 10
3.338720
 20
6.768080
  0
VERTEX
  8
0
  6
CONTINUOUS
 10
3.336520
 20
6.016560
  0
VERTEX
  8
0
  6
CONTINUOUS
 10
3.331680
 20
6.002920
  0
SEQEND
  8
0
  0
SOLID
  8
0
 62
    15
 10
3.336520
 20
6.016560
 11
3.338720
 21
6.768080
 12
3.354120
 22
6.037240
 13
3.356320
 23
6.788760
  0
POLYLINE
  8
0
  6
CONTINUOUS
 66
     1
 40
0.000000
 41
0.000000
  0
VERTEX
  8
0
  6
CONTINUOUS
 10
3.336520
 20
6.016560
  0
VERTEX
  8
0
  6
CONTINUOUS
 10
3.338720
 20
6.768080
  0
VERTEX
  8
0
  6
CONTINUOUS
 10
3.356320
 20
6.788760
  0
VERTEX
  8
0
  6
CONTINUOUS
 10
3.354120
 20
6.037240
  0
VERTEX
  8
0
  6
CONTINUOUS
 10
3.336520
 20
6.016560
  0
SEQEND
  8
0
  0
SOLID
  8
0
 62
    15
 10
3.354120
 20
6.037240
 11
3.356320
 21
6.788760
 12
3.378760
 22
6.049120
 13
3.380960
 23
6.801080
  0
POLYLINE
  8
0
  6
CONTINUOUS
 66
     1
 40
0.000000
 41
0.000000
  0
VERTEX
  8
0
  6
CONTINUOUS
 10
3.354120
 20
6.037240
  0
VERTEX
  8
0
  6
CONTINUOUS
 10
3.356320
 20
6.788760
  0
VERTEX
  8
0
  6
CONTINUOUS
 10
3.380960
 20
6.801080
  0
VERTEX
  8
0
  6
CONTINUOUS
 10
3.378760
 20
6.049120
  0
VERTEX
  8
0
  6
CONTINUOUS
 10
3.354120
 20
6.037240
  0
SEQEND
  8
0
  0
SOLID
  8
0
 62
    15
 10
3.378760
 20
6.049120
 11
3.380960
 21
6.801080
 12
3.406920
 22
6.052200
 13
3.409120
 23
6.804160
  0
POLYLINE
  8
0
  6
CONTINUOUS
 66
     1
 40
0.000000
 41
0.000000
  0
VERTEX
  8
0
  6
CONTINUOUS
 10
3.378760
 20
6.049120
  0
VERTEX
  8
0
  6
CONTINUOUS
 10
3.380960
 20
6.801080
  0
VERTEX
  8
0
  6
CONTINUOUS
 10
3.409120
 20
6.804160
  0
VERTEX
  8
0
  6
CONTINUOUS
 10
3.406920
 20
6.052200
  0
VERTEX
  8
0
  6
CONTINUOUS
 10
3.378760
 20
6.049120
  0
SEQEND
  8
0
  0
SOLID
  8
0
 62
    15
 10
3.406920
 20
6.052200
 11
3.409120
 21
6.804160
 12
3.435080
 22
6.046480
 13
3.437280
 23
6.798000
  0
POLYLINE
  8
0
  6
CONTINUOUS
 66
     1
 40
0.000000
 41
0.000000
  0
VERTEX
  8
0
  6
CONTINUOUS
 10
3.406920
 20
6.052200
  0
VERTEX
  8
0
  6
CONTINUOUS
 10
3.409120
 20
6.804160
  0
VERTEX
  8
0
  6
CONTINUOUS
 10
3.437280
 20
6.798000
  0
VERTEX
  8
0
  6
CONTINUOUS
 10
3.435080
 20
6.046480
  0
VERTEX
  8
0
  6
CONTINUOUS
 10
3.406920
 20
6.052200
  0
SEQEND
  8
0
  0
SOLID
  8
0
 62
    15
 10
3.435080
 20
6.046480
 11
3.437280
 21
6.798000
 12
3.459720
 22
6.031080
 13
3.461480
 23
6.782600
  0
POLYLINE
  8
0
  6
CONTINUOUS
 66
     1
 40
0.000000
 41
0.000000
  0
VERTEX
  8
0
  6
CONTINUOUS
 10
3.435080
 20
6.046480
  0
VERTEX
  8
0
  6
CONTINUOUS
 10
3.437280
 20
6.798000
  0
VERTEX
  8
0
  6
CONTINUOUS
 10
3.461480
 20
6.782600
  0
VERTEX
  8
0
  6
CONTINUOUS
 10
3.459720
 20
6.031080
  0
VERTEX
  8
0
  6
CONTINUOUS
 10
3.435080
 20
6.046480
  0
SEQEND
  8
0
  0
SOLID
  8
0
 62
    15
 10
3.459720
 20
6.031080
 11
3.461480
 21
6.782600
 12
3.476880
 22
6.006000
 13
3.478640
 23
6.757960
  0
POLYLINE
  8
0
  6
CONTINUOUS
 66
     1
 40
0.000000
 41
0.000000
  0
VERTEX
  8
0
  6
CONTINUOUS
 10
3.459720
 20
6.031080
  0
VERTEX
  8
0
  6
CONTINUOUS
 10
3.461480
 20
6.782600
  0
VERTEX
  8
0
  6
CONTINUOUS
 10
3.478640
 20
6.757960
  0
VERTEX
  8
0
  6
CONTINUOUS
 10
3.476880
 20
6.006000
  0
VERTEX
  8
0
  6
CONTINUOUS
 10
3.459720
 20
6.031080
  0
SEQEND
  8
0
  0
SOLID
  8
0
 62
    15
 10
3.476880
 20
6.006000
 11
3.478640
 21
6.757960
 12
3.481720
 22
5.990160
 13
3.483480
 23
6.741680
  0
POLYLINE
  8
0
  6
CONTINUOUS
 66
     1
 40
0.000000
 41
0.000000
  0
VERTEX
  8
0
  6
CONTINUOUS
 10
3.476880
 20
6.006000
  0
VERTEX
  8
0
  6
CONTINUOUS
 10
3.478640
 20
6.757960
  0
VERTEX
  8
0
  6
CONTINUOUS
 10
3.483480
 20
6.741680
  0
VERTEX
  8
0
  6
CONTINUOUS
 10
3.481720
 20
5.990160
  0
VERTEX
  8
0
  6
CONTINUOUS
 10
3.476880
 20
6.006000
  0
SEQEND
  8
0
  0
SOLID
  8
0
 62
    15
 10
3.481720
 20
5.990160
 11
3.483480
 21
6.741680
 12
3.483040
 22
5.971680
 13
3.485240
 23
6.723200
  0
POLYLINE
  8
0
  6
CONTINUOUS
 66
     1
 40
0.000000
 41
0.000000
  0
VERTEX
  8
0
  6
CONTINUOUS
 10
3.481720
 20
5.990160
  0
VERTEX
  8
0
  6
CONTINUOUS
 10
3.483480
 20
6.741680
  0
VERTEX
  8
0
  6
CONTINUOUS
 10
3.485240
 20
6.723200
  0
VERTEX
  8
0
  6
CONTINUOUS
 10
3.483040
 20
5.971680
  0
VERTEX
  8
0
  6
CONTINUOUS
 10
3.481720
 20
5.990160
  0
SEQEND
  8
0
  0
SOLID
  8
0
 62
    15
 10
3.483040
 20
5.971680
 11
3.485240
 21
6.723200
 12
3.483040
 22
5.931200
 13
3.485240
 23
6.682720
  0
POLYLINE
  8
0
  6
CONTINUOUS
 66
     1
 40
0.000000
 41
0.000000
  0
VERTEX
  8
0
  6
CONTINUOUS
 10
3.483040
 20
5.971680
  0
VERTEX
  8
0
  6
CONTINUOUS
 10
3.485240
 20
6.723200
  0
VERTEX
  8
0
  6
CONTINUOUS
 10
3.485240
 20
6.682720
  0
VERTEX
  8
0
  6
CONTINUOUS
 10
3.483040
 20
5.931200
  0
VERTEX
  8
0
  6
CONTINUOUS
 10
3.483040
 20
5.971680
  0
SEQEND
  8
0
  0
SOLID
  8
0
 62
    15
 10
3.483040
 20
5.931200
 11
3.485240
 21
6.682720
 12
3.541120
 22
5.931200
 13
3.543320
 23
6.682720
  0
POLYLINE
  8
0
  6
CONTINUOUS
 66
     1
 40
0.000000
 41
0.000000
  0
VERTEX
  8
0
  6
CONTINUOUS
 10
3.483040
 20
5.931200
  0
VERTEX
  8
0
  6
CONTINUOUS
 10
3.485240
 20
6.682720
  0
VERTEX
  8
0
  6
CONTINUOUS
 10
3.543320
 20
6.682720
  0
VERTEX
  8
0
  6
CONTINUOUS
 10
3.541120
 20
5.931200
  0
VERTEX
  8
0
  6
CONTINUOUS
 10
3.483040
 20
5.931200
  0
SEQEND
  8
0
  0
SOLID
  8
0
 62
    15
 10
3.541120
 20
5.931200
 11
3.543320
 21
6.682720
 12
3.542880
 22
5.920200
 13
3.545080
 23
6.671720
  0
POLYLINE
  8
0
  6
CONTINUOUS
 66
     1
 40
0.000000
 41
0.000000
  0
VERTEX
  8
0
  6
CONTINUOUS
 10
3.541120
 20
5.931200
  0
VERTEX
  8
0
  6
CONTINUOUS
 10
3.543320
 20
6.682720
  0
VERTEX
  8
0
  6
CONTINUOUS
 10
3.545080
 20
6.671720
  0
VERTEX
  8
0
  6
CONTINUOUS
 10
3.542880
 20
5.920200
  0
VERTEX
  8
0
  6
CONTINUOUS
 10
3.541120
 20
5.931200
  0
SEQEND
  8
0
  0
SOLID
  8
0
 62
    15
 10
3.542880
 20
5.920200
 11
3.545080
 21
6.671720
 12
3.549040
 22
5.906560
 13
3.550800
 23
6.658080
  0
POLYLINE
  8
0
  6
CONTINUOUS
 66
     1
 40
0.000000
 41
0.000000
  0
VERTEX
  8
0
  6
CONTINUOUS
 10
3.542880
 20
5.920200
  0
VERTEX
  8
0
  6
CONTINUOUS
 10
3.545080
 20
6.671720
  0
VERTEX
  8
0
  6
CONTINUOUS
 10
3.550800
 20
6.658080
  0
VERTEX
  8
0
  6
CONTINUOUS
 10
3.549040
 20
5.906560
  0
VERTEX
  8
0
  6
CONTINUOUS
 10
3.542880
 20
5.920200
  0
SEQEND
  8
0
  0
SOLID
  8
0
 62
    15
 10
3.549040
 20
5.906560
 11
3.550800
 21
6.658080
 12
3.559600
 22
5.891600
 13
3.561360
 23
6.643120
  0
POLYLINE
  8
0
  6
CONTINUOUS
 66
     1
 40
0.000000
 41
0.000000
  0
VERTEX
  8
0
  6
CONTINUOUS
 10
3.549040
 20
5.906560
  0
VERTEX
  8
0
  6
CONTINUOUS
 10
3.550800
 20
6.658080
  0
VERTEX
  8
0
  6
CONTINUOUS
 10
3.561360
 20
6.643120
  0
VERTEX
  8
0
  6
CONTINUOUS
 10
3.559600
 20
5.891600
  0
VERTEX
  8
0
  6
CONTINUOUS
 10
3.549040
 20
5.906560
  0
SEQEND
  8
0
  0
SOLID
  8
0
 62
    15
 10
3.559600
 20
5.891600
 11
3.561360
 21
6.643120
 12
3.575440
 22
5.876640
 13
3.577200
 23
6.628160
  0
POLYLINE
  8
0
  6
CONTINUOUS
 66
     1
 40
0.000000
 41
0.000000
  0
VERTEX
  8
0
  6
CONTINUOUS
 10
3.559600
 20
5.891600
  0
VERTEX
  8
0
  6
CONTINUOUS
 10
3.561360
 20
6.643120
  0
VERTEX
  8
0
  6
CONTINUOUS
 10
3.577200
 20
6.628160
  0
VERTEX
  8
0
  6
CONTINUOUS
 10
3.575440
 20
5.876640
  0
VERTEX
  8
0
  6
CONTINUOUS
 10
3.559600
 20
5.891600
  0
SEQEND
  8
0
  0
SOLID
  8
0
 62
    15
 10
3.575440
 20
5.876640
 11
3.577200
 21
6.628160
 12
3.597000
 22
5.863000
 13
3.598760
 23
6.614520
  0
POLYLINE
  8
0
  6
CONTINUOUS
 66
     1
 40
0.000000
 41
0.000000
  0
VERTEX
  8
0
  6
CONTINUOUS
 10
3.575440
 20
5.876640
  0
VERTEX
  8
0
  6
CONTINUOUS
 10
3.577200
 20
6.628160
  0
VERTEX
  8
0
  6
CONTINUOUS
 10
3.598760
 20
6.614520
  0
VERTEX
  8
0
  6
CONTINUOUS
 10
3.597000
 20
5.863000
  0
VERTEX
  8
0
  6
CONTINUOUS
 10
3.575440
 20
5.876640
  0
SEQEND
  8
0
  0
SOLID
  8
0
 62
    15
 10
3.597000
 20
5.863000
 11
3.598760
 21
6.614520
 12
3.624720
 22
5.851560
 13
3.626920
 23
6.603520
  0
POLYLINE
  8
0
  6
CONTINUOUS
 66
     1
 40
0.000000
 41
0.000000
  0
VERTEX
  8
0
  6
CONTINUOUS
 10
3.597000
 20
5.863000
  0
VERTEX
  8
0
  6
CONTINUOUS
 10
3.598760
 20
6.614520
  0
VERTEX
  8
0
  6
CONTINUOUS
 10
3.626920
 20
6.603520
  0
VERTEX
  8
0
  6
CONTINUOUS
 10
3.624720
 20
5.851560
  0
VERTEX
  8
0
  6
CONTINUOUS
 10
3.597000
 20
5.863000
  0
SEQEND
  8
0
  0
SOLID
  8
0
 62
    15
 10
3.624720
 20
5.851560
 11
3.626920
 21
6.603520
 12
3.659480
 22
5.844080
 13
3.661680
 23
6.595600
  0
POLYLINE
  8
0
  6
CONTINUOUS
 66
     1
 40
0.000000
 41
0.000000
  0
VERTEX
  8
0
  6
CONTINUOUS
 10
3.624720
 20
5.851560
  0
VERTEX
  8
0
  6
CONTINUOUS
 10
3.626920
 20
6.603520
  0
VERTEX
  8
0
  6
CONTINUOUS
 10
3.661680
 20
6.595600
  0
VERTEX
  8
0
  6
CONTINUOUS
 10
3.659480
 20
5.844080
  0
VERTEX
  8
0
  6
CONTINUOUS
 10
3.624720
 20
5.851560
  0
SEQEND
  8
0
  0
SOLID
  8
0
 62
    15
 10
3.659480
 20
5.844080
 11
3.661680
 21
6.595600
 12
3.702160
 22
5.841000
 13
3.703920
 23
6.592960
  0
POLYLINE
  8
0
  6
CONTINUOUS
 66
     1
 40
0.000000
 41
0.000000
  0
VERTEX
  8
0
  6
CONTINUOUS
 10
3.659480
 20
5.844080
  0
VERTEX
  8
0
  6
CONTINUOUS
 10
3.661680
 20
6.595600
  0
VERTEX
  8
0
  6
CONTINUOUS
 10
3.703920
 20
6.592960
  0
VERTEX
  8
0
  6
CONTINUOUS
 10
3.702160
 20
5.841000
  0
VERTEX
  8
0
  6
CONTINUOUS
 10
3.659480
 20
5.844080
  0
SEQEND
  8
0
  0
SOLID
  8
0
 62
    15
 10
3.702160
 20
5.841000
 11
3.703920
 21
6.592960
 12
3.702160
 22
5.796120
 13
3.703920
 23
6.547640
  0
POLYLINE
  8
0
  6
CONTINUOUS
 66
     1
 40
0.000000
 41
0.000000
  0
VERTEX
  8
0
  6
CONTINUOUS
 10
3.702160
 20
5.841000
  0
VERTEX
  8
0
  6
CONTINUOUS
 10
3.703920
 20
6.592960
  0
VERTEX
  8
0
  6
CONTINUOUS
 10
3.703920
 20
6.547640
  0
VERTEX
  8
0
  6
CONTINUOUS
 10
3.702160
 20
5.796120
  0
VERTEX
  8
0
  6
CONTINUOUS
 10
3.702160
 20
5.841000
  0
SEQEND
  8
0
  0
SOLID
  8
0
 62
    15
 10
5.293200
 20
5.683040
 11
5.295400
 21
6.435000
 12
5.327080
 22
5.681280
 13
5.329280
 23
6.432800
  0
POLYLINE
  8
0
  6
CONTINUOUS
 66
     1
 40
0.000000
 41
0.000000
  0
VERTEX
  8
0
  6
CONTINUOUS
 10
5.293200
 20
5.683040
  0
VERTEX
  8
0
  6
CONTINUOUS
 10
5.295400
 20
6.435000
  0
VERTEX
  8
0
  6
CONTINUOUS
 10
5.329280
 20
6.432800
  0
VERTEX
  8
0
  6
CONTINUOUS
 10
5.327080
 20
5.681280
  0
VERTEX
  8
0
  6
CONTINUOUS
 10
5.293200
 20
5.683040
  0
SEQEND
  8
0
  0
SOLID
  8
0
 62
    15
 10
5.293200
 20
5.737600
 11
5.295400
 21
6.489120
 12
5.293200
 22
5.683040
 13
5.295400
 23
6.435000
  0
POLYLINE
  8
0
  6
CONTINUOUS
 66
     1
 40
0.000000
 41
0.000000
  0
VERTEX
  8
0
  6
CONTINUOUS
 10
5.293200
 20
5.737600
  0
VERTEX
  8
0
  6
CONTINUOUS
 10
5.295400
 20
6.489120
  0
VERTEX
  8
0
  6
CONTINUOUS
 10
5.295400
 20
6.435000
  0
VERTEX
  8
0
  6
CONTINUOUS
 10
5.293200
 20
5.683040
  0
VERTEX
  8
0
  6
CONTINUOUS
 10
5.293200
 20
5.737600
  0
SEQEND
  8
0
  0
SOLID
  8
0
 62
    15
 10
4.542120
 20
5.737600
 11
4.543880
 21
6.489120
 12
5.293200
 22
5.737600
 13
5.295400
 23
6.489120
  0
POLYLINE
  8
0
  6
CONTINUOUS
 66
     1
 40
0.000000
 41
0.000000
  0
VERTEX
  8
0
  6
CONTINUOUS
 10
4.542120
 20
5.737600
  0
VERTEX
  8
0
  6
CONTINUOUS
 10
4.543880
 20
6.489120
  0
VERTEX
  8
0
  6
CONTINUOUS
 10
5.295400
 20
6.489120
  0
VERTEX
  8
0
  6
CONTINUOUS
 10
5.293200
 20
5.737600
  0
VERTEX
  8
0
  6
CONTINUOUS
 10
4.542120
 20
5.737600
  0
SEQEND
  8
0
  0
SOLID
  8
0
 62
    15
 10
4.542120
 20
5.796120
 11
4.543880
 21
6.547640
 12
4.542120
 22
5.737600
 13
4.543880
 23
6.489120
  0
POLYLINE
  8
0
  6
CONTINUOUS
 66
     1
 40
0.000000
 41
0.000000
  0
VERTEX
  8
0
  6
CONTINUOUS
 10
4.542120
 20
5.796120
  0
VERTEX
  8
0
  6
CONTINUOUS
 10
4.543880
 20
6.547640
  0
VERTEX
  8
0
  6
CONTINUOUS
 10
4.543880
 20
6.489120
  0
VERTEX
  8
0
  6
CONTINUOUS
 10
4.542120
 20
5.737600
  0
VERTEX
  8
0
  6
CONTINUOUS
 10
4.542120
 20
5.796120
  0
SEQEND
  8
0
  0
SOLID
  8
0
 62
    15
 10
3.702160
 20
5.796120
 11
3.703920
 21
6.547640
 12
4.542120
 22
5.796120
 13
4.543880
 23
6.547640
  0
POLYLINE
  8
0
  6
CONTINUOUS
 66
     1
 40
0.000000
 41
0.000000
  0
VERTEX
  8
0
  6
CONTINUOUS
 10
3.702160
 20
5.796120
  0
VERTEX
  8
0
  6
CONTINUOUS
 10
3.703920
 20
6.547640
  0
VERTEX
  8
0
  6
CONTINUOUS
 10
4.543880
 20
6.547640
  0
VERTEX
  8
0
  6
CONTINUOUS
 10
4.542120
 20
5.796120
  0
VERTEX
  8
0
  6
CONTINUOUS
 10
3.702160
 20
5.796120
  0
SEQEND
  8
0
  0
SOLID
  8
0
 62
    15
 10
5.327080
 20
5.681280
 11
5.329280
 21
6.432800
 12
5.357000
 22
5.675120
 13
5.358760
 23
6.426640
  0
POLYLINE
  8
0
  6
CONTINUOUS
 66
     1
 40
0.000000
 41
0.000000
  0
VERTEX
  8
0
  6
CONTINUOUS
 10
5.327080
 20
5.681280
  0
VERTEX
  8
0
  6
CONTINUOUS
 10
5.329280
 20
6.432800
  0
VERTEX
  8
0
  6
CONTINUOUS
 10
5.358760
 20
6.426640
  0
VERTEX
  8
0
  6
CONTINUOUS
 10
5.357000
 20
5.675120
  0
VERTEX
  8
0
  6
CONTINUOUS
 10
5.327080
 20
5.681280
  0
SEQEND
  8
0
  0
SOLID
  8
0
 62
    15
 10
5.357000
 20
5.675120
 11
5.358760
 21
6.426640
 12
5.382960
 22
5.665880
 13
5.385160
 23
6.417840
  0
POLYLINE
  8
0
  6
CONTINUOUS
 66
     1
 40
0.000000
 41
0.000000
  0
VERTEX
  8
0
  6
CONTINUOUS
 10
5.357000
 20
5.675120
  0
VERTEX
  8
0
  6
CONTINUOUS
 10
5.358760
 20
6.426640
  0
VERTEX
  8
0
  6
CONTINUOUS
 10
5.385160
 20
6.417840
  0
VERTEX
  8
0
  6
CONTINUOUS
 10
5.382960
 20
5.665880
  0
VERTEX
  8
0
  6
CONTINUOUS
 10
5.357000
 20
5.675120
  0
SEQEND
  8
0
  0
SOLID
  8
0
 62
    15
 10
5.382960
 20
5.665880
 11
5.385160
 21
6.417840
 12
5.406280
 22
5.654000
 13
5.408040
 23
6.405520
  0
POLYLINE
  8
0
  6
CONTINUOUS
 66
     1
 40
0.000000
 41
0.000000
  0
VERTEX
  8
0
  6
CONTINUOUS
 10
5.382960
 20
5.665880
  0
VERTEX
  8
0
  6
CONTINUOUS
 10
5.385160
 20
6.417840
  0
VERTEX
  8
0
  6
CONTINUOUS
 10
5.408040
 20
6.405520
  0
VERTEX
  8
0
  6
CONTINUOUS
 10
5.406280
 20
5.654000
  0
VERTEX
  8
0
  6
CONTINUOUS
 10
5.382960
 20
5.665880
  0
SEQEND
  8
0
  0
SOLID
  8
0
 62
    15
 10
5.406280
 20
5.654000
 11
5.408040
 21
6.405520
 12
5.445880
 22
5.624080
 13
5.447640
 23
6.375600
  0
POLYLINE
  8
0
  6
CONTINUOUS
 66
     1
 40
0.000000
 41
0.000000
  0
VERTEX
  8
0
  6
CONTINUOUS
 10
5.406280
 20
5.654000
  0
VERTEX
  8
0
  6
CONTINUOUS
 10
5.408040
 20
6.405520
  0
VERTEX
  8
0
  6
CONTINUOUS
 10
5.447640
 20
6.375600
  0
VERTEX
  8
0
  6
CONTINUOUS
 10
5.445880
 20
5.624080
  0
VERTEX
  8
0
  6
CONTINUOUS
 10
5.406280
 20
5.654000
  0
SEQEND
  8
0
  0
SOLID
  8
0
 62
    15
 10
5.445880
 20
5.624080
 11
5.447640
 21
6.375600
 12
5.481080
 22
5.589760
 13
5.482840
 23
6.341280
  0
POLYLINE
  8
0
  6
CONTINUOUS
 66
     1
 40
0.000000
 41
0.000000
  0
VERTEX
  8
0
  6
CONTINUOUS
 10
5.445880
 20
5.624080
  0
VERTEX
  8
0
  6
CONTINUOUS
 10
5.447640
 20
6.375600
  0
VERTEX
  8
0
  6
CONTINUOUS
 10
5.482840
 20
6.341280
  0
VERTEX
  8
0
  6
CONTINUOUS
 10
5.481080
 20
5.589760
  0
VERTEX
  8
0
  6
CONTINUOUS
 10
5.445880
 20
5.624080
  0
SEQEND
  8
0
  0
SOLID
  8
0
 62
    15
 10
5.481080
 20
5.589760
 11
5.482840
 21
6.341280
 12
5.516720
 22
5.555440
 13
5.518480
 23
6.307400
  0
POLYLINE
  8
0
  6
CONTINUOUS
 66
     1
 40
0.000000
 41
0.000000
  0
VERTEX
  8
0
  6
CONTINUOUS
 10
5.481080
 20
5.589760
  0
VERTEX
  8
0
  6
CONTINUOUS
 10
5.482840
 20
6.341280
  0
VERTEX
  8
0
  6
CONTINUOUS
 10
5.518480
 20
6.307400
  0
VERTEX
  8
0
  6
CONTINUOUS
 10
5.516720
 20
5.555440
  0
VERTEX
  8
0
  6
CONTINUOUS
 10
5.481080
 20
5.589760
  0
SEQEND
  8
0
  0
SOLID
  8
0
 62
    15
 10
5.516720
 20
5.555440
 11
5.518480
 21
6.307400
 12
5.557640
 22
5.525520
 13
5.559840
 23
6.277480
  0
POLYLINE
  8
0
  6
CONTINUOUS
 66
     1
 40
0.000000
 41
0.000000
  0
VERTEX
  8
0
  6
CONTINUOUS
 10
5.516720
 20
5.555440
  0
VERTEX
  8
0
  6
CONTINUOUS
 10
5.518480
 20
6.307400
  0
VERTEX
  8
0
  6
CONTINUOUS
 10
5.559840
 20
6.277480
  0
VERTEX
  8
0
  6
CONTINUOUS
 10
5.557640
 20
5.525520
  0
VERTEX
  8
0
  6
CONTINUOUS
 10
5.516720
 20
5.555440
  0
SEQEND
  8
0
  0
SOLID
  8
0
 62
    15
 10
5.557640
 20
5.525520
 11
5.559840
 21
6.277480
 12
5.581840
 22
5.513640
 13
5.584040
 23
6.265600
  0
POLYLINE
  8
0
  6
CONTINUOUS
 66
     1
 40
0.000000
 41
0.000000
  0
VERTEX
  8
0
  6
CONTINUOUS
 10
5.557640
 20
5.525520
  0
VERTEX
  8
0
  6
CONTINUOUS
 10
5.559840
 20
6.277480
  0
VERTEX
  8
0
  6
CONTINUOUS
 10
5.584040
 20
6.265600
  0
VERTEX
  8
0
  6
CONTINUOUS
 10
5.581840
 20
5.513640
  0
VERTEX
  8
0
  6
CONTINUOUS
 10
5.557640
 20
5.525520
  0
SEQEND
  8
0
  0
SOLID
  8
0
 62
    15
 10
5.581840
 20
5.513640
 11
5.584040
 21
6.265600
 12
5.609560
 22
5.504400
 13
5.611320
 23
6.256360
  0
POLYLINE
  8
0
  6
CONTINUOUS
 66
     1
 40
0.000000
 41
0.000000
  0
VERTEX
  8
0
  6
CONTINUOUS
 10
5.581840
 20
5.513640
  0
VERTEX
  8
0
  6
CONTINUOUS
 10
5.584040
 20
6.265600
  0
VERTEX
  8
0
  6
CONTINUOUS
 10
5.611320
 20
6.256360
  0
VERTEX
  8
0
  6
CONTINUOUS
 10
5.609560
 20
5.504400
  0
VERTEX
  8
0
  6
CONTINUOUS
 10
5.581840
 20
5.513640
  0
SEQEND
  8
0
  0
SOLID
  8
0
 62
    15
 10
5.609560
 20
5.504400
 11
5.611320
 21
6.256360
 12
5.640800
 22
5.498680
 13
5.642560
 23
6.250200
  0
POLYLINE
  8
0
  6
CONTINUOUS
 66
     1
 40
0.000000
 41
0.000000
  0
VERTEX
  8
0
  6
CONTINUOUS
 10
5.609560
 20
5.504400
  0
VERTEX
  8
0
  6
CONTINUOUS
 10
5.611320
 20
6.256360
  0
VERTEX
  8
0
  6
CONTINUOUS
 10
5.642560
 20
6.250200
  0
VERTEX
  8
0
  6
CONTINUOUS
 10
5.640800
 20
5.498680
  0
VERTEX
  8
0
  6
CONTINUOUS
 10
5.609560
 20
5.504400
  0
SEQEND
  8
0
  0
SOLID
  8
0
 62
    15
 10
5.640800
 20
5.498680
 11
5.642560
 21
6.250200
 12
5.676440
 22
5.496480
 13
5.678640
 23
6.248000
  0
POLYLINE
  8
0
  6
CONTINUOUS
 66
     1
 40
0.000000
 41
0.000000
  0
VERTEX
  8
0
  6
CONTINUOUS
 10
5.640800
 20
5.498680
  0
VERTEX
  8
0
  6
CONTINUOUS
 10
5.642560
 20
6.250200
  0
VERTEX
  8
0
  6
CONTINUOUS
 10
5.678640
 20
6.248000
  0
VERTEX
  8
0
  6
CONTINUOUS
 10
5.676440
 20
5.496480
  0
VERTEX
  8
0
  6
CONTINUOUS
 10
5.640800
 20
5.498680
  0
SEQEND
  8
0
  0
POLYLINE
  8
0
  6
CONTINUOUS
 66
     1
 40
0.000000
 41
0.000000
  0
VERTEX
  8
0
  6
CONTINUOUS
 10
5.676000
 20
5.496480
  0
VERTEX
  8
0
  6
CONTINUOUS
 10
5.676000
 20
5.352600
  0
VERTEX
  8
0
  6
CONTINUOUS
 10
2.427040
 20
5.352600
  0
VERTEX
  8
0
  6
CONTINUOUS
 10
2.427040
 20
6.162640
  0
VERTEX
  8
0
  6
CONTINUOUS
 10
2.724040
 20
6.162640
  0
VERTEX
  8
0
  6
CONTINUOUS
 10
2.724040
 20
6.095760
  0
VERTEX
  8
0
  6
CONTINUOUS
 10
2.793120
 20
6.095760
  0
VERTEX
  8
0
  6
CONTINUOUS
 10
2.805440
 20
6.119960
  0
VERTEX
  8
0
  6
CONTINUOUS
 10
2.822160
 20
6.138880
  0
VERTEX
  8
0
  6
CONTINUOUS
 10
2.843280
 20
6.152520
  0
VERTEX
  8
0
  6
CONTINUOUS
 10
2.869240
 20
6.159120
  0
VERTEX
  8
0
  6
CONTINUOUS
 10
2.900480
 20
6.158240
  0
VERTEX
  8
0
  6
CONTINUOUS
 10
2.936560
 20
6.149000
  0
VERTEX
  8
0
  6
CONTINUOUS
 10
2.977920
 20
6.130080
  0
VERTEX
  8
0
  6
CONTINUOUS
 10
3.073840
 20
6.071120
  0
VERTEX
  8
0
  6
CONTINUOUS
 10
3.118280
 20
6.050440
  0
VERTEX
  8
0
  6
CONTINUOUS
 10
3.158320
 20
6.036360
  0
VERTEX
  8
0
  6
CONTINUOUS
 10
3.193520
 20
6.028440
  0
VERTEX
  8
0
  6
CONTINUOUS
 10
3.223440
 20
6.024480
  0
VERTEX
  8
0
  6
CONTINUOUS
 10
3.266560
 20
6.024480
  0
VERTEX
  8
0
  6
CONTINUOUS
 10
3.279320
 20
6.025360
  0
VERTEX
  8
0
  6
CONTINUOUS
 10
3.290320
 20
6.023160
  0
VERTEX
  8
0
  6
CONTINUOUS
 10
3.293840
 20
6.015680
  0
VERTEX
  8
0
  6
CONTINUOUS
 10
3.299560
 20
5.987080
  0
VERTEX
  8
0
  6
CONTINUOUS
 10
3.329920
 20
5.987080
  0
VERTEX
  8
0
  6
CONTINUOUS
 10
3.331680
 20
6.002920
  0
VERTEX
  8
0
  6
CONTINUOUS
 10
3.336520
 20
6.016560
  0
VERTEX
  8
0
  6
CONTINUOUS
 10
3.354120
 20
6.037240
  0
VERTEX
  8
0
  6
CONTINUOUS
 10
3.378760
 20
6.049120
  0
VERTEX
  8
0
  6
CONTINUOUS
 10
3.406920
 20
6.052200
  0
VERTEX
  8
0
  6
CONTINUOUS
 10
3.435080
 20
6.046480
  0
VERTEX
  8
0
  6
CONTINUOUS
 10
3.459720
 20
6.031080
  0
VERTEX
  8
0
  6
CONTINUOUS
 10
3.476880
 20
6.006000
  0
VERTEX
  8
0
  6
CONTINUOUS
 10
3.481720
 20
5.990160
  0
VERTEX
  8
0
  6
CONTINUOUS
 10
3.483040
 20
5.971680
  0
VERTEX
  8
0
  6
CONTINUOUS
 10
3.483040
 20
5.931200
  0
VERTEX
  8
0
  6
CONTINUOUS
 10
3.541120
 20
5.931200
  0
VERTEX
  8
0
  6
CONTINUOUS
 10
3.542880
 20
5.920200
  0
VERTEX
  8
0
  6
CONTINUOUS
 10
3.549040
 20
5.906560
  0
VERTEX
  8
0
  6
CONTINUOUS
 10
3.559600
 20
5.891600
  0
VERTEX
  8
0
  6
CONTINUOUS
 10
3.575440
 20
5.876640
  0
VERTEX
  8
0
  6
CONTINUOUS
 10
3.597000
 20
5.863000
  0
VERTEX
  8
0
  6
CONTINUOUS
 10
3.624720
 20
5.851560
  0
VERTEX
  8
0
  6
CONTINUOUS
 10
3.659480
 20
5.844080
  0
VERTEX
  8
0
  6
CONTINUOUS
 10
3.702160
 20
5.841000
  0
VERTEX
  8
0
  6
CONTINUOUS
 10
3.702160
 20
5.796120
  0
VERTEX
  8
0
  6
CONTINUOUS
 10
4.542120
 20
5.796120
  0
VERTEX
  8
0
  6
CONTINUOUS
 10
4.542120
 20
5.737600
  0
VERTEX
  8
0
  6
CONTINUOUS
 10
5.293200
 20
5.737600
  0
VERTEX
  8
0
  6
CONTINUOUS
 10
5.293200
 20
5.683040
  0
VERTEX
  8
0
  6
CONTINUOUS
 10
5.327080
 20
5.681280
  0
VERTEX
  8
0
  6
CONTINUOUS
 10
5.357000
 20
5.675120
  0
VERTEX
  8
0
  6
CONTINUOUS
 10
5.382960
 20
5.665880
  0
VERTEX
  8
0
  6
CONTINUOUS
 10
5.406280
 20
5.654000
  0
VERTEX
  8
0
  6
CONTINUOUS
 10
5.445880
 20
5.624080
  0
VERTEX
  8
0
  6
CONTINUOUS
 10
5.516720
 20
5.555440
  0
VERTEX
  8
0
  6
CONTINUOUS
 10
5.557640
 20
5.525520
  0
VERTEX
  8
0
  6
CONTINUOUS
 10
5.581840
 20
5.513640
  0
VERTEX
  8
0
  6
CONTINUOUS
 10
5.609560
 20
5.504400
  0
VERTEX
  8
0
  6
CONTINUOUS
 10
5.640800
 20
5.498680
  0
VERTEX
  8
0
  6
CONTINUOUS
 10
5.676440
 20
5.496480
  0
VERTEX
  8
0
  6
CONTINUOUS
 10
5.676000
 20
5.496480
  0
SEQEND
  8
0
  0
TEXT
  8
0
 10
3.713160
 20
5.067480
 40
0.138218
  1
BA  1348
 41
1.000000
  7
SN0
 71
     0
 72
     5
 11
4.396042
 21
5.067480
  0
TEXT
  8
0
 10
3.511200
 20
4.876080
 40
0.138218
  1
13/16" x 3-1/4"
 41
1.000000
  7
SN0
 71
     0
 72
     5
 11
4.596991
 21
4.876080
  0
TEXT
  8
0
 10
5.236000
 20
4.814480
 40
0.114417
  1
Similar to 1019
 41
1.000000
  7
SN1
 71
     0
 72
     5
 11
6.151618
 21
4.814480
  0
ENDSEC
  0
EOF
