  0
SECTION
  2
HEADER
  9
$ACADVER
  1
AC1006
  9
$EXTMIN
 10
2.143680
 20
2.735480
  9
$EXTMAX
 10
6.067600
 20
8.866440
  9
$LTSCALE
 40
0.044000
  9
$PDMODE
 70
    35
  9
$PDSIZE
 40
0.035200
  0
ENDSEC
  0
SECTION
  2
TABLES
  0
TABLE
  2
LTYPE
 70
     9
  0
LTYPE
  2
CONTINUOUS
 70
    64
  3
Solid line
 72
    65
 73
     0
 40
0.000000
  0
LTYPE
  2
DASHED
 70
    64
  3
__ __ __ __ __ __ __ __ __ __ __ __ __ __ __
 72
    65
 73
     2
 40
0.000330
 49
0.000220
 49
-0.000110
  0
LTYPE
  2
HIDDEN
 70
    64
  3
 _ _ _ _ _ _ _ _ _ _ _ _ _ _ _ _ _ _ _ _ _ _
 72
    65
 73
     2
 40
0.000165
 49
0.000110
 49
-0.000055
  0
LTYPE
  2
CENTER
 70
    64
  3
____ _ ____ _ ____ _ ____ _ ____ _ ____ _ ____
 72
    65
 73
     4
 40
0.000880
 49
0.000550
 49
-0.000110
 49
0.000110
 49
-0.000110
  0
LTYPE
  2
PHANTOM
 70
    64
  3
_____ _ _ _____ _ _ _____ _ _ _____ _ _ ____
 72
    65
 73
     6
 40
0.001100
 49
0.000550
 49
-0.000110
 49
0.000110
 49
-0.000110
 49
0.000110
 49
-0.000110
  0
LTYPE
  2
DOT
 70
    64
  3
...............................................
 72
    65
 73
     2
 40
0.000110
 49
0.000000
 49
-0.000110
  0
LTYPE
  2
DASHDOT
 70
    64
  3
__ . __ . __ . __ . __ . __ . __ . __ . __ . __
 72
    65
 73
     4
 40
0.000440
 49
0.000220
 49
-0.000110
 49
0.000000
 49
-0.000110
  0
LTYPE
  2
BORDER
 70
    64
  3
__ __ . __ __ . __ __ . __ __ . __ __ . __ __
 72
    65
 73
     6
 40
0.000770
 49
0.000220
 49
-0.000110
 49
0.000220
 49
-0.000110
 49
0.000000
 49
-0.000110
  0
LTYPE
  2
DIVIDE
 70
    64
  3
__ . . __ . . __ . . __ . . __ . . __ . . __
 72
    65
 73
     6
 40
0.000550
 49
0.000220
 49
-0.000110
 49
0.000000
 49
-0.000110
 49
0.000000
 49
-0.000110
  0
LTYPE
  2
DOTDOT
 70
    64
  3
 . .  . .  . .  . .  . .  . . 
 72
    65
 73
     5
 40
0.000242
 49
-0.000110
 49
0.000000
 49
-0.000110
 49
0.000000
 49
-0.000110
  0
ENDTAB
  0
TABLE
  2
STYLE
 70
     2
  0
STYLE
 70
     0
  2
SN0
 40
0.000000
 41
0.000440
 50
0.000000
 71
     0
 42
0.000000
  3
ROMAND
  0
STYLE
 70
    68
  2
SV0
 40
0.000000
 41
0.000440
 50
0.000000
 71
     0
 42
0.000000
  3
ROMAND
  0
ENDTAB
  0
TABLE
  2
LAYER
 70
     3
  0
LAYER
  2
FOREGROUND
 70
    64
 62
     7
  6
CONTINUOUS
  0
LAYER
  2
BACKGROUND
 70
    65
 62
    -7
  6
CONTINUOUS
  0
LAYER
  2
0
 70
    64
 62
     7
  6
CONTINUOUS
  0
ENDTAB
  0
ENDSEC
  0
SECTION
  2
ENTITIES
  0
POLYLINE
  8
FOREGROUND
  6
CONTINUOUS
 66
     1
 40
0.000000
 41
0.000000
  0
VERTEX
  8
FOREGROUND
  6
CONTINUOUS
 10
0.000000
 20
11.601920
  0
VERTEX
  8
FOREGROUND
  6
CONTINUOUS
 10
8.499920
 20
11.601920
  0
VERTEX
  8
FOREGROUND
  6
CONTINUOUS
 10
8.499920
 20
0.601920
  0
VERTEX
  8
FOREGROUND
  6
CONTINUOUS
 10
0.000000
 20
0.601920
  0
VERTEX
  8
FOREGROUND
  6
CONTINUOUS
 10
0.000000
 20
11.601920
  0
SEQEND
  8
0
  0
POLYLINE
  8
FOREGROUND
  6
CONTINUOUS
 66
     1
 40
0.000000
 41
0.000000
  0
VERTEX
  8
FOREGROUND
  6
CONTINUOUS
 10
0.000000
 20
11.601920
  0
VERTEX
  8
FOREGROUND
  6
CONTINUOUS
 10
8.499920
 20
11.601920
  0
VERTEX
  8
FOREGROUND
  6
CONTINUOUS
 10
8.499920
 20
0.601920
  0
VERTEX
  8
FOREGROUND
  6
CONTINUOUS
 10
0.000000
 20
0.601920
  0
VERTEX
  8
FOREGROUND
  6
CONTINUOUS
 10
0.000000
 20
11.601920
  0
SEQEND
  8
0
  0
POLYLINE
  8
0
  6
CONTINUOUS
 66
     1
 40
0.014080
 41
0.014080
  0
VERTEX
  8
0
  6
CONTINUOUS
 10
5.957600
 20
7.993480
  0
VERTEX
  8
0
  6
CONTINUOUS
 10
2.181520
 20
7.993480
  0
VERTEX
  8
0
  6
CONTINUOUS
 10
2.181520
 20
8.858960
  0
VERTEX
  8
0
  6
CONTINUOUS
 10
3.331680
 20
8.858960
  0
VERTEX
  8
0
  6
CONTINUOUS
 10
3.366000
 20
8.707160
  0
VERTEX
  8
0
  6
CONTINUOUS
 10
3.589520
 20
8.656120
  0
VERTEX
  8
0
  6
CONTINUOUS
 10
3.617680
 20
8.699680
  0
VERTEX
  8
0
  6
CONTINUOUS
 10
3.659480
 20
8.752040
  0
VERTEX
  8
0
  6
CONTINUOUS
 10
3.687640
 20
8.779320
  0
VERTEX
  8
0
  6
CONTINUOUS
 10
3.714920
 20
8.800880
  0
VERTEX
  8
0
  6
CONTINUOUS
 10
3.742640
 20
8.816720
  0
VERTEX
  8
0
  6
CONTINUOUS
 10
3.769920
 20
8.827720
  0
VERTEX
  8
0
  6
CONTINUOUS
 10
3.797640
 20
8.834320
  0
VERTEX
  8
0
  6
CONTINUOUS
 10
3.824480
 20
8.836520
  0
VERTEX
  8
0
  6
CONTINUOUS
 10
3.838120
 20
8.836520
  0
VERTEX
  8
0
  6
CONTINUOUS
 10
3.878600
 20
8.830360
  0
VERTEX
  8
0
  6
CONTINUOUS
 10
3.919080
 20
8.817160
  0
VERTEX
  8
0
  6
CONTINUOUS
 10
3.972760
 20
8.791640
  0
VERTEX
  8
0
  6
CONTINUOUS
 10
4.033040
 20
8.755120
  0
VERTEX
  8
0
  6
CONTINUOUS
 10
4.213440
 20
8.641160
  0
VERTEX
  8
0
  6
CONTINUOUS
 10
4.389880
 20
8.536000
  0
VERTEX
  8
0
  6
CONTINUOUS
 10
4.507800
 20
8.470000
  0
VERTEX
  8
0
  6
CONTINUOUS
 10
4.669280
 20
8.386400
  0
VERTEX
  8
0
  6
CONTINUOUS
 10
4.788520
 20
8.331840
  0
VERTEX
  8
0
  6
CONTINUOUS
 10
4.864640
 20
8.301040
  0
VERTEX
  8
0
  6
CONTINUOUS
 10
4.936800
 20
8.276400
  0
VERTEX
  8
0
  6
CONTINUOUS
 10
5.003240
 20
8.258800
  0
VERTEX
  8
0
  6
CONTINUOUS
 10
5.033600
 20
8.252640
  0
VERTEX
  8
0
  6
CONTINUOUS
 10
5.076280
 20
8.248240
  0
VERTEX
  8
0
  6
CONTINUOUS
 10
5.118960
 20
8.246480
  0
VERTEX
  8
0
  6
CONTINUOUS
 10
5.149760
 20
8.247800
  0
VERTEX
  8
0
  6
CONTINUOUS
 10
5.211360
 20
8.257040
  0
VERTEX
  8
0
  6
CONTINUOUS
 10
5.272080
 20
8.272880
  0
VERTEX
  8
0
  6
CONTINUOUS
 10
5.328400
 20
8.291800
  0
VERTEX
  8
0
  6
CONTINUOUS
 10
5.408040
 20
8.325240
  0
VERTEX
  8
0
  6
CONTINUOUS
 10
5.451160
 20
8.346800
  0
VERTEX
  8
0
  6
CONTINUOUS
 10
5.664560
 20
8.346800
  0
VERTEX
  8
0
  6
CONTINUOUS
 10
5.676000
 20
8.321280
  0
VERTEX
  8
0
  6
CONTINUOUS
 10
5.689200
 20
8.297080
  0
VERTEX
  8
0
  6
CONTINUOUS
 10
5.704160
 20
8.274640
  0
VERTEX
  8
0
  6
CONTINUOUS
 10
5.720440
 20
8.253960
  0
VERTEX
  8
0
  6
CONTINUOUS
 10
5.757400
 20
8.217000
  0
VERTEX
  8
0
  6
CONTINUOUS
 10
5.797440
 20
8.187080
  0
VERTEX
  8
0
  6
CONTINUOUS
 10
5.839240
 20
8.163760
  0
VERTEX
  8
0
  6
CONTINUOUS
 10
5.881040
 20
8.147040
  0
VERTEX
  8
0
  6
CONTINUOUS
 10
5.921080
 20
8.137360
  0
VERTEX
  8
0
  6
CONTINUOUS
 10
5.940000
 20
8.134720
  0
VERTEX
  8
0
  6
CONTINUOUS
 10
5.957600
 20
8.133840
  0
VERTEX
  8
0
  6
CONTINUOUS
 10
5.957600
 20
7.996560
  0
SEQEND
  8
0
  0
POLYLINE
  8
0
  6
CONTINUOUS
 66
     1
 40
0.000000
 41
0.000000
  0
VERTEX
  8
0
  6
CONTINUOUS
 10
2.291080
 20
2.735480
  0
VERTEX
  8
0
  6
CONTINUOUS
 10
6.067600
 20
2.735480
  0
VERTEX
  8
0
  6
CONTINUOUS
 10
6.067600
 20
3.600960
  0
VERTEX
  8
0
  6
CONTINUOUS
 10
4.917000
 20
3.600960
  0
VERTEX
  8
0
  6
CONTINUOUS
 10
4.883120
 20
3.449160
  0
VERTEX
  8
0
  6
CONTINUOUS
 10
4.659600
 20
3.398120
  0
VERTEX
  8
0
  6
CONTINUOUS
 10
4.631440
 20
3.441680
  0
VERTEX
  8
0
  6
CONTINUOUS
 10
4.603280
 20
3.478200
  0
VERTEX
  8
0
  6
CONTINUOUS
 10
4.561480
 20
3.521320
  0
VERTEX
  8
0
  6
CONTINUOUS
 10
4.520120
 20
3.551240
  0
VERTEX
  8
0
  6
CONTINUOUS
 10
4.492400
 20
3.564880
  0
VERTEX
  8
0
  6
CONTINUOUS
 10
4.465120
 20
3.573240
  0
VERTEX
  8
0
  6
CONTINUOUS
 10
4.437840
 20
3.577640
  0
VERTEX
  8
0
  6
CONTINUOUS
 10
4.410560
 20
3.578080
  0
VERTEX
  8
0
  6
CONTINUOUS
 10
4.370080
 20
3.571920
  0
VERTEX
  8
0
  6
CONTINUOUS
 10
4.343240
 20
3.564000
  0
VERTEX
  8
0
  6
CONTINUOUS
 10
4.303200
 20
3.547280
  0
VERTEX
  8
0
  6
CONTINUOUS
 10
4.249520
 20
3.518240
  0
VERTEX
  8
0
  6
CONTINUOUS
 10
4.035680
 20
3.383160
  0
VERTEX
  8
0
  6
CONTINUOUS
 10
3.858800
 20
3.278000
  0
VERTEX
  8
0
  6
CONTINUOUS
 10
3.741320
 20
3.212000
  0
VERTEX
  8
0
  6
CONTINUOUS
 10
3.619880
 20
3.148200
  0
VERTEX
  8
0
  6
CONTINUOUS
 10
3.499320
 20
3.090560
  0
VERTEX
  8
0
  6
CONTINUOUS
 10
3.384040
 20
3.042600
  0
VERTEX
  8
0
  6
CONTINUOUS
 10
3.312320
 20
3.017960
  0
VERTEX
  8
0
  6
CONTINUOUS
 10
3.245880
 20
3.000360
  0
VERTEX
  8
0
  6
CONTINUOUS
 10
3.186480
 20
2.990680
  0
VERTEX
  8
0
  6
CONTINUOUS
 10
3.129720
 20
2.988040
  0
VERTEX
  8
0
  6
CONTINUOUS
 10
3.099360
 20
2.989800
  0
VERTEX
  8
0
  6
CONTINUOUS
 10
3.068560
 20
2.993320
  0
VERTEX
  8
0
  6
CONTINUOUS
 10
3.006520
 20
3.006080
  0
VERTEX
  8
0
  6
CONTINUOUS
 10
2.947560
 20
3.024120
  0
VERTEX
  8
0
  6
CONTINUOUS
 10
2.871000
 20
3.053600
  0
VERTEX
  8
0
  6
CONTINUOUS
 10
2.797520
 20
3.088800
  0
VERTEX
  8
0
  6
CONTINUOUS
 10
2.584120
 20
3.088800
  0
VERTEX
  8
0
  6
CONTINUOUS
 10
2.572680
 20
3.062840
  0
VERTEX
  8
0
  6
CONTINUOUS
 10
2.559480
 20
3.039080
  0
VERTEX
  8
0
  6
CONTINUOUS
 10
2.544520
 20
3.016640
  0
VERTEX
  8
0
  6
CONTINUOUS
 10
2.528240
 20
2.995520
  0
VERTEX
  8
0
  6
CONTINUOUS
 10
2.491280
 20
2.959000
  0
VERTEX
  8
0
  6
CONTINUOUS
 10
2.451240
 20
2.929080
  0
VERTEX
  8
0
  6
CONTINUOUS
 10
2.409440
 20
2.905760
  0
VERTEX
  8
0
  6
CONTINUOUS
 10
2.367640
 20
2.888600
  0
VERTEX
  8
0
  6
CONTINUOUS
 10
2.327600
 20
2.878920
  0
VERTEX
  8
0
  6
CONTINUOUS
 10
2.308680
 20
2.876280
  0
VERTEX
  8
0
  6
CONTINUOUS
 10
2.291080
 20
2.875400
  0
VERTEX
  8
0
  6
CONTINUOUS
 10
2.291080
 20
2.738560
  0
SEQEND
  8
0
  0
POLYLINE
  8
0
  6
CONTINUOUS
 66
     1
 40
0.000000
 41
0.000000
  0
VERTEX
  8
0
  6
CONTINUOUS
 10
6.046480
 20
3.834160
  0
VERTEX
  8
0
  6
CONTINUOUS
 10
2.270400
 20
3.834160
  0
VERTEX
  8
0
  6
CONTINUOUS
 10
2.270400
 20
4.699640
  0
VERTEX
  8
0
  6
CONTINUOUS
 10
3.420560
 20
4.699640
  0
VERTEX
  8
0
  6
CONTINUOUS
 10
3.454440
 20
4.547840
  0
VERTEX
  8
0
  6
CONTINUOUS
 10
3.677960
 20
4.496800
  0
VERTEX
  8
0
  6
CONTINUOUS
 10
3.706120
 20
4.540360
  0
VERTEX
  8
0
  6
CONTINUOUS
 10
3.734280
 20
4.576880
  0
VERTEX
  8
0
  6
CONTINUOUS
 10
3.776080
 20
4.620000
  0
VERTEX
  8
0
  6
CONTINUOUS
 10
3.817440
 20
4.649920
  0
VERTEX
  8
0
  6
CONTINUOUS
 10
3.845160
 20
4.663560
  0
VERTEX
  8
0
  6
CONTINUOUS
 10
3.872440
 20
4.671920
  0
VERTEX
  8
0
  6
CONTINUOUS
 10
3.899720
 20
4.676320
  0
VERTEX
  8
0
  6
CONTINUOUS
 10
3.927000
 20
4.676760
  0
VERTEX
  8
0
  6
CONTINUOUS
 10
3.967480
 20
4.670600
  0
VERTEX
  8
0
  6
CONTINUOUS
 10
3.994320
 20
4.662680
  0
VERTEX
  8
0
  6
CONTINUOUS
 10
4.034800
 20
4.645960
  0
VERTEX
  8
0
  6
CONTINUOUS
 10
4.088040
 20
4.616920
  0
VERTEX
  8
0
  6
CONTINUOUS
 10
4.302320
 20
4.481840
  0
VERTEX
  8
0
  6
CONTINUOUS
 10
4.478760
 20
4.376680
  0
VERTEX
  8
0
  6
CONTINUOUS
 10
4.596680
 20
4.310680
  0
VERTEX
  8
0
  6
CONTINUOUS
 10
4.718120
 20
4.246880
  0
VERTEX
  8
0
  6
CONTINUOUS
 10
4.838240
 20
4.189240
  0
VERTEX
  8
0
  6
CONTINUOUS
 10
4.953520
 20
4.141280
  0
VERTEX
  8
0
  6
CONTINUOUS
 10
5.025680
 20
4.116640
  0
VERTEX
  8
0
  6
CONTINUOUS
 10
5.092120
 20
4.099040
  0
VERTEX
  8
0
  6
CONTINUOUS
 10
5.137440
 20
4.091120
  0
VERTEX
  8
0
  6
CONTINUOUS
 10
5.178360
 20
4.088040
  0
VERTEX
  8
0
  6
CONTINUOUS
 10
5.207840
 20
4.086720
  0
VERTEX
  8
0
  6
CONTINUOUS
 10
5.238640
 20
4.088480
  0
VERTEX
  8
0
  6
CONTINUOUS
 10
5.269440
 20
4.092000
  0
VERTEX
  8
0
  6
CONTINUOUS
 10
5.331040
 20
4.104760
  0
VERTEX
  8
0
  6
CONTINUOUS
 10
5.390000
 20
4.122800
  0
VERTEX
  8
0
  6
CONTINUOUS
 10
5.466560
 20
4.152280
  0
VERTEX
  8
0
  6
CONTINUOUS
 10
5.540040
 20
4.187480
  0
VERTEX
  8
0
  6
CONTINUOUS
 10
5.753440
 20
4.187480
  0
VERTEX
  8
0
  6
CONTINUOUS
 10
5.764880
 20
4.161520
  0
VERTEX
  8
0
  6
CONTINUOUS
 10
5.778080
 20
4.137760
  0
VERTEX
  8
0
  6
CONTINUOUS
 10
5.809320
 20
4.094200
  0
VERTEX
  8
0
  6
CONTINUOUS
 10
5.846280
 20
4.057680
  0
VERTEX
  8
0
  6
CONTINUOUS
 10
5.886320
 20
4.027760
  0
VERTEX
  8
0
  6
CONTINUOUS
 10
5.928120
 20
4.004440
  0
VERTEX
  8
0
  6
CONTINUOUS
 10
5.969920
 20
3.987280
  0
VERTEX
  8
0
  6
CONTINUOUS
 10
6.009960
 20
3.977600
  0
VERTEX
  8
0
  6
CONTINUOUS
 10
6.028880
 20
3.974960
  0
VERTEX
  8
0
  6
CONTINUOUS
 10
6.046480
 20
3.974080
  0
VERTEX
  8
0
  6
CONTINUOUS
 10
6.046480
 20
3.837240
  0
SEQEND
  8
0
  0
SOLID
  8
0
 62
    15
 10
2.144560
 20
5.801400
 11
2.144120
 21
6.544120
 12
2.144560
 22
6.666440
 13
2.144120
 23
7.409160
  0
POLYLINE
  8
0
  6
CONTINUOUS
 66
     1
 40
0.000000
 41
0.000000
  0
VERTEX
  8
0
  6
CONTINUOUS
 10
2.144560
 20
5.801400
  0
VERTEX
  8
0
  6
CONTINUOUS
 10
2.144120
 20
6.544120
  0
VERTEX
  8
0
  6
CONTINUOUS
 10
2.144120
 20
7.409160
  0
VERTEX
  8
0
  6
CONTINUOUS
 10
2.144560
 20
6.666440
  0
VERTEX
  8
0
  6
CONTINUOUS
 10
2.144560
 20
5.801400
  0
SEQEND
  8
0
  0
SOLID
  8
0
 62
    15
 10
2.144560
 20
6.666440
 11
2.144120
 21
7.409160
 12
3.295160
 22
6.666440
 13
3.294720
 23
7.409160
  0
POLYLINE
  8
0
  6
CONTINUOUS
 66
     1
 40
0.000000
 41
0.000000
  0
VERTEX
  8
0
  6
CONTINUOUS
 10
2.144560
 20
6.666440
  0
VERTEX
  8
0
  6
CONTINUOUS
 10
2.144120
 20
7.409160
  0
VERTEX
  8
0
  6
CONTINUOUS
 10
3.294720
 20
7.409160
  0
VERTEX
  8
0
  6
CONTINUOUS
 10
3.295160
 20
6.666440
  0
VERTEX
  8
0
  6
CONTINUOUS
 10
2.144560
 20
6.666440
  0
SEQEND
  8
0
  0
SOLID
  8
0
 62
    15
 10
3.295160
 20
6.666440
 11
3.294720
 21
7.409160
 12
3.329040
 22
6.515080
 13
3.328600
 23
7.257800
  0
POLYLINE
  8
0
  6
CONTINUOUS
 66
     1
 40
0.000000
 41
0.000000
  0
VERTEX
  8
0
  6
CONTINUOUS
 10
3.295160
 20
6.666440
  0
VERTEX
  8
0
  6
CONTINUOUS
 10
3.294720
 20
7.409160
  0
VERTEX
  8
0
  6
CONTINUOUS
 10
3.328600
 20
7.257800
  0
VERTEX
  8
0
  6
CONTINUOUS
 10
3.329040
 20
6.515080
  0
VERTEX
  8
0
  6
CONTINUOUS
 10
3.295160
 20
6.666440
  0
SEQEND
  8
0
  0
SOLID
  8
0
 62
    15
 10
3.329040
 20
6.515080
 11
3.328600
 21
7.257800
 12
3.552560
 22
6.464040
 13
3.552120
 23
7.206760
  0
POLYLINE
  8
0
  6
CONTINUOUS
 66
     1
 40
0.000000
 41
0.000000
  0
VERTEX
  8
0
  6
CONTINUOUS
 10
3.329040
 20
6.515080
  0
VERTEX
  8
0
  6
CONTINUOUS
 10
3.328600
 20
7.257800
  0
VERTEX
  8
0
  6
CONTINUOUS
 10
3.552120
 20
7.206760
  0
VERTEX
  8
0
  6
CONTINUOUS
 10
3.552560
 20
6.464040
  0
VERTEX
  8
0
  6
CONTINUOUS
 10
3.329040
 20
6.515080
  0
SEQEND
  8
0
  0
SOLID
  8
0
 62
    15
 10
3.552560
 20
6.464040
 11
3.552120
 21
7.206760
 12
3.580720
 22
6.507160
 13
3.580280
 23
7.249880
  0
POLYLINE
  8
0
  6
CONTINUOUS
 66
     1
 40
0.000000
 41
0.000000
  0
VERTEX
  8
0
  6
CONTINUOUS
 10
3.552560
 20
6.464040
  0
VERTEX
  8
0
  6
CONTINUOUS
 10
3.552120
 20
7.206760
  0
VERTEX
  8
0
  6
CONTINUOUS
 10
3.580280
 20
7.249880
  0
VERTEX
  8
0
  6
CONTINUOUS
 10
3.580720
 20
6.507160
  0
VERTEX
  8
0
  6
CONTINUOUS
 10
3.552560
 20
6.464040
  0
SEQEND
  8
0
  0
SOLID
  8
0
 62
    15
 10
3.580720
 20
6.507160
 11
3.580280
 21
7.249880
 12
3.608880
 22
6.544120
 13
3.608440
 23
7.286840
  0
POLYLINE
  8
0
  6
CONTINUOUS
 66
     1
 40
0.000000
 41
0.000000
  0
VERTEX
  8
0
  6
CONTINUOUS
 10
3.580720
 20
6.507160
  0
VERTEX
  8
0
  6
CONTINUOUS
 10
3.580280
 20
7.249880
  0
VERTEX
  8
0
  6
CONTINUOUS
 10
3.608440
 20
7.286840
  0
VERTEX
  8
0
  6
CONTINUOUS
 10
3.608880
 20
6.544120
  0
VERTEX
  8
0
  6
CONTINUOUS
 10
3.580720
 20
6.507160
  0
SEQEND
  8
0
  0
SOLID
  8
0
 62
    15
 10
3.608880
 20
6.544120
 11
3.608440
 21
7.286840
 12
3.636600
 22
6.574040
 13
3.636160
 23
7.316760
  0
POLYLINE
  8
0
  6
CONTINUOUS
 66
     1
 40
0.000000
 41
0.000000
  0
VERTEX
  8
0
  6
CONTINUOUS
 10
3.608880
 20
6.544120
  0
VERTEX
  8
0
  6
CONTINUOUS
 10
3.608440
 20
7.286840
  0
VERTEX
  8
0
  6
CONTINUOUS
 10
3.636160
 20
7.316760
  0
VERTEX
  8
0
  6
CONTINUOUS
 10
3.636600
 20
6.574040
  0
VERTEX
  8
0
  6
CONTINUOUS
 10
3.608880
 20
6.544120
  0
SEQEND
  8
0
  0
SOLID
  8
0
 62
    15
 10
3.636600
 20
6.574040
 11
3.636160
 21
7.316760
 12
3.664320
 22
6.598240
 13
3.663880
 23
7.340960
  0
POLYLINE
  8
0
  6
CONTINUOUS
 66
     1
 40
0.000000
 41
0.000000
  0
VERTEX
  8
0
  6
CONTINUOUS
 10
3.636600
 20
6.574040
  0
VERTEX
  8
0
  6
CONTINUOUS
 10
3.636160
 20
7.316760
  0
VERTEX
  8
0
  6
CONTINUOUS
 10
3.663880
 20
7.340960
  0
VERTEX
  8
0
  6
CONTINUOUS
 10
3.664320
 20
6.598240
  0
VERTEX
  8
0
  6
CONTINUOUS
 10
3.636600
 20
6.574040
  0
SEQEND
  8
0
  0
SOLID
  8
0
 62
    15
 10
3.664320
 20
6.598240
 11
3.663880
 21
7.340960
 12
3.692040
 22
6.617160
 13
3.691600
 23
7.359880
  0
POLYLINE
  8
0
  6
CONTINUOUS
 66
     1
 40
0.000000
 41
0.000000
  0
VERTEX
  8
0
  6
CONTINUOUS
 10
3.664320
 20
6.598240
  0
VERTEX
  8
0
  6
CONTINUOUS
 10
3.663880
 20
7.340960
  0
VERTEX
  8
0
  6
CONTINUOUS
 10
3.691600
 20
7.359880
  0
VERTEX
  8
0
  6
CONTINUOUS
 10
3.692040
 20
6.617160
  0
VERTEX
  8
0
  6
CONTINUOUS
 10
3.664320
 20
6.598240
  0
SEQEND
  8
0
  0
SOLID
  8
0
 62
    15
 10
3.692040
 20
6.617160
 11
3.691600
 21
7.359880
 12
3.719760
 22
6.630800
 13
3.719320
 23
7.373520
  0
POLYLINE
  8
0
  6
CONTINUOUS
 66
     1
 40
0.000000
 41
0.000000
  0
VERTEX
  8
0
  6
CONTINUOUS
 10
3.692040
 20
6.617160
  0
VERTEX
  8
0
  6
CONTINUOUS
 10
3.691600
 20
7.359880
  0
VERTEX
  8
0
  6
CONTINUOUS
 10
3.719320
 20
7.373520
  0
VERTEX
  8
0
  6
CONTINUOUS
 10
3.719760
 20
6.630800
  0
VERTEX
  8
0
  6
CONTINUOUS
 10
3.692040
 20
6.617160
  0
SEQEND
  8
0
  0
SOLID
  8
0
 62
    15
 10
3.719760
 20
6.630800
 11
3.719320
 21
7.373520
 12
3.747040
 22
6.639160
 13
3.746600
 23
7.381880
  0
POLYLINE
  8
0
  6
CONTINUOUS
 66
     1
 40
0.000000
 41
0.000000
  0
VERTEX
  8
0
  6
CONTINUOUS
 10
3.719760
 20
6.630800
  0
VERTEX
  8
0
  6
CONTINUOUS
 10
3.719320
 20
7.373520
  0
VERTEX
  8
0
  6
CONTINUOUS
 10
3.746600
 20
7.381880
  0
VERTEX
  8
0
  6
CONTINUOUS
 10
3.747040
 20
6.639160
  0
VERTEX
  8
0
  6
CONTINUOUS
 10
3.719760
 20
6.630800
  0
SEQEND
  8
0
  0
SOLID
  8
0
 62
    15
 10
3.747040
 20
6.639160
 11
3.746600
 21
7.381880
 12
3.774320
 22
6.643560
 13
3.773880
 23
7.386280
  0
POLYLINE
  8
0
  6
CONTINUOUS
 66
     1
 40
0.000000
 41
0.000000
  0
VERTEX
  8
0
  6
CONTINUOUS
 10
3.747040
 20
6.639160
  0
VERTEX
  8
0
  6
CONTINUOUS
 10
3.746600
 20
7.381880
  0
VERTEX
  8
0
  6
CONTINUOUS
 10
3.773880
 20
7.386280
  0
VERTEX
  8
0
  6
CONTINUOUS
 10
3.774320
 20
6.643560
  0
VERTEX
  8
0
  6
CONTINUOUS
 10
3.747040
 20
6.639160
  0
SEQEND
  8
0
  0
SOLID
  8
0
 62
    15
 10
3.774320
 20
6.643560
 11
3.773880
 21
7.386280
 12
3.828440
 22
6.640480
 13
3.828000
 23
7.383200
  0
POLYLINE
  8
0
  6
CONTINUOUS
 66
     1
 40
0.000000
 41
0.000000
  0
VERTEX
  8
0
  6
CONTINUOUS
 10
3.774320
 20
6.643560
  0
VERTEX
  8
0
  6
CONTINUOUS
 10
3.773880
 20
7.386280
  0
VERTEX
  8
0
  6
CONTINUOUS
 10
3.828000
 20
7.383200
  0
VERTEX
  8
0
  6
CONTINUOUS
 10
3.828440
 20
6.640480
  0
VERTEX
  8
0
  6
CONTINUOUS
 10
3.774320
 20
6.643560
  0
SEQEND
  8
0
  0
SOLID
  8
0
 62
    15
 10
3.828440
 20
6.640480
 11
3.828000
 21
7.383200
 12
3.882560
 22
6.624640
 13
3.881680
 23
7.367360
  0
POLYLINE
  8
0
  6
CONTINUOUS
 66
     1
 40
0.000000
 41
0.000000
  0
VERTEX
  8
0
  6
CONTINUOUS
 10
3.828440
 20
6.640480
  0
VERTEX
  8
0
  6
CONTINUOUS
 10
3.828000
 20
7.383200
  0
VERTEX
  8
0
  6
CONTINUOUS
 10
3.881680
 20
7.367360
  0
VERTEX
  8
0
  6
CONTINUOUS
 10
3.882560
 20
6.624640
  0
VERTEX
  8
0
  6
CONTINUOUS
 10
3.828440
 20
6.640480
  0
SEQEND
  8
0
  0
SOLID
  8
0
 62
    15
 10
3.882560
 20
6.624640
 11
3.881680
 21
7.367360
 12
3.935800
 22
6.599120
 13
3.935360
 23
7.341840
  0
POLYLINE
  8
0
  6
CONTINUOUS
 66
     1
 40
0.000000
 41
0.000000
  0
VERTEX
  8
0
  6
CONTINUOUS
 10
3.882560
 20
6.624640
  0
VERTEX
  8
0
  6
CONTINUOUS
 10
3.881680
 20
7.367360
  0
VERTEX
  8
0
  6
CONTINUOUS
 10
3.935360
 20
7.341840
  0
VERTEX
  8
0
  6
CONTINUOUS
 10
3.935800
 20
6.599120
  0
VERTEX
  8
0
  6
CONTINUOUS
 10
3.882560
 20
6.624640
  0
SEQEND
  8
0
  0
SOLID
  8
0
 62
    15
 10
3.935800
 20
6.599120
 11
3.935360
 21
7.341840
 12
3.989040
 22
6.567000
 13
3.988600
 23
7.309720
  0
POLYLINE
  8
0
  6
CONTINUOUS
 66
     1
 40
0.000000
 41
0.000000
  0
VERTEX
  8
0
  6
CONTINUOUS
 10
3.935800
 20
6.599120
  0
VERTEX
  8
0
  6
CONTINUOUS
 10
3.935360
 20
7.341840
  0
VERTEX
  8
0
  6
CONTINUOUS
 10
3.988600
 20
7.309720
  0
VERTEX
  8
0
  6
CONTINUOUS
 10
3.989040
 20
6.567000
  0
VERTEX
  8
0
  6
CONTINUOUS
 10
3.935800
 20
6.599120
  0
SEQEND
  8
0
  0
SOLID
  8
0
 62
    15
 10
3.989040
 20
6.567000
 11
3.988600
 21
7.309720
 12
4.021600
 22
6.546320
 13
4.021160
 23
7.289040
  0
POLYLINE
  8
0
  6
CONTINUOUS
 66
     1
 40
0.000000
 41
0.000000
  0
VERTEX
  8
0
  6
CONTINUOUS
 10
3.989040
 20
6.567000
  0
VERTEX
  8
0
  6
CONTINUOUS
 10
3.988600
 20
7.309720
  0
VERTEX
  8
0
  6
CONTINUOUS
 10
4.021160
 20
7.289040
  0
VERTEX
  8
0
  6
CONTINUOUS
 10
4.021600
 20
6.546320
  0
VERTEX
  8
0
  6
CONTINUOUS
 10
3.989040
 20
6.567000
  0
SEQEND
  8
0
  0
SOLID
  8
0
 62
    15
 10
4.021600
 20
6.546320
 11
4.021160
 21
7.289040
 12
4.064280
 22
6.519040
 13
4.063840
 23
7.261760
  0
POLYLINE
  8
0
  6
CONTINUOUS
 66
     1
 40
0.000000
 41
0.000000
  0
VERTEX
  8
0
  6
CONTINUOUS
 10
4.021600
 20
6.546320
  0
VERTEX
  8
0
  6
CONTINUOUS
 10
4.021160
 20
7.289040
  0
VERTEX
  8
0
  6
CONTINUOUS
 10
4.063840
 20
7.261760
  0
VERTEX
  8
0
  6
CONTINUOUS
 10
4.064280
 20
6.519040
  0
VERTEX
  8
0
  6
CONTINUOUS
 10
4.021600
 20
6.546320
  0
SEQEND
  8
0
  0
SOLID
  8
0
 62
    15
 10
4.064280
 20
6.519040
 11
4.063840
 21
7.261760
 12
4.116200
 22
6.486040
 13
4.115760
 23
7.228760
  0
POLYLINE
  8
0
  6
CONTINUOUS
 66
     1
 40
0.000000
 41
0.000000
  0
VERTEX
  8
0
  6
CONTINUOUS
 10
4.064280
 20
6.519040
  0
VERTEX
  8
0
  6
CONTINUOUS
 10
4.063840
 20
7.261760
  0
VERTEX
  8
0
  6
CONTINUOUS
 10
4.115760
 20
7.228760
  0
VERTEX
  8
0
  6
CONTINUOUS
 10
4.116200
 20
6.486040
  0
VERTEX
  8
0
  6
CONTINUOUS
 10
4.064280
 20
6.519040
  0
SEQEND
  8
0
  0
SOLID
  8
0
 62
    15
 10
4.116200
 20
6.486040
 11
4.115760
 21
7.228760
 12
4.176480
 22
6.449080
 13
4.176040
 23
7.191800
  0
POLYLINE
  8
0
  6
CONTINUOUS
 66
     1
 40
0.000000
 41
0.000000
  0
VERTEX
  8
0
  6
CONTINUOUS
 10
4.116200
 20
6.486040
  0
VERTEX
  8
0
  6
CONTINUOUS
 10
4.115760
 20
7.228760
  0
VERTEX
  8
0
  6
CONTINUOUS
 10
4.176040
 20
7.191800
  0
VERTEX
  8
0
  6
CONTINUOUS
 10
4.176480
 20
6.449080
  0
VERTEX
  8
0
  6
CONTINUOUS
 10
4.116200
 20
6.486040
  0
SEQEND
  8
0
  0
SOLID
  8
0
 62
    15
 10
4.176480
 20
6.449080
 11
4.176040
 21
7.191800
 12
4.243360
 22
6.408160
 13
4.242920
 23
7.150880
  0
POLYLINE
  8
0
  6
CONTINUOUS
 66
     1
 40
0.000000
 41
0.000000
  0
VERTEX
  8
0
  6
CONTINUOUS
 10
4.176480
 20
6.449080
  0
VERTEX
  8
0
  6
CONTINUOUS
 10
4.176040
 20
7.191800
  0
VERTEX
  8
0
  6
CONTINUOUS
 10
4.242920
 20
7.150880
  0
VERTEX
  8
0
  6
CONTINUOUS
 10
4.243360
 20
6.408160
  0
VERTEX
  8
0
  6
CONTINUOUS
 10
4.176480
 20
6.449080
  0
SEQEND
  8
0
  0
SOLID
  8
0
 62
    15
 10
4.243360
 20
6.408160
 11
4.242920
 21
7.150880
 12
4.315520
 22
6.365480
 13
4.315080
 23
7.108200
  0
POLYLINE
  8
0
  6
CONTINUOUS
 66
     1
 40
0.000000
 41
0.000000
  0
VERTEX
  8
0
  6
CONTINUOUS
 10
4.243360
 20
6.408160
  0
VERTEX
  8
0
  6
CONTINUOUS
 10
4.242920
 20
7.150880
  0
VERTEX
  8
0
  6
CONTINUOUS
 10
4.315080
 20
7.108200
  0
VERTEX
  8
0
  6
CONTINUOUS
 10
4.315520
 20
6.365480
  0
VERTEX
  8
0
  6
CONTINUOUS
 10
4.243360
 20
6.408160
  0
SEQEND
  8
0
  0
SOLID
  8
0
 62
    15
 10
4.315520
 20
6.365480
 11
4.315080
 21
7.108200
 12
4.471280
 22
6.277920
 13
4.470400
 23
7.020640
  0
POLYLINE
  8
0
  6
CONTINUOUS
 66
     1
 40
0.000000
 41
0.000000
  0
VERTEX
  8
0
  6
CONTINUOUS
 10
4.315520
 20
6.365480
  0
VERTEX
  8
0
  6
CONTINUOUS
 10
4.315080
 20
7.108200
  0
VERTEX
  8
0
  6
CONTINUOUS
 10
4.470400
 20
7.020640
  0
VERTEX
  8
0
  6
CONTINUOUS
 10
4.471280
 20
6.277920
  0
VERTEX
  8
0
  6
CONTINUOUS
 10
4.315520
 20
6.365480
  0
SEQEND
  8
0
  0
SOLID
  8
0
 62
    15
 10
4.471280
 20
6.277920
 11
4.470400
 21
7.020640
 12
4.632760
 22
6.193880
 13
4.632320
 23
6.936600
  0
POLYLINE
  8
0
  6
CONTINUOUS
 66
     1
 40
0.000000
 41
0.000000
  0
VERTEX
  8
0
  6
CONTINUOUS
 10
4.471280
 20
6.277920
  0
VERTEX
  8
0
  6
CONTINUOUS
 10
4.470400
 20
7.020640
  0
VERTEX
  8
0
  6
CONTINUOUS
 10
4.632320
 20
6.936600
  0
VERTEX
  8
0
  6
CONTINUOUS
 10
4.632760
 20
6.193880
  0
VERTEX
  8
0
  6
CONTINUOUS
 10
4.471280
 20
6.277920
  0
SEQEND
  8
0
  0
SOLID
  8
0
 62
    15
 10
4.632760
 20
6.193880
 11
4.632320
 21
6.936600
 12
4.712840
 22
6.156480
 13
4.712400
 23
6.899200
  0
POLYLINE
  8
0
  6
CONTINUOUS
 66
     1
 40
0.000000
 41
0.000000
  0
VERTEX
  8
0
  6
CONTINUOUS
 10
4.632760
 20
6.193880
  0
VERTEX
  8
0
  6
CONTINUOUS
 10
4.632320
 20
6.936600
  0
VERTEX
  8
0
  6
CONTINUOUS
 10
4.712400
 20
6.899200
  0
VERTEX
  8
0
  6
CONTINUOUS
 10
4.712840
 20
6.156480
  0
VERTEX
  8
0
  6
CONTINUOUS
 10
4.632760
 20
6.193880
  0
SEQEND
  8
0
  0
SOLID
  8
0
 62
    15
 10
4.712840
 20
6.156480
 11
4.712400
 21
6.899200
 12
4.790720
 22
6.123040
 13
4.790280
 23
6.865760
  0
POLYLINE
  8
0
  6
CONTINUOUS
 66
     1
 40
0.000000
 41
0.000000
  0
VERTEX
  8
0
  6
CONTINUOUS
 10
4.712840
 20
6.156480
  0
VERTEX
  8
0
  6
CONTINUOUS
 10
4.712400
 20
6.899200
  0
VERTEX
  8
0
  6
CONTINUOUS
 10
4.790280
 20
6.865760
  0
VERTEX
  8
0
  6
CONTINUOUS
 10
4.790720
 20
6.123040
  0
VERTEX
  8
0
  6
CONTINUOUS
 10
4.712840
 20
6.156480
  0
SEQEND
  8
0
  0
SOLID
  8
0
 62
    15
 10
4.790720
 20
6.123040
 11
4.790280
 21
6.865760
 12
4.864640
 22
6.095320
 13
4.864200
 23
6.838040
  0
POLYLINE
  8
0
  6
CONTINUOUS
 66
     1
 40
0.000000
 41
0.000000
  0
VERTEX
  8
0
  6
CONTINUOUS
 10
4.790720
 20
6.123040
  0
VERTEX
  8
0
  6
CONTINUOUS
 10
4.790280
 20
6.865760
  0
VERTEX
  8
0
  6
CONTINUOUS
 10
4.864200
 20
6.838040
  0
VERTEX
  8
0
  6
CONTINUOUS
 10
4.864640
 20
6.095320
  0
VERTEX
  8
0
  6
CONTINUOUS
 10
4.790720
 20
6.123040
  0
SEQEND
  8
0
  0
SOLID
  8
0
 62
    15
 10
4.864640
 20
6.095320
 11
4.864200
 21
6.838040
 12
4.933720
 22
6.074200
 13
4.933280
 23
6.816920
  0
POLYLINE
  8
0
  6
CONTINUOUS
 66
     1
 40
0.000000
 41
0.000000
  0
VERTEX
  8
0
  6
CONTINUOUS
 10
4.864640
 20
6.095320
  0
VERTEX
  8
0
  6
CONTINUOUS
 10
4.864200
 20
6.838040
  0
VERTEX
  8
0
  6
CONTINUOUS
 10
4.933280
 20
6.816920
  0
VERTEX
  8
0
  6
CONTINUOUS
 10
4.933720
 20
6.074200
  0
VERTEX
  8
0
  6
CONTINUOUS
 10
4.864640
 20
6.095320
  0
SEQEND
  8
0
  0
SOLID
  8
0
 62
    15
 10
4.933720
 20
6.074200
 11
4.933280
 21
6.816920
 12
4.997080
 22
6.060560
 13
4.996640
 23
6.803280
  0
POLYLINE
  8
0
  6
CONTINUOUS
 66
     1
 40
0.000000
 41
0.000000
  0
VERTEX
  8
0
  6
CONTINUOUS
 10
4.933720
 20
6.074200
  0
VERTEX
  8
0
  6
CONTINUOUS
 10
4.933280
 20
6.816920
  0
VERTEX
  8
0
  6
CONTINUOUS
 10
4.996640
 20
6.803280
  0
VERTEX
  8
0
  6
CONTINUOUS
 10
4.997080
 20
6.060560
  0
VERTEX
  8
0
  6
CONTINUOUS
 10
4.933720
 20
6.074200
  0
SEQEND
  8
0
  0
SOLID
  8
0
 62
    15
 10
4.997080
 20
6.060560
 11
4.996640
 21
6.803280
 12
5.052520
 22
6.055280
 13
5.052080
 23
6.798000
  0
POLYLINE
  8
0
  6
CONTINUOUS
 66
     1
 40
0.000000
 41
0.000000
  0
VERTEX
  8
0
  6
CONTINUOUS
 10
4.997080
 20
6.060560
  0
VERTEX
  8
0
  6
CONTINUOUS
 10
4.996640
 20
6.803280
  0
VERTEX
  8
0
  6
CONTINUOUS
 10
5.052080
 20
6.798000
  0
VERTEX
  8
0
  6
CONTINUOUS
 10
5.052520
 20
6.055280
  0
VERTEX
  8
0
  6
CONTINUOUS
 10
4.997080
 20
6.060560
  0
SEQEND
  8
0
  0
SOLID
  8
0
 62
    15
 10
5.052520
 20
6.055280
 11
5.052080
 21
6.798000
 12
5.112800
 22
6.055720
 13
5.112360
 23
6.798000
  0
POLYLINE
  8
0
  6
CONTINUOUS
 66
     1
 40
0.000000
 41
0.000000
  0
VERTEX
  8
0
  6
CONTINUOUS
 10
5.052520
 20
6.055280
  0
VERTEX
  8
0
  6
CONTINUOUS
 10
5.052080
 20
6.798000
  0
VERTEX
  8
0
  6
CONTINUOUS
 10
5.112360
 20
6.798000
  0
VERTEX
  8
0
  6
CONTINUOUS
 10
5.112800
 20
6.055720
  0
VERTEX
  8
0
  6
CONTINUOUS
 10
5.052520
 20
6.055280
  0
SEQEND
  8
0
  0
SOLID
  8
0
 62
    15
 10
5.112800
 20
6.055720
 11
5.112360
 21
6.798000
 12
5.174840
 22
6.064960
 13
5.174400
 23
6.807680
  0
POLYLINE
  8
0
  6
CONTINUOUS
 66
     1
 40
0.000000
 41
0.000000
  0
VERTEX
  8
0
  6
CONTINUOUS
 10
5.112800
 20
6.055720
  0
VERTEX
  8
0
  6
CONTINUOUS
 10
5.112360
 20
6.798000
  0
VERTEX
  8
0
  6
CONTINUOUS
 10
5.174400
 20
6.807680
  0
VERTEX
  8
0
  6
CONTINUOUS
 10
5.174840
 20
6.064960
  0
VERTEX
  8
0
  6
CONTINUOUS
 10
5.112800
 20
6.055720
  0
SEQEND
  8
0
  0
SOLID
  8
0
 62
    15
 10
5.174840
 20
6.064960
 11
5.174400
 21
6.807680
 12
5.235560
 22
6.080360
 13
5.234680
 23
6.823080
  0
POLYLINE
  8
0
  6
CONTINUOUS
 66
     1
 40
0.000000
 41
0.000000
  0
VERTEX
  8
0
  6
CONTINUOUS
 10
5.174840
 20
6.064960
  0
VERTEX
  8
0
  6
CONTINUOUS
 10
5.174400
 20
6.807680
  0
VERTEX
  8
0
  6
CONTINUOUS
 10
5.234680
 20
6.823080
  0
VERTEX
  8
0
  6
CONTINUOUS
 10
5.235560
 20
6.080360
  0
VERTEX
  8
0
  6
CONTINUOUS
 10
5.174840
 20
6.064960
  0
SEQEND
  8
0
  0
SOLID
  8
0
 62
    15
 10
5.235560
 20
6.080360
 11
5.234680
 21
6.823080
 12
5.291880
 22
6.099720
 13
5.291440
 23
6.842440
  0
POLYLINE
  8
0
  6
CONTINUOUS
 66
     1
 40
0.000000
 41
0.000000
  0
VERTEX
  8
0
  6
CONTINUOUS
 10
5.235560
 20
6.080360
  0
VERTEX
  8
0
  6
CONTINUOUS
 10
5.234680
 20
6.823080
  0
VERTEX
  8
0
  6
CONTINUOUS
 10
5.291440
 20
6.842440
  0
VERTEX
  8
0
  6
CONTINUOUS
 10
5.291880
 20
6.099720
  0
VERTEX
  8
0
  6
CONTINUOUS
 10
5.235560
 20
6.080360
  0
SEQEND
  8
0
  0
SOLID
  8
0
 62
    15
 10
5.291880
 20
6.099720
 11
5.291440
 21
6.842440
 12
5.340720
 22
6.119520
 13
5.340280
 23
6.862240
  0
POLYLINE
  8
0
  6
CONTINUOUS
 66
     1
 40
0.000000
 41
0.000000
  0
VERTEX
  8
0
  6
CONTINUOUS
 10
5.291880
 20
6.099720
  0
VERTEX
  8
0
  6
CONTINUOUS
 10
5.291440
 20
6.842440
  0
VERTEX
  8
0
  6
CONTINUOUS
 10
5.340280
 20
6.862240
  0
VERTEX
  8
0
  6
CONTINUOUS
 10
5.340720
 20
6.119520
  0
VERTEX
  8
0
  6
CONTINUOUS
 10
5.291880
 20
6.099720
  0
SEQEND
  8
0
  0
SOLID
  8
0
 62
    15
 10
5.340720
 20
6.119520
 11
5.340280
 21
6.862240
 12
5.379880
 22
6.137120
 13
5.379440
 23
6.879840
  0
POLYLINE
  8
0
  6
CONTINUOUS
 66
     1
 40
0.000000
 41
0.000000
  0
VERTEX
  8
0
  6
CONTINUOUS
 10
5.340720
 20
6.119520
  0
VERTEX
  8
0
  6
CONTINUOUS
 10
5.340280
 20
6.862240
  0
VERTEX
  8
0
  6
CONTINUOUS
 10
5.379440
 20
6.879840
  0
VERTEX
  8
0
  6
CONTINUOUS
 10
5.379880
 20
6.137120
  0
VERTEX
  8
0
  6
CONTINUOUS
 10
5.340720
 20
6.119520
  0
SEQEND
  8
0
  0
SOLID
  8
0
 62
    15
 10
5.379880
 20
6.137120
 11
5.379440
 21
6.879840
 12
5.394400
 22
6.144160
 13
5.393960
 23
6.886880
  0
POLYLINE
  8
0
  6
CONTINUOUS
 66
     1
 40
0.000000
 41
0.000000
  0
VERTEX
  8
0
  6
CONTINUOUS
 10
5.379880
 20
6.137120
  0
VERTEX
  8
0
  6
CONTINUOUS
 10
5.379440
 20
6.879840
  0
VERTEX
  8
0
  6
CONTINUOUS
 10
5.393960
 20
6.886880
  0
VERTEX
  8
0
  6
CONTINUOUS
 10
5.394400
 20
6.144160
  0
VERTEX
  8
0
  6
CONTINUOUS
 10
5.379880
 20
6.137120
  0
SEQEND
  8
0
  0
SOLID
  8
0
 62
    15
 10
5.394400
 20
6.144160
 11
5.393960
 21
6.886880
 12
5.405400
 22
6.149880
 13
5.404960
 23
6.892600
  0
POLYLINE
  8
0
  6
CONTINUOUS
 66
     1
 40
0.000000
 41
0.000000
  0
VERTEX
  8
0
  6
CONTINUOUS
 10
5.394400
 20
6.144160
  0
VERTEX
  8
0
  6
CONTINUOUS
 10
5.393960
 20
6.886880
  0
VERTEX
  8
0
  6
CONTINUOUS
 10
5.404960
 20
6.892600
  0
VERTEX
  8
0
  6
CONTINUOUS
 10
5.405400
 20
6.149880
  0
VERTEX
  8
0
  6
CONTINUOUS
 10
5.394400
 20
6.144160
  0
SEQEND
  8
0
  0
SOLID
  8
0
 62
    15
 10
5.405400
 20
6.149880
 11
5.404960
 21
6.892600
 12
5.414640
 22
6.154720
 13
5.413760
 23
6.897440
  0
POLYLINE
  8
0
  6
CONTINUOUS
 66
     1
 40
0.000000
 41
0.000000
  0
VERTEX
  8
0
  6
CONTINUOUS
 10
5.405400
 20
6.149880
  0
VERTEX
  8
0
  6
CONTINUOUS
 10
5.404960
 20
6.892600
  0
VERTEX
  8
0
  6
CONTINUOUS
 10
5.413760
 20
6.897440
  0
VERTEX
  8
0
  6
CONTINUOUS
 10
5.414640
 20
6.154720
  0
VERTEX
  8
0
  6
CONTINUOUS
 10
5.405400
 20
6.149880
  0
SEQEND
  8
0
  0
SOLID
  8
0
 62
    15
 10
5.414640
 20
6.154720
 11
5.413760
 21
6.897440
 12
5.628040
 22
6.154720
 13
5.627600
 23
6.897440
  0
POLYLINE
  8
0
  6
CONTINUOUS
 66
     1
 40
0.000000
 41
0.000000
  0
VERTEX
  8
0
  6
CONTINUOUS
 10
5.414640
 20
6.154720
  0
VERTEX
  8
0
  6
CONTINUOUS
 10
5.413760
 20
6.897440
  0
VERTEX
  8
0
  6
CONTINUOUS
 10
5.627600
 20
6.897440
  0
VERTEX
  8
0
  6
CONTINUOUS
 10
5.628040
 20
6.154720
  0
VERTEX
  8
0
  6
CONTINUOUS
 10
5.414640
 20
6.154720
  0
SEQEND
  8
0
  0
SOLID
  8
0
 62
    15
 10
5.628040
 20
6.154720
 11
5.627600
 21
6.897440
 12
5.652240
 22
6.104560
 13
5.651800
 23
6.847280
  0
POLYLINE
  8
0
  6
CONTINUOUS
 66
     1
 40
0.000000
 41
0.000000
  0
VERTEX
  8
0
  6
CONTINUOUS
 10
5.628040
 20
6.154720
  0
VERTEX
  8
0
  6
CONTINUOUS
 10
5.627600
 20
6.897440
  0
VERTEX
  8
0
  6
CONTINUOUS
 10
5.651800
 20
6.847280
  0
VERTEX
  8
0
  6
CONTINUOUS
 10
5.652240
 20
6.104560
  0
VERTEX
  8
0
  6
CONTINUOUS
 10
5.628040
 20
6.154720
  0
SEQEND
  8
0
  0
SOLID
  8
0
 62
    15
 10
5.652240
 20
6.104560
 11
5.651800
 21
6.847280
 12
5.683920
 22
6.061440
 13
5.683480
 23
6.804160
  0
POLYLINE
  8
0
  6
CONTINUOUS
 66
     1
 40
0.000000
 41
0.000000
  0
VERTEX
  8
0
  6
CONTINUOUS
 10
5.652240
 20
6.104560
  0
VERTEX
  8
0
  6
CONTINUOUS
 10
5.651800
 20
6.847280
  0
VERTEX
  8
0
  6
CONTINUOUS
 10
5.683480
 20
6.804160
  0
VERTEX
  8
0
  6
CONTINUOUS
 10
5.683920
 20
6.061440
  0
VERTEX
  8
0
  6
CONTINUOUS
 10
5.652240
 20
6.104560
  0
SEQEND
  8
0
  0
SOLID
  8
0
 62
    15
 10
5.683920
 20
6.061440
 11
5.683480
 21
6.804160
 12
5.720440
 22
6.024920
 13
5.720000
 23
6.767640
  0
POLYLINE
  8
0
  6
CONTINUOUS
 66
     1
 40
0.000000
 41
0.000000
  0
VERTEX
  8
0
  6
CONTINUOUS
 10
5.683920
 20
6.061440
  0
VERTEX
  8
0
  6
CONTINUOUS
 10
5.683480
 20
6.804160
  0
VERTEX
  8
0
  6
CONTINUOUS
 10
5.720000
 20
6.767640
  0
VERTEX
  8
0
  6
CONTINUOUS
 10
5.720440
 20
6.024920
  0
VERTEX
  8
0
  6
CONTINUOUS
 10
5.683920
 20
6.061440
  0
SEQEND
  8
0
  0
SOLID
  8
0
 62
    15
 10
5.720440
 20
6.024920
 11
5.720000
 21
6.767640
 12
5.760920
 22
5.995000
 13
5.760480
 23
6.737720
  0
POLYLINE
  8
0
  6
CONTINUOUS
 66
     1
 40
0.000000
 41
0.000000
  0
VERTEX
  8
0
  6
CONTINUOUS
 10
5.720440
 20
6.024920
  0
VERTEX
  8
0
  6
CONTINUOUS
 10
5.720000
 20
6.767640
  0
VERTEX
  8
0
  6
CONTINUOUS
 10
5.760480
 20
6.737720
  0
VERTEX
  8
0
  6
CONTINUOUS
 10
5.760920
 20
5.995000
  0
VERTEX
  8
0
  6
CONTINUOUS
 10
5.720440
 20
6.024920
  0
SEQEND
  8
0
  0
SOLID
  8
0
 62
    15
 10
5.760920
 20
5.995000
 11
5.760480
 21
6.737720
 12
5.802720
 22
5.971680
 13
5.802280
 23
6.714400
  0
POLYLINE
  8
0
  6
CONTINUOUS
 66
     1
 40
0.000000
 41
0.000000
  0
VERTEX
  8
0
  6
CONTINUOUS
 10
5.760920
 20
5.995000
  0
VERTEX
  8
0
  6
CONTINUOUS
 10
5.760480
 20
6.737720
  0
VERTEX
  8
0
  6
CONTINUOUS
 10
5.802280
 20
6.714400
  0
VERTEX
  8
0
  6
CONTINUOUS
 10
5.802720
 20
5.971680
  0
VERTEX
  8
0
  6
CONTINUOUS
 10
5.760920
 20
5.995000
  0
SEQEND
  8
0
  0
SOLID
  8
0
 62
    15
 10
5.802720
 20
5.971680
 11
5.802280
 21
6.714400
 12
5.844520
 22
5.954960
 13
5.844080
 23
6.697680
  0
POLYLINE
  8
0
  6
CONTINUOUS
 66
     1
 40
0.000000
 41
0.000000
  0
VERTEX
  8
0
  6
CONTINUOUS
 10
5.802720
 20
5.971680
  0
VERTEX
  8
0
  6
CONTINUOUS
 10
5.802280
 20
6.714400
  0
VERTEX
  8
0
  6
CONTINUOUS
 10
5.844080
 20
6.697680
  0
VERTEX
  8
0
  6
CONTINUOUS
 10
5.844520
 20
5.954960
  0
VERTEX
  8
0
  6
CONTINUOUS
 10
5.802720
 20
5.971680
  0
SEQEND
  8
0
  0
SOLID
  8
0
 62
    15
 10
5.844520
 20
5.954960
 11
5.844080
 21
6.697680
 12
5.884560
 22
5.944840
 13
5.884120
 23
6.687560
  0
POLYLINE
  8
0
  6
CONTINUOUS
 66
     1
 40
0.000000
 41
0.000000
  0
VERTEX
  8
0
  6
CONTINUOUS
 10
5.844520
 20
5.954960
  0
VERTEX
  8
0
  6
CONTINUOUS
 10
5.844080
 20
6.697680
  0
VERTEX
  8
0
  6
CONTINUOUS
 10
5.884120
 20
6.687560
  0
VERTEX
  8
0
  6
CONTINUOUS
 10
5.884560
 20
5.944840
  0
VERTEX
  8
0
  6
CONTINUOUS
 10
5.844520
 20
5.954960
  0
SEQEND
  8
0
  0
SOLID
  8
0
 62
    15
 10
5.884560
 20
5.944840
 11
5.884120
 21
6.687560
 12
5.921080
 22
5.941320
 13
5.920640
 23
6.684040
  0
POLYLINE
  8
0
  6
CONTINUOUS
 66
     1
 40
0.000000
 41
0.000000
  0
VERTEX
  8
0
  6
CONTINUOUS
 10
5.884560
 20
5.944840
  0
VERTEX
  8
0
  6
CONTINUOUS
 10
5.884120
 20
6.687560
  0
VERTEX
  8
0
  6
CONTINUOUS
 10
5.920640
 20
6.684040
  0
VERTEX
  8
0
  6
CONTINUOUS
 10
5.921080
 20
5.941320
  0
VERTEX
  8
0
  6
CONTINUOUS
 10
5.884560
 20
5.944840
  0
SEQEND
  8
0
  0
POLYLINE
  8
0
  6
CONTINUOUS
 66
     1
 40
0.000000
 41
0.000000
  0
VERTEX
  8
0
  6
CONTINUOUS
 10
5.921080
 20
5.801400
  0
VERTEX
  8
0
  6
CONTINUOUS
 10
2.144560
 20
5.801400
  0
VERTEX
  8
0
  6
CONTINUOUS
 10
2.144560
 20
6.666440
  0
VERTEX
  8
0
  6
CONTINUOUS
 10
3.295160
 20
6.666440
  0
VERTEX
  8
0
  6
CONTINUOUS
 10
3.329040
 20
6.515080
  0
VERTEX
  8
0
  6
CONTINUOUS
 10
3.552560
 20
6.464040
  0
VERTEX
  8
0
  6
CONTINUOUS
 10
3.580720
 20
6.507160
  0
VERTEX
  8
0
  6
CONTINUOUS
 10
3.608880
 20
6.544120
  0
VERTEX
  8
0
  6
CONTINUOUS
 10
3.636600
 20
6.574040
  0
VERTEX
  8
0
  6
CONTINUOUS
 10
3.664320
 20
6.598240
  0
VERTEX
  8
0
  6
CONTINUOUS
 10
3.692040
 20
6.617160
  0
VERTEX
  8
0
  6
CONTINUOUS
 10
3.719760
 20
6.630800
  0
VERTEX
  8
0
  6
CONTINUOUS
 10
3.747040
 20
6.639160
  0
VERTEX
  8
0
  6
CONTINUOUS
 10
3.774320
 20
6.643560
  0
VERTEX
  8
0
  6
CONTINUOUS
 10
3.828440
 20
6.640480
  0
VERTEX
  8
0
  6
CONTINUOUS
 10
3.882560
 20
6.624640
  0
VERTEX
  8
0
  6
CONTINUOUS
 10
3.935800
 20
6.599120
  0
VERTEX
  8
0
  6
CONTINUOUS
 10
4.176480
 20
6.449080
  0
VERTEX
  8
0
  6
CONTINUOUS
 10
4.315520
 20
6.365480
  0
VERTEX
  8
0
  6
CONTINUOUS
 10
4.471280
 20
6.277920
  0
VERTEX
  8
0
  6
CONTINUOUS
 10
4.632760
 20
6.193880
  0
VERTEX
  8
0
  6
CONTINUOUS
 10
4.712840
 20
6.156480
  0
VERTEX
  8
0
  6
CONTINUOUS
 10
4.790720
 20
6.123040
  0
VERTEX
  8
0
  6
CONTINUOUS
 10
4.864640
 20
6.095320
  0
VERTEX
  8
0
  6
CONTINUOUS
 10
4.933720
 20
6.074200
  0
VERTEX
  8
0
  6
CONTINUOUS
 10
4.997080
 20
6.060560
  0
VERTEX
  8
0
  6
CONTINUOUS
 10
5.052520
 20
6.055280
  0
VERTEX
  8
0
  6
CONTINUOUS
 10
5.112800
 20
6.055720
  0
VERTEX
  8
0
  6
CONTINUOUS
 10
5.174840
 20
6.064960
  0
VERTEX
  8
0
  6
CONTINUOUS
 10
5.235560
 20
6.080360
  0
VERTEX
  8
0
  6
CONTINUOUS
 10
5.291880
 20
6.099720
  0
VERTEX
  8
0
  6
CONTINUOUS
 10
5.340720
 20
6.119520
  0
VERTEX
  8
0
  6
CONTINUOUS
 10
5.405400
 20
6.149880
  0
VERTEX
  8
0
  6
CONTINUOUS
 10
5.414640
 20
6.154720
  0
VERTEX
  8
0
  6
CONTINUOUS
 10
5.628040
 20
6.154720
  0
VERTEX
  8
0
  6
CONTINUOUS
 10
5.652240
 20
6.104560
  0
VERTEX
  8
0
  6
CONTINUOUS
 10
5.683920
 20
6.061440
  0
VERTEX
  8
0
  6
CONTINUOUS
 10
5.720440
 20
6.024920
  0
VERTEX
  8
0
  6
CONTINUOUS
 10
5.760920
 20
5.995000
  0
VERTEX
  8
0
  6
CONTINUOUS
 10
5.802720
 20
5.971680
  0
VERTEX
  8
0
  6
CONTINUOUS
 10
5.844520
 20
5.954960
  0
VERTEX
  8
0
  6
CONTINUOUS
 10
5.884560
 20
5.944840
  0
VERTEX
  8
0
  6
CONTINUOUS
 10
5.921080
 20
5.941320
  0
VERTEX
  8
0
  6
CONTINUOUS
 10
5.921080
 20
5.801400
  0
SEQEND
  8
0
  0
TEXT
  8
0
 10
3.582040
 20
5.555000
 40
0.138258
  1
BA  1347
 41
1.000000
  7
SN0
 71
     0
 72
     5
 11
4.264722
 21
5.555000
  0
TEXT
  8
0
 10
3.582040
 20
5.363160
 40
0.138258
  1
7/8" x 3-3/4"
 41
1.000000
  7
SN0
 71
     0
 72
     5
 11
4.483598
 21
5.363160
  0
TEXT
  8
0
 10
2.391400
 20
8.332280
 40
0.138258
  1
BA  1347
 41
1.000000
  7
SN0
 71
     0
 72
     5
 11
3.074082
 21
8.332280
  0
TEXT
  8
0
 10
2.391400
 20
8.140880
 40
0.138258
  1
7/8" x 3-3/4"
 41
1.000000
  7
SN0
 71
     0
 72
     5
 11
3.292958
 21
8.140880
  0
ENDSEC
  0
EOF
