  0
SECTION
  2
HEADER
  9
$ACADVER
  1
AC1006
  9
$EXTMIN
 10
1.936440
 20
1.247840
  9
$EXTMAX
 10
6.512000
 20
5.873120
  9
$LTSCALE
 40
0.044000
  9
$PDMODE
 70
    35
  9
$PDSIZE
 40
0.035200
  0
ENDSEC
  0
SECTION
  2
TABLES
  0
TABLE
  2
LTYPE
 70
     9
  0
LTYPE
  2
CONTINUOUS
 70
    64
  3
Solid line
 72
    65
 73
     0
 40
0.000000
  0
LTYPE
  2
DASHED
 70
    64
  3
__ __ __ __ __ __ __ __ __ __ __ __ __ __ __
 72
    65
 73
     2
 40
0.000330
 49
0.000220
 49
-0.000110
  0
LTYPE
  2
HIDDEN
 70
    64
  3
 _ _ _ _ _ _ _ _ _ _ _ _ _ _ _ _ _ _ _ _ _ _
 72
    65
 73
     2
 40
0.000165
 49
0.000110
 49
-0.000055
  0
LTYPE
  2
CENTER
 70
    64
  3
____ _ ____ _ ____ _ ____ _ ____ _ ____ _ ____
 72
    65
 73
     4
 40
0.000880
 49
0.000550
 49
-0.000110
 49
0.000110
 49
-0.000110
  0
LTYPE
  2
PHANTOM
 70
    64
  3
_____ _ _ _____ _ _ _____ _ _ _____ _ _ ____
 72
    65
 73
     6
 40
0.001100
 49
0.000550
 49
-0.000110
 49
0.000110
 49
-0.000110
 49
0.000110
 49
-0.000110
  0
LTYPE
  2
DOT
 70
    64
  3
...............................................
 72
    65
 73
     2
 40
0.000110
 49
0.000000
 49
-0.000110
  0
LTYPE
  2
DASHDOT
 70
    64
  3
__ . __ . __ . __ . __ . __ . __ . __ . __ . __
 72
    65
 73
     4
 40
0.000440
 49
0.000220
 49
-0.000110
 49
0.000000
 49
-0.000110
  0
LTYPE
  2
BORDER
 70
    64
  3
__ __ . __ __ . __ __ . __ __ . __ __ . __ __
 72
    65
 73
     6
 40
0.000770
 49
0.000220
 49
-0.000110
 49
0.000220
 49
-0.000110
 49
0.000000
 49
-0.000110
  0
LTYPE
  2
DIVIDE
 70
    64
  3
__ . . __ . . __ . . __ . . __ . . __ . . __
 72
    65
 73
     6
 40
0.000550
 49
0.000220
 49
-0.000110
 49
0.000000
 49
-0.000110
 49
0.000000
 49
-0.000110
  0
LTYPE
  2
DOTDOT
 70
    64
  3
 . .  . .  . .  . .  . .  . . 
 72
    65
 73
     5
 40
0.000242
 49
-0.000110
 49
0.000000
 49
-0.000110
 49
0.000000
 49
-0.000110
  0
ENDTAB
  0
TABLE
  2
STYLE
 70
     2
  0
STYLE
 70
     0
  2
SN0
 40
0.000000
 41
0.000440
 50
0.000000
 71
     0
 42
0.000000
  3
ROMAND
  0
STYLE
 70
    68
  2
SV0
 40
0.000000
 41
0.000440
 50
0.000000
 71
     0
 42
0.000000
  3
ROMAND
  0
ENDTAB
  0
TABLE
  2
LAYER
 70
     3
  0
LAYER
  2
FOREGROUND
 70
    64
 62
     7
  6
CONTINUOUS
  0
LAYER
  2
BACKGROUND
 70
    65
 62
    -7
  6
CONTINUOUS
  0
LAYER
  2
0
 70
    64
 62
     7
  6
CONTINUOUS
  0
ENDTAB
  0
ENDSEC
  0
SECTION
  2
ENTITIES
  0
POLYLINE
  8
FOREGROUND
  6
CONTINUOUS
 66
     1
 40
0.000000
 41
0.000000
  0
VERTEX
  8
FOREGROUND
  6
CONTINUOUS
 10
0.000000
 20
7.120960
  0
VERTEX
  8
FOREGROUND
  6
CONTINUOUS
 10
8.499920
 20
7.120960
  0
VERTEX
  8
FOREGROUND
  6
CONTINUOUS
 10
8.499920
 20
-3.879040
  0
VERTEX
  8
FOREGROUND
  6
CONTINUOUS
 10
0.000000
 20
-3.879040
  0
VERTEX
  8
FOREGROUND
  6
CONTINUOUS
 10
0.000000
 20
7.120960
  0
SEQEND
  8
0
  0
POLYLINE
  8
FOREGROUND
  6
CONTINUOUS
 66
     1
 40
0.000000
 41
0.000000
  0
VERTEX
  8
FOREGROUND
  6
CONTINUOUS
 10
0.000000
 20
7.120960
  0
VERTEX
  8
FOREGROUND
  6
CONTINUOUS
 10
8.499920
 20
7.120960
  0
VERTEX
  8
FOREGROUND
  6
CONTINUOUS
 10
8.499920
 20
-3.879040
  0
VERTEX
  8
FOREGROUND
  6
CONTINUOUS
 10
0.000000
 20
-3.879040
  0
VERTEX
  8
FOREGROUND
  6
CONTINUOUS
 10
0.000000
 20
7.120960
  0
SEQEND
  8
0
  0
POLYLINE
  8
0
  6
CONTINUOUS
 66
     1
 40
0.014080
 41
0.014080
  0
VERTEX
  8
0
  6
CONTINUOUS
 10
1.984400
 20
5.865640
  0
VERTEX
  8
0
  6
CONTINUOUS
 10
2.708200
 20
5.865200
  0
VERTEX
  8
0
  6
CONTINUOUS
 10
2.722720
 20
5.862120
  0
VERTEX
  8
0
  6
CONTINUOUS
 10
2.735040
 20
5.854200
  0
VERTEX
  8
0
  6
CONTINUOUS
 10
2.752640
 20
5.829560
  0
VERTEX
  8
0
  6
CONTINUOUS
 10
2.773760
 20
5.794360
  0
VERTEX
  8
0
  6
CONTINUOUS
 10
2.794000
 20
5.770600
  0
VERTEX
  8
0
  6
CONTINUOUS
 10
2.812040
 20
5.756520
  0
VERTEX
  8
0
  6
CONTINUOUS
 10
2.834480
 20
5.744640
  0
VERTEX
  8
0
  6
CONTINUOUS
 10
2.862200
 20
5.737160
  0
VERTEX
  8
0
  6
CONTINUOUS
 10
2.895200
 20
5.734080
  0
VERTEX
  8
0
  6
CONTINUOUS
 10
5.591080
 20
5.734080
  0
VERTEX
  8
0
  6
CONTINUOUS
 10
5.624080
 20
5.737160
  0
VERTEX
  8
0
  6
CONTINUOUS
 10
5.651800
 20
5.744640
  0
VERTEX
  8
0
  6
CONTINUOUS
 10
5.674240
 20
5.756520
  0
VERTEX
  8
0
  6
CONTINUOUS
 10
5.692280
 20
5.770600
  0
VERTEX
  8
0
  6
CONTINUOUS
 10
5.706800
 20
5.786440
  0
VERTEX
  8
0
  6
CONTINUOUS
 10
5.727040
 20
5.816800
  0
VERTEX
  8
0
  6
CONTINUOUS
 10
5.745960
 20
5.847600
  0
VERTEX
  8
0
  6
CONTINUOUS
 10
5.757400
 20
5.858600
  0
VERTEX
  8
0
  6
CONTINUOUS
 10
5.770600
 20
5.864320
  0
VERTEX
  8
0
  6
CONTINUOUS
 10
5.787320
 20
5.865640
  0
VERTEX
  8
0
  6
CONTINUOUS
 10
6.501880
 20
5.865640
  0
VERTEX
  8
0
  6
CONTINUOUS
 10
6.501880
 20
5.119400
  0
VERTEX
  8
0
  6
CONTINUOUS
 10
1.978680
 20
5.119400
  0
VERTEX
  8
0
  6
CONTINUOUS
 10
1.978680
 20
5.863440
  0
VERTEX
  8
0
  6
CONTINUOUS
 10
1.984400
 20
5.865640
  0
SEQEND
  8
0
  0
POLYLINE
  8
0
  6
CONTINUOUS
 66
     1
 40
0.000000
 41
0.000000
  0
VERTEX
  8
0
  6
CONTINUOUS
 10
1.994080
 20
1.994080
  0
VERTEX
  8
0
  6
CONTINUOUS
 10
2.717880
 20
1.993640
  0
VERTEX
  8
0
  6
CONTINUOUS
 10
2.732400
 20
1.990560
  0
VERTEX
  8
0
  6
CONTINUOUS
 10
2.739000
 20
1.987480
  0
VERTEX
  8
0
  6
CONTINUOUS
 10
2.750440
 20
1.976480
  0
VERTEX
  8
0
  6
CONTINUOUS
 10
2.783440
 20
1.923240
  0
VERTEX
  8
0
  6
CONTINUOUS
 10
2.804120
 20
1.899480
  0
VERTEX
  8
0
  6
CONTINUOUS
 10
2.822160
 20
1.884960
  0
VERTEX
  8
0
  6
CONTINUOUS
 10
2.844600
 20
1.873520
  0
VERTEX
  8
0
  6
CONTINUOUS
 10
2.857360
 20
1.868680
  0
VERTEX
  8
0
  6
CONTINUOUS
 10
2.887720
 20
1.863400
  0
VERTEX
  8
0
  6
CONTINUOUS
 10
2.904880
 20
1.862520
  0
VERTEX
  8
0
  6
CONTINUOUS
 10
5.600760
 20
1.862520
  0
VERTEX
  8
0
  6
CONTINUOUS
 10
5.633760
 20
1.865600
  0
VERTEX
  8
0
  6
CONTINUOUS
 10
5.648280
 20
1.868680
  0
VERTEX
  8
0
  6
CONTINUOUS
 10
5.673360
 20
1.878800
  0
VERTEX
  8
0
  6
CONTINUOUS
 10
5.693600
 20
1.892000
  0
VERTEX
  8
0
  6
CONTINUOUS
 10
5.716480
 20
1.915320
  0
VERTEX
  8
0
  6
CONTINUOUS
 10
5.736720
 20
1.945680
  0
VERTEX
  8
0
  6
CONTINUOUS
 10
5.755640
 20
1.976480
  0
VERTEX
  8
0
  6
CONTINUOUS
 10
5.767080
 20
1.987480
  0
VERTEX
  8
0
  6
CONTINUOUS
 10
5.780280
 20
1.992760
  0
VERTEX
  8
0
  6
CONTINUOUS
 10
5.797000
 20
1.994080
  0
VERTEX
  8
0
  6
CONTINUOUS
 10
6.511560
 20
1.994080
  0
VERTEX
  8
0
  6
CONTINUOUS
 10
6.511560
 20
1.247840
  0
VERTEX
  8
0
  6
CONTINUOUS
 10
1.988360
 20
1.247840
  0
VERTEX
  8
0
  6
CONTINUOUS
 10
1.988360
 20
1.991880
  0
VERTEX
  8
0
  6
CONTINUOUS
 10
1.994080
 20
1.994080
  0
SEQEND
  8
0
  0
SOLID
  8
0
 62
    15
 10
1.945240
 20
3.749240
 11
1.943040
 21
4.495040
 12
2.659800
 22
3.749240
 13
2.657600
 23
4.495040
  0
POLYLINE
  8
0
  6
CONTINUOUS
 66
     1
 40
0.000000
 41
0.000000
  0
VERTEX
  8
0
  6
CONTINUOUS
 10
1.945240
 20
3.749240
  0
VERTEX
  8
0
  6
CONTINUOUS
 10
1.943040
 20
4.495040
  0
VERTEX
  8
0
  6
CONTINUOUS
 10
2.657600
 20
4.495040
  0
VERTEX
  8
0
  6
CONTINUOUS
 10
2.659800
 20
3.749240
  0
VERTEX
  8
0
  6
CONTINUOUS
 10
1.945240
 20
3.749240
  0
SEQEND
  8
0
  0
SOLID
  8
0
 62
    15
 10
2.659800
 20
3.749240
 11
2.657600
 21
4.495040
 12
2.676520
 22
3.747920
 13
2.674320
 23
4.493280
  0
POLYLINE
  8
0
  6
CONTINUOUS
 66
     1
 40
0.000000
 41
0.000000
  0
VERTEX
  8
0
  6
CONTINUOUS
 10
2.659800
 20
3.749240
  0
VERTEX
  8
0
  6
CONTINUOUS
 10
2.657600
 20
4.495040
  0
VERTEX
  8
0
  6
CONTINUOUS
 10
2.674320
 20
4.493280
  0
VERTEX
  8
0
  6
CONTINUOUS
 10
2.676520
 20
3.747920
  0
VERTEX
  8
0
  6
CONTINUOUS
 10
2.659800
 20
3.749240
  0
SEQEND
  8
0
  0
SOLID
  8
0
 62
    15
 10
2.676520
 20
3.747920
 11
2.674320
 21
4.493280
 12
2.689720
 22
3.742200
 13
2.687520
 23
4.488000
  0
POLYLINE
  8
0
  6
CONTINUOUS
 66
     1
 40
0.000000
 41
0.000000
  0
VERTEX
  8
0
  6
CONTINUOUS
 10
2.676520
 20
3.747920
  0
VERTEX
  8
0
  6
CONTINUOUS
 10
2.674320
 20
4.493280
  0
VERTEX
  8
0
  6
CONTINUOUS
 10
2.687520
 20
4.488000
  0
VERTEX
  8
0
  6
CONTINUOUS
 10
2.689720
 20
3.742200
  0
VERTEX
  8
0
  6
CONTINUOUS
 10
2.676520
 20
3.747920
  0
SEQEND
  8
0
  0
SOLID
  8
0
 62
    15
 10
2.689720
 20
3.742200
 11
2.687520
 21
4.488000
 12
2.701160
 22
3.731640
 13
2.698960
 23
4.477000
  0
POLYLINE
  8
0
  6
CONTINUOUS
 66
     1
 40
0.000000
 41
0.000000
  0
VERTEX
  8
0
  6
CONTINUOUS
 10
2.689720
 20
3.742200
  0
VERTEX
  8
0
  6
CONTINUOUS
 10
2.687520
 20
4.488000
  0
VERTEX
  8
0
  6
CONTINUOUS
 10
2.698960
 20
4.477000
  0
VERTEX
  8
0
  6
CONTINUOUS
 10
2.701160
 20
3.731640
  0
VERTEX
  8
0
  6
CONTINUOUS
 10
2.689720
 20
3.742200
  0
SEQEND
  8
0
  0
SOLID
  8
0
 62
    15
 10
2.701160
 20
3.731640
 11
2.698960
 21
4.477000
 12
2.713040
 22
3.713600
 13
2.710840
 23
4.458960
  0
POLYLINE
  8
0
  6
CONTINUOUS
 66
     1
 40
0.000000
 41
0.000000
  0
VERTEX
  8
0
  6
CONTINUOUS
 10
2.701160
 20
3.731640
  0
VERTEX
  8
0
  6
CONTINUOUS
 10
2.698960
 20
4.477000
  0
VERTEX
  8
0
  6
CONTINUOUS
 10
2.710840
 20
4.458960
  0
VERTEX
  8
0
  6
CONTINUOUS
 10
2.713040
 20
3.713600
  0
VERTEX
  8
0
  6
CONTINUOUS
 10
2.701160
 20
3.731640
  0
SEQEND
  8
0
  0
SOLID
  8
0
 62
    15
 10
2.713040
 20
3.713600
 11
2.710840
 21
4.458960
 12
2.728880
 22
3.685880
 13
2.726680
 23
4.431680
  0
POLYLINE
  8
0
  6
CONTINUOUS
 66
     1
 40
0.000000
 41
0.000000
  0
VERTEX
  8
0
  6
CONTINUOUS
 10
2.713040
 20
3.713600
  0
VERTEX
  8
0
  6
CONTINUOUS
 10
2.710840
 20
4.458960
  0
VERTEX
  8
0
  6
CONTINUOUS
 10
2.726680
 20
4.431680
  0
VERTEX
  8
0
  6
CONTINUOUS
 10
2.728880
 20
3.685880
  0
VERTEX
  8
0
  6
CONTINUOUS
 10
2.713040
 20
3.713600
  0
SEQEND
  8
0
  0
SOLID
  8
0
 62
    15
 10
2.728880
 20
3.685880
 11
2.726680
 21
4.431680
 12
2.754840
 22
3.654640
 13
2.752640
 23
4.400440
  0
POLYLINE
  8
0
  6
CONTINUOUS
 66
     1
 40
0.000000
 41
0.000000
  0
VERTEX
  8
0
  6
CONTINUOUS
 10
2.728880
 20
3.685880
  0
VERTEX
  8
0
  6
CONTINUOUS
 10
2.726680
 20
4.431680
  0
VERTEX
  8
0
  6
CONTINUOUS
 10
2.752640
 20
4.400440
  0
VERTEX
  8
0
  6
CONTINUOUS
 10
2.754840
 20
3.654640
  0
VERTEX
  8
0
  6
CONTINUOUS
 10
2.728880
 20
3.685880
  0
SEQEND
  8
0
  0
SOLID
  8
0
 62
    15
 10
2.754840
 20
3.654640
 11
2.752640
 21
4.400440
 12
2.772880
 22
3.640560
 13
2.770680
 23
4.385920
  0
POLYLINE
  8
0
  6
CONTINUOUS
 66
     1
 40
0.000000
 41
0.000000
  0
VERTEX
  8
0
  6
CONTINUOUS
 10
2.754840
 20
3.654640
  0
VERTEX
  8
0
  6
CONTINUOUS
 10
2.752640
 20
4.400440
  0
VERTEX
  8
0
  6
CONTINUOUS
 10
2.770680
 20
4.385920
  0
VERTEX
  8
0
  6
CONTINUOUS
 10
2.772880
 20
3.640560
  0
VERTEX
  8
0
  6
CONTINUOUS
 10
2.754840
 20
3.654640
  0
SEQEND
  8
0
  0
SOLID
  8
0
 62
    15
 10
2.772880
 20
3.640560
 11
2.770680
 21
4.385920
 12
2.795320
 22
3.628680
 13
2.793120
 23
4.374480
  0
POLYLINE
  8
0
  6
CONTINUOUS
 66
     1
 40
0.000000
 41
0.000000
  0
VERTEX
  8
0
  6
CONTINUOUS
 10
2.772880
 20
3.640560
  0
VERTEX
  8
0
  6
CONTINUOUS
 10
2.770680
 20
4.385920
  0
VERTEX
  8
0
  6
CONTINUOUS
 10
2.793120
 20
4.374480
  0
VERTEX
  8
0
  6
CONTINUOUS
 10
2.795320
 20
3.628680
  0
VERTEX
  8
0
  6
CONTINUOUS
 10
2.772880
 20
3.640560
  0
SEQEND
  8
0
  0
SOLID
  8
0
 62
    15
 10
2.795320
 20
3.628680
 11
2.793120
 21
4.374480
 12
2.823040
 22
3.620760
 13
2.820840
 23
4.366560
  0
POLYLINE
  8
0
  6
CONTINUOUS
 66
     1
 40
0.000000
 41
0.000000
  0
VERTEX
  8
0
  6
CONTINUOUS
 10
2.795320
 20
3.628680
  0
VERTEX
  8
0
  6
CONTINUOUS
 10
2.793120
 20
4.374480
  0
VERTEX
  8
0
  6
CONTINUOUS
 10
2.820840
 20
4.366560
  0
VERTEX
  8
0
  6
CONTINUOUS
 10
2.823040
 20
3.620760
  0
VERTEX
  8
0
  6
CONTINUOUS
 10
2.795320
 20
3.628680
  0
SEQEND
  8
0
  0
SOLID
  8
0
 62
    15
 10
2.823040
 20
3.620760
 11
2.820840
 21
4.366560
 12
2.856040
 22
3.617680
 13
2.853840
 23
4.363480
  0
POLYLINE
  8
0
  6
CONTINUOUS
 66
     1
 40
0.000000
 41
0.000000
  0
VERTEX
  8
0
  6
CONTINUOUS
 10
2.823040
 20
3.620760
  0
VERTEX
  8
0
  6
CONTINUOUS
 10
2.820840
 20
4.366560
  0
VERTEX
  8
0
  6
CONTINUOUS
 10
2.853840
 20
4.363480
  0
VERTEX
  8
0
  6
CONTINUOUS
 10
2.856040
 20
3.617680
  0
VERTEX
  8
0
  6
CONTINUOUS
 10
2.823040
 20
3.620760
  0
SEQEND
  8
0
  0
SOLID
  8
0
 62
    15
 10
2.856040
 20
3.617680
 11
2.853840
 21
4.363480
 12
5.551920
 22
3.617680
 13
5.549720
 23
4.363480
  0
POLYLINE
  8
0
  6
CONTINUOUS
 66
     1
 40
0.000000
 41
0.000000
  0
VERTEX
  8
0
  6
CONTINUOUS
 10
2.856040
 20
3.617680
  0
VERTEX
  8
0
  6
CONTINUOUS
 10
2.853840
 20
4.363480
  0
VERTEX
  8
0
  6
CONTINUOUS
 10
5.549720
 20
4.363480
  0
VERTEX
  8
0
  6
CONTINUOUS
 10
5.551920
 20
3.617680
  0
VERTEX
  8
0
  6
CONTINUOUS
 10
2.856040
 20
3.617680
  0
SEQEND
  8
0
  0
SOLID
  8
0
 62
    15
 10
5.551920
 20
3.617680
 11
5.549720
 21
4.363480
 12
5.584920
 22
3.620760
 13
5.582720
 23
4.366560
  0
POLYLINE
  8
0
  6
CONTINUOUS
 66
     1
 40
0.000000
 41
0.000000
  0
VERTEX
  8
0
  6
CONTINUOUS
 10
5.551920
 20
3.617680
  0
VERTEX
  8
0
  6
CONTINUOUS
 10
5.549720
 20
4.363480
  0
VERTEX
  8
0
  6
CONTINUOUS
 10
5.582720
 20
4.366560
  0
VERTEX
  8
0
  6
CONTINUOUS
 10
5.584920
 20
3.620760
  0
VERTEX
  8
0
  6
CONTINUOUS
 10
5.551920
 20
3.617680
  0
SEQEND
  8
0
  0
SOLID
  8
0
 62
    15
 10
5.584920
 20
3.620760
 11
5.582720
 21
4.366560
 12
5.612200
 22
3.628680
 13
5.610000
 23
4.374480
  0
POLYLINE
  8
0
  6
CONTINUOUS
 66
     1
 40
0.000000
 41
0.000000
  0
VERTEX
  8
0
  6
CONTINUOUS
 10
5.584920
 20
3.620760
  0
VERTEX
  8
0
  6
CONTINUOUS
 10
5.582720
 20
4.366560
  0
VERTEX
  8
0
  6
CONTINUOUS
 10
5.610000
 20
4.374480
  0
VERTEX
  8
0
  6
CONTINUOUS
 10
5.612200
 20
3.628680
  0
VERTEX
  8
0
  6
CONTINUOUS
 10
5.584920
 20
3.620760
  0
SEQEND
  8
0
  0
SOLID
  8
0
 62
    15
 10
5.612200
 20
3.628680
 11
5.610000
 21
4.374480
 12
5.634640
 22
3.640560
 13
5.632440
 23
4.385920
  0
POLYLINE
  8
0
  6
CONTINUOUS
 66
     1
 40
0.000000
 41
0.000000
  0
VERTEX
  8
0
  6
CONTINUOUS
 10
5.612200
 20
3.628680
  0
VERTEX
  8
0
  6
CONTINUOUS
 10
5.610000
 20
4.374480
  0
VERTEX
  8
0
  6
CONTINUOUS
 10
5.632440
 20
4.385920
  0
VERTEX
  8
0
  6
CONTINUOUS
 10
5.634640
 20
3.640560
  0
VERTEX
  8
0
  6
CONTINUOUS
 10
5.612200
 20
3.628680
  0
SEQEND
  8
0
  0
SOLID
  8
0
 62
    15
 10
5.634640
 20
3.640560
 11
5.632440
 21
4.385920
 12
5.653120
 22
3.654640
 13
5.650920
 23
4.400440
  0
POLYLINE
  8
0
  6
CONTINUOUS
 66
     1
 40
0.000000
 41
0.000000
  0
VERTEX
  8
0
  6
CONTINUOUS
 10
5.634640
 20
3.640560
  0
VERTEX
  8
0
  6
CONTINUOUS
 10
5.632440
 20
4.385920
  0
VERTEX
  8
0
  6
CONTINUOUS
 10
5.650920
 20
4.400440
  0
VERTEX
  8
0
  6
CONTINUOUS
 10
5.653120
 20
3.654640
  0
VERTEX
  8
0
  6
CONTINUOUS
 10
5.634640
 20
3.640560
  0
SEQEND
  8
0
  0
SOLID
  8
0
 62
    15
 10
5.653120
 20
3.654640
 11
5.650920
 21
4.400440
 12
5.678640
 22
3.685880
 13
5.676440
 23
4.431680
  0
POLYLINE
  8
0
  6
CONTINUOUS
 66
     1
 40
0.000000
 41
0.000000
  0
VERTEX
  8
0
  6
CONTINUOUS
 10
5.653120
 20
3.654640
  0
VERTEX
  8
0
  6
CONTINUOUS
 10
5.650920
 20
4.400440
  0
VERTEX
  8
0
  6
CONTINUOUS
 10
5.676440
 20
4.431680
  0
VERTEX
  8
0
  6
CONTINUOUS
 10
5.678640
 20
3.685880
  0
VERTEX
  8
0
  6
CONTINUOUS
 10
5.653120
 20
3.654640
  0
SEQEND
  8
0
  0
SOLID
  8
0
 62
    15
 10
5.678640
 20
3.685880
 11
5.676440
 21
4.431680
 12
5.694480
 22
3.713600
 13
5.692280
 23
4.458960
  0
POLYLINE
  8
0
  6
CONTINUOUS
 66
     1
 40
0.000000
 41
0.000000
  0
VERTEX
  8
0
  6
CONTINUOUS
 10
5.678640
 20
3.685880
  0
VERTEX
  8
0
  6
CONTINUOUS
 10
5.676440
 20
4.431680
  0
VERTEX
  8
0
  6
CONTINUOUS
 10
5.692280
 20
4.458960
  0
VERTEX
  8
0
  6
CONTINUOUS
 10
5.694480
 20
3.713600
  0
VERTEX
  8
0
  6
CONTINUOUS
 10
5.678640
 20
3.685880
  0
SEQEND
  8
0
  0
SOLID
  8
0
 62
    15
 10
5.694480
 20
3.713600
 11
5.692280
 21
4.458960
 12
5.706360
 22
3.731640
 13
5.704160
 23
4.477000
  0
POLYLINE
  8
0
  6
CONTINUOUS
 66
     1
 40
0.000000
 41
0.000000
  0
VERTEX
  8
0
  6
CONTINUOUS
 10
5.694480
 20
3.713600
  0
VERTEX
  8
0
  6
CONTINUOUS
 10
5.692280
 20
4.458960
  0
VERTEX
  8
0
  6
CONTINUOUS
 10
5.704160
 20
4.477000
  0
VERTEX
  8
0
  6
CONTINUOUS
 10
5.706360
 20
3.731640
  0
VERTEX
  8
0
  6
CONTINUOUS
 10
5.694480
 20
3.713600
  0
SEQEND
  8
0
  0
SOLID
  8
0
 62
    15
 10
5.706360
 20
3.731640
 11
5.704160
 21
4.477000
 12
5.718240
 22
3.742200
 13
5.716040
 23
4.488000
  0
POLYLINE
  8
0
  6
CONTINUOUS
 66
     1
 40
0.000000
 41
0.000000
  0
VERTEX
  8
0
  6
CONTINUOUS
 10
5.706360
 20
3.731640
  0
VERTEX
  8
0
  6
CONTINUOUS
 10
5.704160
 20
4.477000
  0
VERTEX
  8
0
  6
CONTINUOUS
 10
5.716040
 20
4.488000
  0
VERTEX
  8
0
  6
CONTINUOUS
 10
5.718240
 20
3.742200
  0
VERTEX
  8
0
  6
CONTINUOUS
 10
5.706360
 20
3.731640
  0
SEQEND
  8
0
  0
SOLID
  8
0
 62
    15
 10
5.718240
 20
3.742200
 11
5.716040
 21
4.488000
 12
5.731440
 22
3.747920
 13
5.729240
 23
4.493280
  0
POLYLINE
  8
0
  6
CONTINUOUS
 66
     1
 40
0.000000
 41
0.000000
  0
VERTEX
  8
0
  6
CONTINUOUS
 10
5.718240
 20
3.742200
  0
VERTEX
  8
0
  6
CONTINUOUS
 10
5.716040
 20
4.488000
  0
VERTEX
  8
0
  6
CONTINUOUS
 10
5.729240
 20
4.493280
  0
VERTEX
  8
0
  6
CONTINUOUS
 10
5.731440
 20
3.747920
  0
VERTEX
  8
0
  6
CONTINUOUS
 10
5.718240
 20
3.742200
  0
SEQEND
  8
0
  0
SOLID
  8
0
 62
    15
 10
5.731440
 20
3.747920
 11
5.729240
 21
4.493280
 12
5.748160
 22
3.749240
 13
5.745960
 23
4.495040
  0
POLYLINE
  8
0
  6
CONTINUOUS
 66
     1
 40
0.000000
 41
0.000000
  0
VERTEX
  8
0
  6
CONTINUOUS
 10
5.731440
 20
3.747920
  0
VERTEX
  8
0
  6
CONTINUOUS
 10
5.729240
 20
4.493280
  0
VERTEX
  8
0
  6
CONTINUOUS
 10
5.745960
 20
4.495040
  0
VERTEX
  8
0
  6
CONTINUOUS
 10
5.748160
 20
3.749240
  0
VERTEX
  8
0
  6
CONTINUOUS
 10
5.731440
 20
3.747920
  0
SEQEND
  8
0
  0
SOLID
  8
0
 62
    15
 10
5.748160
 20
3.749240
 11
5.745960
 21
4.495040
 12
6.462720
 22
3.749240
 13
6.460520
 23
4.495040
  0
POLYLINE
  8
0
  6
CONTINUOUS
 66
     1
 40
0.000000
 41
0.000000
  0
VERTEX
  8
0
  6
CONTINUOUS
 10
5.748160
 20
3.749240
  0
VERTEX
  8
0
  6
CONTINUOUS
 10
5.745960
 20
4.495040
  0
VERTEX
  8
0
  6
CONTINUOUS
 10
6.460520
 20
4.495040
  0
VERTEX
  8
0
  6
CONTINUOUS
 10
6.462720
 20
3.749240
  0
VERTEX
  8
0
  6
CONTINUOUS
 10
5.748160
 20
3.749240
  0
SEQEND
  8
0
  0
SOLID
  8
0
 62
    15
 10
1.939520
 20
3.003000
 11
1.937320
 21
3.748800
 12
1.939520
 22
3.747040
 13
1.937320
 23
4.492840
  0
POLYLINE
  8
0
  6
CONTINUOUS
 66
     1
 40
0.000000
 41
0.000000
  0
VERTEX
  8
0
  6
CONTINUOUS
 10
1.939520
 20
3.003000
  0
VERTEX
  8
0
  6
CONTINUOUS
 10
1.937320
 20
3.748800
  0
VERTEX
  8
0
  6
CONTINUOUS
 10
1.937320
 20
4.492840
  0
VERTEX
  8
0
  6
CONTINUOUS
 10
1.939520
 20
3.747040
  0
VERTEX
  8
0
  6
CONTINUOUS
 10
1.939520
 20
3.003000
  0
SEQEND
  8
0
  0
SOLID
  8
0
 62
    15
 10
1.939520
 20
3.747040
 11
1.937320
 21
4.492840
 12
1.945240
 22
3.749240
 13
1.943040
 23
4.495040
  0
POLYLINE
  8
0
  6
CONTINUOUS
 66
     1
 40
0.000000
 41
0.000000
  0
VERTEX
  8
0
  6
CONTINUOUS
 10
1.939520
 20
3.747040
  0
VERTEX
  8
0
  6
CONTINUOUS
 10
1.937320
 20
4.492840
  0
VERTEX
  8
0
  6
CONTINUOUS
 10
1.943040
 20
4.495040
  0
VERTEX
  8
0
  6
CONTINUOUS
 10
1.945240
 20
3.749240
  0
VERTEX
  8
0
  6
CONTINUOUS
 10
1.939520
 20
3.747040
  0
SEQEND
  8
0
  0
POLYLINE
  8
0
  6
CONTINUOUS
 66
     1
 40
0.000000
 41
0.000000
  0
VERTEX
  8
0
  6
CONTINUOUS
 10
1.945240
 20
3.749240
  0
VERTEX
  8
0
  6
CONTINUOUS
 10
2.659800
 20
3.749240
  0
VERTEX
  8
0
  6
CONTINUOUS
 10
2.676520
 20
3.747920
  0
VERTEX
  8
0
  6
CONTINUOUS
 10
2.689720
 20
3.742200
  0
VERTEX
  8
0
  6
CONTINUOUS
 10
2.701160
 20
3.731640
  0
VERTEX
  8
0
  6
CONTINUOUS
 10
2.713040
 20
3.713600
  0
VERTEX
  8
0
  6
CONTINUOUS
 10
2.728880
 20
3.685880
  0
VERTEX
  8
0
  6
CONTINUOUS
 10
2.754840
 20
3.654640
  0
VERTEX
  8
0
  6
CONTINUOUS
 10
2.772880
 20
3.640560
  0
VERTEX
  8
0
  6
CONTINUOUS
 10
2.795320
 20
3.628680
  0
VERTEX
  8
0
  6
CONTINUOUS
 10
2.823040
 20
3.620760
  0
VERTEX
  8
0
  6
CONTINUOUS
 10
2.856040
 20
3.617680
  0
VERTEX
  8
0
  6
CONTINUOUS
 10
5.551920
 20
3.617680
  0
VERTEX
  8
0
  6
CONTINUOUS
 10
5.584920
 20
3.620760
  0
VERTEX
  8
0
  6
CONTINUOUS
 10
5.612200
 20
3.628680
  0
VERTEX
  8
0
  6
CONTINUOUS
 10
5.634640
 20
3.640560
  0
VERTEX
  8
0
  6
CONTINUOUS
 10
5.653120
 20
3.654640
  0
VERTEX
  8
0
  6
CONTINUOUS
 10
5.678640
 20
3.685880
  0
VERTEX
  8
0
  6
CONTINUOUS
 10
5.694480
 20
3.713600
  0
VERTEX
  8
0
  6
CONTINUOUS
 10
5.706360
 20
3.731640
  0
VERTEX
  8
0
  6
CONTINUOUS
 10
5.718240
 20
3.742200
  0
VERTEX
  8
0
  6
CONTINUOUS
 10
5.731440
 20
3.747920
  0
VERTEX
  8
0
  6
CONTINUOUS
 10
5.748160
 20
3.749240
  0
VERTEX
  8
0
  6
CONTINUOUS
 10
6.462720
 20
3.749240
  0
VERTEX
  8
0
  6
CONTINUOUS
 10
6.462720
 20
3.003000
  0
VERTEX
  8
0
  6
CONTINUOUS
 10
1.939520
 20
3.003000
  0
VERTEX
  8
0
  6
CONTINUOUS
 10
1.939520
 20
3.747040
  0
VERTEX
  8
0
  6
CONTINUOUS
 10
1.945240
 20
3.749240
  0
SEQEND
  8
0
  0
TEXT
  8
0
 10
3.929640
 20
2.831840
 40
0.114480
  1
BA  1344
 41
1.000000
  7
SN0
 71
     0
 72
     5
 11
4.496006
 21
2.831840
  0
TEXT
  8
0
 10
3.839000
 20
2.672120
 40
0.114480
  1
3/4" x 4-1/2"
 41
1.000000
  7
SN0
 71
     0
 72
     5
 11
4.586908
 21
2.672120
  0
TEXT
  8
0
 10
3.958240
 20
5.365800
 40
0.114480
  1
BA  1344
 41
1.000000
  7
SN0
 71
     0
 72
     5
 11
4.524606
 21
5.365800
  0
TEXT
  8
0
 10
3.867160
 20
5.206080
 40
0.114480
  1
3/4" x 4-1/2"
 41
1.000000
  7
SN0
 71
     0
 72
     5
 11
4.615068
 21
5.206080
  0
ENDSEC
  0
EOF
