  0
SECTION
  2
HEADER
  9
$ACADVER
  1
AC1006
  9
$EXTMIN
 10
2.783440
 20
0.975040
  9
$EXTMAX
 10
5.864320
 20
6.238760
  9
$LTSCALE
 40
0.044000
  9
$PDMODE
 70
    35
  9
$PDSIZE
 40
0.035200
  0
ENDSEC
  0
SECTION
  2
TABLES
  0
TABLE
  2
LTYPE
 70
     9
  0
LTYPE
  2
CONTINUOUS
 70
    64
  3
Solid line
 72
    65
 73
     0
 40
0.000000
  0
LTYPE
  2
DASHED
 70
    64
  3
__ __ __ __ __ __ __ __ __ __ __ __ __ __ __
 72
    65
 73
     2
 40
0.000330
 49
0.000220
 49
-0.000110
  0
LTYPE
  2
HIDDEN
 70
    64
  3
 _ _ _ _ _ _ _ _ _ _ _ _ _ _ _ _ _ _ _ _ _ _
 72
    65
 73
     2
 40
0.000165
 49
0.000110
 49
-0.000055
  0
LTYPE
  2
CENTER
 70
    64
  3
____ _ ____ _ ____ _ ____ _ ____ _ ____ _ ____
 72
    65
 73
     4
 40
0.000880
 49
0.000550
 49
-0.000110
 49
0.000110
 49
-0.000110
  0
LTYPE
  2
PHANTOM
 70
    64
  3
_____ _ _ _____ _ _ _____ _ _ _____ _ _ ____
 72
    65
 73
     6
 40
0.001100
 49
0.000550
 49
-0.000110
 49
0.000110
 49
-0.000110
 49
0.000110
 49
-0.000110
  0
LTYPE
  2
DOT
 70
    64
  3
...............................................
 72
    65
 73
     2
 40
0.000110
 49
0.000000
 49
-0.000110
  0
LTYPE
  2
DASHDOT
 70
    64
  3
__ . __ . __ . __ . __ . __ . __ . __ . __ . __
 72
    65
 73
     4
 40
0.000440
 49
0.000220
 49
-0.000110
 49
0.000000
 49
-0.000110
  0
LTYPE
  2
BORDER
 70
    64
  3
__ __ . __ __ . __ __ . __ __ . __ __ . __ __
 72
    65
 73
     6
 40
0.000770
 49
0.000220
 49
-0.000110
 49
0.000220
 49
-0.000110
 49
0.000000
 49
-0.000110
  0
LTYPE
  2
DIVIDE
 70
    64
  3
__ . . __ . . __ . . __ . . __ . . __ . . __
 72
    65
 73
     6
 40
0.000550
 49
0.000220
 49
-0.000110
 49
0.000000
 49
-0.000110
 49
0.000000
 49
-0.000110
  0
LTYPE
  2
DOTDOT
 70
    64
  3
 . .  . .  . .  . .  . .  . . 
 72
    65
 73
     5
 40
0.000242
 49
-0.000110
 49
0.000000
 49
-0.000110
 49
0.000000
 49
-0.000110
  0
ENDTAB
  0
TABLE
  2
STYLE
 70
     4
  0
STYLE
 70
     0
  2
SN0
 40
0.000000
 41
0.000440
 50
0.000000
 71
     0
 42
0.000000
  3
ROMAND
  0
STYLE
 70
    68
  2
SV0
 40
0.000000
 41
0.000440
 50
0.000000
 71
     0
 42
0.000000
  3
ROMAND
  0
STYLE
 70
     0
  2
SN1
 40
0.000000
 41
0.000440
 50
0.000000
 71
     0
 42
0.000000
  3
ROMAND
  0
STYLE
 70
    68
  2
SV1
 40
0.000000
 41
0.000440
 50
0.000000
 71
     0
 42
0.000000
  3
ROMAND
  0
ENDTAB
  0
TABLE
  2
LAYER
 70
     3
  0
LAYER
  2
FOREGROUND
 70
    64
 62
     7
  6
CONTINUOUS
  0
LAYER
  2
BACKGROUND
 70
    65
 62
    -7
  6
CONTINUOUS
  0
LAYER
  2
0
 70
    64
 62
     7
  6
CONTINUOUS
  0
ENDTAB
  0
ENDSEC
  0
SECTION
  2
ENTITIES
  0
POLYLINE
  8
FOREGROUND
  6
CONTINUOUS
 66
     1
 40
0.000000
 41
0.000000
  0
VERTEX
  8
FOREGROUND
  6
CONTINUOUS
 10
0.000000
 20
7.213800
  0
VERTEX
  8
FOREGROUND
  6
CONTINUOUS
 10
8.499920
 20
7.213800
  0
VERTEX
  8
FOREGROUND
  6
CONTINUOUS
 10
8.499920
 20
-3.786200
  0
VERTEX
  8
FOREGROUND
  6
CONTINUOUS
 10
0.000000
 20
-3.786200
  0
VERTEX
  8
FOREGROUND
  6
CONTINUOUS
 10
0.000000
 20
7.213800
  0
SEQEND
  8
0
  0
POLYLINE
  8
FOREGROUND
  6
CONTINUOUS
 66
     1
 40
0.000000
 41
0.000000
  0
VERTEX
  8
FOREGROUND
  6
CONTINUOUS
 10
0.000000
 20
7.213800
  0
VERTEX
  8
FOREGROUND
  6
CONTINUOUS
 10
8.499920
 20
7.213800
  0
VERTEX
  8
FOREGROUND
  6
CONTINUOUS
 10
8.499920
 20
-3.786200
  0
VERTEX
  8
FOREGROUND
  6
CONTINUOUS
 10
0.000000
 20
-3.786200
  0
VERTEX
  8
FOREGROUND
  6
CONTINUOUS
 10
0.000000
 20
7.213800
  0
SEQEND
  8
0
  0
POLYLINE
  8
0
  6
CONTINUOUS
 66
     1
 40
0.014080
 41
0.014080
  0
VERTEX
  8
0
  6
CONTINUOUS
 10
2.791360
 20
5.375040
  0
VERTEX
  8
0
  6
CONTINUOUS
 10
2.791360
 20
5.550160
  0
VERTEX
  8
0
  6
CONTINUOUS
 10
2.857360
 20
5.552800
  0
VERTEX
  8
0
  6
CONTINUOUS
 10
2.892560
 20
5.556320
  0
VERTEX
  8
0
  6
CONTINUOUS
 10
2.965160
 20
5.568200
  0
VERTEX
  8
0
  6
CONTINUOUS
 10
3.002120
 20
5.577440
  0
VERTEX
  8
0
  6
CONTINUOUS
 10
3.056240
 20
5.595480
  0
VERTEX
  8
0
  6
CONTINUOUS
 10
3.091880
 20
5.610440
  0
VERTEX
  8
0
  6
CONTINUOUS
 10
3.142040
 20
5.638600
  0
VERTEX
  8
0
  6
CONTINUOUS
 10
3.173720
 20
5.661040
  0
VERTEX
  8
0
  6
CONTINUOUS
 10
3.202760
 20
5.687000
  0
VERTEX
  8
0
  6
CONTINUOUS
 10
3.229160
 20
5.716920
  0
VERTEX
  8
0
  6
CONTINUOUS
 10
3.252920
 20
5.749920
  0
VERTEX
  8
0
  6
CONTINUOUS
 10
3.272720
 20
5.787320
  0
VERTEX
  8
0
  6
CONTINUOUS
 10
3.289000
 20
5.829120
  0
VERTEX
  8
0
  6
CONTINUOUS
 10
3.442120
 20
5.829120
  0
VERTEX
  8
0
  6
CONTINUOUS
 10
3.462800
 20
5.861240
  0
VERTEX
  8
0
  6
CONTINUOUS
 10
3.485680
 20
5.889400
  0
VERTEX
  8
0
  6
CONTINUOUS
 10
3.510320
 20
5.914040
  0
VERTEX
  8
0
  6
CONTINUOUS
 10
3.535840
 20
5.935600
  0
VERTEX
  8
0
  6
CONTINUOUS
 10
3.576320
 20
5.962000
  0
VERTEX
  8
0
  6
CONTINUOUS
 10
3.617680
 20
5.982240
  0
VERTEX
  8
0
  6
CONTINUOUS
 10
3.644960
 20
5.993240
  0
VERTEX
  8
0
  6
CONTINUOUS
 10
3.697320
 20
6.008200
  0
VERTEX
  8
0
  6
CONTINUOUS
 10
3.743960
 20
6.016560
  0
VERTEX
  8
0
  6
CONTINUOUS
 10
3.790160
 20
6.020080
  0
VERTEX
  8
0
  6
CONTINUOUS
 10
3.809080
 20
6.020080
  0
VERTEX
  8
0
  6
CONTINUOUS
 10
3.826680
 20
6.134040
  0
VERTEX
  8
0
  6
CONTINUOUS
 10
3.872440
 20
6.132280
  0
VERTEX
  8
0
  6
CONTINUOUS
 10
3.916880
 20
6.134040
  0
VERTEX
  8
0
  6
CONTINUOUS
 10
3.979360
 20
6.140640
  0
VERTEX
  8
0
  6
CONTINUOUS
 10
4.034360
 20
6.151640
  0
VERTEX
  8
0
  6
CONTINUOUS
 10
4.078800
 20
6.164400
  0
VERTEX
  8
0
  6
CONTINUOUS
 10
4.109600
 20
6.178040
  0
VERTEX
  8
0
  6
CONTINUOUS
 10
4.147440
 20
6.196520
  0
VERTEX
  8
0
  6
CONTINUOUS
 10
4.195840
 20
6.213680
  0
VERTEX
  8
0
  6
CONTINUOUS
 10
4.222240
 20
6.220720
  0
VERTEX
  8
0
  6
CONTINUOUS
 10
4.249960
 20
6.226440
  0
VERTEX
  8
0
  6
CONTINUOUS
 10
4.291320
 20
6.230840
  0
VERTEX
  8
0
  6
CONTINUOUS
 10
4.333120
 20
6.229960
  0
VERTEX
  8
0
  6
CONTINUOUS
 10
4.360840
 20
6.226440
  0
VERTEX
  8
0
  6
CONTINUOUS
 10
4.388560
 20
6.220720
  0
VERTEX
  8
0
  6
CONTINUOUS
 10
4.440480
 20
6.205320
  0
VERTEX
  8
0
  6
CONTINUOUS
 10
4.484040
 20
6.186840
  0
VERTEX
  8
0
  6
CONTINUOUS
 10
4.520120
 20
6.169240
  0
VERTEX
  8
0
  6
CONTINUOUS
 10
4.560160
 20
6.155600
  0
VERTEX
  8
0
  6
CONTINUOUS
 10
4.612080
 20
6.144160
  0
VERTEX
  8
0
  6
CONTINUOUS
 10
4.651680
 20
6.138000
  0
VERTEX
  8
0
  6
CONTINUOUS
 10
4.715920
 20
6.132720
  0
VERTEX
  8
0
  6
CONTINUOUS
 10
4.761240
 20
6.132720
  0
VERTEX
  8
0
  6
CONTINUOUS
 10
4.784120
 20
6.134040
  0
VERTEX
  8
0
  6
CONTINUOUS
 10
4.801720
 20
6.020080
  0
VERTEX
  8
0
  6
CONTINUOUS
 10
4.846160
 20
6.018760
  0
VERTEX
  8
0
  6
CONTINUOUS
 10
4.889280
 20
6.013040
  0
VERTEX
  8
0
  6
CONTINUOUS
 10
4.939440
 20
6.001600
  0
VERTEX
  8
0
  6
CONTINUOUS
 10
4.965840
 20
5.993240
  0
VERTEX
  8
0
  6
CONTINUOUS
 10
5.020840
 20
5.969480
  0
VERTEX
  8
0
  6
CONTINUOUS
 10
5.061320
 20
5.945280
  0
VERTEX
  8
0
  6
CONTINUOUS
 10
5.087720
 20
5.925040
  0
VERTEX
  8
0
  6
CONTINUOUS
 10
5.113240
 20
5.902160
  0
VERTEX
  8
0
  6
CONTINUOUS
 10
5.137000
 20
5.875760
  0
VERTEX
  8
0
  6
CONTINUOUS
 10
5.158560
 20
5.845400
  0
VERTEX
  8
0
  6
CONTINUOUS
 10
5.168680
 20
5.829120
  0
VERTEX
  8
0
  6
CONTINUOUS
 10
5.321800
 20
5.829120
  0
VERTEX
  8
0
  6
CONTINUOUS
 10
5.338080
 20
5.787320
  0
VERTEX
  8
0
  6
CONTINUOUS
 10
5.358320
 20
5.749920
  0
VERTEX
  8
0
  6
CONTINUOUS
 10
5.381640
 20
5.716920
  0
VERTEX
  8
0
  6
CONTINUOUS
 10
5.408480
 20
5.687000
  0
VERTEX
  8
0
  6
CONTINUOUS
 10
5.437520
 20
5.661040
  0
VERTEX
  8
0
  6
CONTINUOUS
 10
5.468760
 20
5.638600
  0
VERTEX
  8
0
  6
CONTINUOUS
 10
5.519360
 20
5.610440
  0
VERTEX
  8
0
  6
CONTINUOUS
 10
5.572600
 20
5.588880
  0
VERTEX
  8
0
  6
CONTINUOUS
 10
5.609120
 20
5.577440
  0
VERTEX
  8
0
  6
CONTINUOUS
 10
5.645640
 20
5.568200
  0
VERTEX
  8
0
  6
CONTINUOUS
 10
5.718240
 20
5.556320
  0
VERTEX
  8
0
  6
CONTINUOUS
 10
5.753440
 20
5.552800
  0
VERTEX
  8
0
  6
CONTINUOUS
 10
5.819440
 20
5.550160
  0
VERTEX
  8
0
  6
CONTINUOUS
 10
5.819440
 20
5.375040
  0
VERTEX
  8
0
  6
CONTINUOUS
 10
2.791360
 20
5.375040
  0
SEQEND
  8
0
  0
POLYLINE
  8
0
  6
CONTINUOUS
 66
     1
 40
0.000000
 41
0.000000
  0
VERTEX
  8
0
  6
CONTINUOUS
 10
2.790920
 20
1.480600
  0
VERTEX
  8
0
  6
CONTINUOUS
 10
2.790920
 20
1.655720
  0
VERTEX
  8
0
  6
CONTINUOUS
 10
2.856920
 20
1.658800
  0
VERTEX
  8
0
  6
CONTINUOUS
 10
2.892120
 20
1.661880
  0
VERTEX
  8
0
  6
CONTINUOUS
 10
2.928200
 20
1.667160
  0
VERTEX
  8
0
  6
CONTINUOUS
 10
2.964720
 20
1.674200
  0
VERTEX
  8
0
  6
CONTINUOUS
 10
3.001680
 20
1.683000
  0
VERTEX
  8
0
  6
CONTINUOUS
 10
3.055800
 20
1.701040
  0
VERTEX
  8
0
  6
CONTINUOUS
 10
3.091440
 20
1.716000
  0
VERTEX
  8
0
  6
CONTINUOUS
 10
3.141600
 20
1.744160
  0
VERTEX
  8
0
  6
CONTINUOUS
 10
3.173280
 20
1.766600
  0
VERTEX
  8
0
  6
CONTINUOUS
 10
3.202320
 20
1.792560
  0
VERTEX
  8
0
  6
CONTINUOUS
 10
3.228720
 20
1.822480
  0
VERTEX
  8
0
  6
CONTINUOUS
 10
3.252480
 20
1.855480
  0
VERTEX
  8
0
  6
CONTINUOUS
 10
3.272280
 20
1.892880
  0
VERTEX
  8
0
  6
CONTINUOUS
 10
3.288560
 20
1.934680
  0
VERTEX
  8
0
  6
CONTINUOUS
 10
3.441680
 20
1.934680
  0
VERTEX
  8
0
  6
CONTINUOUS
 10
3.462360
 20
1.966800
  0
VERTEX
  8
0
  6
CONTINUOUS
 10
3.497120
 20
2.007720
  0
VERTEX
  8
0
  6
CONTINUOUS
 10
3.535840
 20
2.041160
  0
VERTEX
  8
0
  6
CONTINUOUS
 10
3.575880
 20
2.067560
  0
VERTEX
  8
0
  6
CONTINUOUS
 10
3.617240
 20
2.088240
  0
VERTEX
  8
0
  6
CONTINUOUS
 10
3.644520
 20
2.098800
  0
VERTEX
  8
0
  6
CONTINUOUS
 10
3.696880
 20
2.113760
  0
VERTEX
  8
0
  6
CONTINUOUS
 10
3.754520
 20
2.123440
  0
VERTEX
  8
0
  6
CONTINUOUS
 10
3.790160
 20
2.126080
  0
VERTEX
  8
0
  6
CONTINUOUS
 10
3.808640
 20
2.126080
  0
VERTEX
  8
0
  6
CONTINUOUS
 10
3.826240
 20
2.240040
  0
VERTEX
  8
0
  6
CONTINUOUS
 10
3.872000
 20
2.238280
  0
VERTEX
  8
0
  6
CONTINUOUS
 10
3.938000
 20
2.241360
  0
VERTEX
  8
0
  6
CONTINUOUS
 10
3.998280
 20
2.249720
  0
VERTEX
  8
0
  6
CONTINUOUS
 10
4.050200
 20
2.261600
  0
VERTEX
  8
0
  6
CONTINUOUS
 10
4.078360
 20
2.269960
  0
VERTEX
  8
0
  6
CONTINUOUS
 10
4.109160
 20
2.283600
  0
VERTEX
  8
0
  6
CONTINUOUS
 10
4.147000
 20
2.302080
  0
VERTEX
  8
0
  6
CONTINUOUS
 10
4.195400
 20
2.319240
  0
VERTEX
  8
0
  6
CONTINUOUS
 10
4.221800
 20
2.326720
  0
VERTEX
  8
0
  6
CONTINUOUS
 10
4.249520
 20
2.332000
  0
VERTEX
  8
0
  6
CONTINUOUS
 10
4.290880
 20
2.336400
  0
VERTEX
  8
0
  6
CONTINUOUS
 10
4.332680
 20
2.335520
  0
VERTEX
  8
0
  6
CONTINUOUS
 10
4.360400
 20
2.332000
  0
VERTEX
  8
0
  6
CONTINUOUS
 10
4.388120
 20
2.326720
  0
VERTEX
  8
0
  6
CONTINUOUS
 10
4.440040
 20
2.310880
  0
VERTEX
  8
0
  6
CONTINUOUS
 10
4.483600
 20
2.292840
  0
VERTEX
  8
0
  6
CONTINUOUS
 10
4.519680
 20
2.274800
  0
VERTEX
  8
0
  6
CONTINUOUS
 10
4.545200
 20
2.265560
  0
VERTEX
  8
0
  6
CONTINUOUS
 10
4.593160
 20
2.253240
  0
VERTEX
  8
0
  6
CONTINUOUS
 10
4.651240
 20
2.244000
  0
VERTEX
  8
0
  6
CONTINUOUS
 10
4.693480
 20
2.240040
  0
VERTEX
  8
0
  6
CONTINUOUS
 10
4.737920
 20
2.238280
  0
VERTEX
  8
0
  6
CONTINUOUS
 10
4.783680
 20
2.240040
  0
VERTEX
  8
0
  6
CONTINUOUS
 10
4.801280
 20
2.126080
  0
VERTEX
  8
0
  6
CONTINUOUS
 10
4.836480
 20
2.125200
  0
VERTEX
  8
0
  6
CONTINUOUS
 10
4.888840
 20
2.118600
  0
VERTEX
  8
0
  6
CONTINUOUS
 10
4.939000
 20
2.107160
  0
VERTEX
  8
0
  6
CONTINUOUS
 10
4.965400
 20
2.098800
  0
VERTEX
  8
0
  6
CONTINUOUS
 10
4.992680
 20
2.088240
  0
VERTEX
  8
0
  6
CONTINUOUS
 10
5.034040
 20
2.067560
  0
VERTEX
  8
0
  6
CONTINUOUS
 10
5.074520
 20
2.041160
  0
VERTEX
  8
0
  6
CONTINUOUS
 10
5.112800
 20
2.007720
  0
VERTEX
  8
0
  6
CONTINUOUS
 10
5.136560
 20
1.981320
  0
VERTEX
  8
0
  6
CONTINUOUS
 10
5.158120
 20
1.950960
  0
VERTEX
  8
0
  6
CONTINUOUS
 10
5.168240
 20
1.934680
  0
VERTEX
  8
0
  6
CONTINUOUS
 10
5.321360
 20
1.934680
  0
VERTEX
  8
0
  6
CONTINUOUS
 10
5.337640
 20
1.892880
  0
VERTEX
  8
0
  6
CONTINUOUS
 10
5.357880
 20
1.855480
  0
VERTEX
  8
0
  6
CONTINUOUS
 10
5.381200
 20
1.822480
  0
VERTEX
  8
0
  6
CONTINUOUS
 10
5.408040
 20
1.792560
  0
VERTEX
  8
0
  6
CONTINUOUS
 10
5.437080
 20
1.766600
  0
VERTEX
  8
0
  6
CONTINUOUS
 10
5.468320
 20
1.744160
  0
VERTEX
  8
0
  6
CONTINUOUS
 10
5.518920
 20
1.716000
  0
VERTEX
  8
0
  6
CONTINUOUS
 10
5.572160
 20
1.694440
  0
VERTEX
  8
0
  6
CONTINUOUS
 10
5.608680
 20
1.683000
  0
VERTEX
  8
0
  6
CONTINUOUS
 10
5.645200
 20
1.674200
  0
VERTEX
  8
0
  6
CONTINUOUS
 10
5.681720
 20
1.667160
  0
VERTEX
  8
0
  6
CONTINUOUS
 10
5.717800
 20
1.661880
  0
VERTEX
  8
0
  6
CONTINUOUS
 10
5.786880
 20
1.656600
  0
VERTEX
  8
0
  6
CONTINUOUS
 10
5.819000
 20
1.655720
  0
VERTEX
  8
0
  6
CONTINUOUS
 10
5.819000
 20
1.480600
  0
VERTEX
  8
0
  6
CONTINUOUS
 10
2.790920
 20
1.480600
  0
SEQEND
  8
0
  0
SOLID
  8
0
 62
    15
 10
2.835800
 20
3.073400
 11
2.835360
 21
3.825800
 12
2.835800
 22
3.248520
 13
2.835360
 23
4.000920
  0
POLYLINE
  8
0
  6
CONTINUOUS
 66
     1
 40
0.000000
 41
0.000000
  0
VERTEX
  8
0
  6
CONTINUOUS
 10
2.835800
 20
3.073400
  0
VERTEX
  8
0
  6
CONTINUOUS
 10
2.835360
 20
3.825800
  0
VERTEX
  8
0
  6
CONTINUOUS
 10
2.835360
 20
4.000920
  0
VERTEX
  8
0
  6
CONTINUOUS
 10
2.835800
 20
3.248520
  0
VERTEX
  8
0
  6
CONTINUOUS
 10
2.835800
 20
3.073400
  0
SEQEND
  8
0
  0
SOLID
  8
0
 62
    15
 10
2.835800
 20
3.248520
 11
2.835360
 21
4.000920
 12
2.901800
 22
3.251600
 13
2.901360
 23
4.003560
  0
POLYLINE
  8
0
  6
CONTINUOUS
 66
     1
 40
0.000000
 41
0.000000
  0
VERTEX
  8
0
  6
CONTINUOUS
 10
2.835800
 20
3.248520
  0
VERTEX
  8
0
  6
CONTINUOUS
 10
2.835360
 20
4.000920
  0
VERTEX
  8
0
  6
CONTINUOUS
 10
2.901360
 20
4.003560
  0
VERTEX
  8
0
  6
CONTINUOUS
 10
2.901800
 20
3.251600
  0
VERTEX
  8
0
  6
CONTINUOUS
 10
2.835800
 20
3.248520
  0
SEQEND
  8
0
  0
SOLID
  8
0
 62
    15
 10
2.901800
 20
3.251600
 11
2.901360
 21
4.003560
 12
2.973080
 22
3.259960
 13
2.972640
 23
4.012360
  0
POLYLINE
  8
0
  6
CONTINUOUS
 66
     1
 40
0.000000
 41
0.000000
  0
VERTEX
  8
0
  6
CONTINUOUS
 10
2.901800
 20
3.251600
  0
VERTEX
  8
0
  6
CONTINUOUS
 10
2.901360
 20
4.003560
  0
VERTEX
  8
0
  6
CONTINUOUS
 10
2.972640
 20
4.012360
  0
VERTEX
  8
0
  6
CONTINUOUS
 10
2.973080
 20
3.259960
  0
VERTEX
  8
0
  6
CONTINUOUS
 10
2.901800
 20
3.251600
  0
SEQEND
  8
0
  0
SOLID
  8
0
 62
    15
 10
2.973080
 20
3.259960
 11
2.972640
 21
4.012360
 12
3.046120
 22
3.275800
 13
3.046120
 23
4.028200
  0
POLYLINE
  8
0
  6
CONTINUOUS
 66
     1
 40
0.000000
 41
0.000000
  0
VERTEX
  8
0
  6
CONTINUOUS
 10
2.973080
 20
3.259960
  0
VERTEX
  8
0
  6
CONTINUOUS
 10
2.972640
 20
4.012360
  0
VERTEX
  8
0
  6
CONTINUOUS
 10
3.046120
 20
4.028200
  0
VERTEX
  8
0
  6
CONTINUOUS
 10
3.046120
 20
3.275800
  0
VERTEX
  8
0
  6
CONTINUOUS
 10
2.973080
 20
3.259960
  0
SEQEND
  8
0
  0
SOLID
  8
0
 62
    15
 10
3.046120
 20
3.275800
 11
3.046120
 21
4.028200
 12
3.118280
 22
3.300880
 13
3.118280
 23
4.053280
  0
POLYLINE
  8
0
  6
CONTINUOUS
 66
     1
 40
0.000000
 41
0.000000
  0
VERTEX
  8
0
  6
CONTINUOUS
 10
3.046120
 20
3.275800
  0
VERTEX
  8
0
  6
CONTINUOUS
 10
3.046120
 20
4.028200
  0
VERTEX
  8
0
  6
CONTINUOUS
 10
3.118280
 20
4.053280
  0
VERTEX
  8
0
  6
CONTINUOUS
 10
3.118280
 20
3.300880
  0
VERTEX
  8
0
  6
CONTINUOUS
 10
3.046120
 20
3.275800
  0
SEQEND
  8
0
  0
SOLID
  8
0
 62
    15
 10
3.118280
 20
3.300880
 11
3.118280
 21
4.053280
 12
3.186480
 22
3.336960
 13
3.186040
 23
4.089360
  0
POLYLINE
  8
0
  6
CONTINUOUS
 66
     1
 40
0.000000
 41
0.000000
  0
VERTEX
  8
0
  6
CONTINUOUS
 10
3.118280
 20
3.300880
  0
VERTEX
  8
0
  6
CONTINUOUS
 10
3.118280
 20
4.053280
  0
VERTEX
  8
0
  6
CONTINUOUS
 10
3.186040
 20
4.089360
  0
VERTEX
  8
0
  6
CONTINUOUS
 10
3.186480
 20
3.336960
  0
VERTEX
  8
0
  6
CONTINUOUS
 10
3.118280
 20
3.300880
  0
SEQEND
  8
0
  0
SOLID
  8
0
 62
    15
 10
3.186480
 20
3.336960
 11
3.186040
 21
4.089360
 12
3.217720
 22
3.359840
 13
3.217720
 23
4.111800
  0
POLYLINE
  8
0
  6
CONTINUOUS
 66
     1
 40
0.000000
 41
0.000000
  0
VERTEX
  8
0
  6
CONTINUOUS
 10
3.186480
 20
3.336960
  0
VERTEX
  8
0
  6
CONTINUOUS
 10
3.186040
 20
4.089360
  0
VERTEX
  8
0
  6
CONTINUOUS
 10
3.217720
 20
4.111800
  0
VERTEX
  8
0
  6
CONTINUOUS
 10
3.217720
 20
3.359840
  0
VERTEX
  8
0
  6
CONTINUOUS
 10
3.186480
 20
3.336960
  0
SEQEND
  8
0
  0
SOLID
  8
0
 62
    15
 10
3.217720
 20
3.359840
 11
3.217720
 21
4.111800
 12
3.247200
 22
3.385800
 13
3.246760
 23
4.137760
  0
POLYLINE
  8
0
  6
CONTINUOUS
 66
     1
 40
0.000000
 41
0.000000
  0
VERTEX
  8
0
  6
CONTINUOUS
 10
3.217720
 20
3.359840
  0
VERTEX
  8
0
  6
CONTINUOUS
 10
3.217720
 20
4.111800
  0
VERTEX
  8
0
  6
CONTINUOUS
 10
3.246760
 20
4.137760
  0
VERTEX
  8
0
  6
CONTINUOUS
 10
3.247200
 20
3.385800
  0
VERTEX
  8
0
  6
CONTINUOUS
 10
3.217720
 20
3.359840
  0
SEQEND
  8
0
  0
SOLID
  8
0
 62
    15
 10
3.247200
 20
3.385800
 11
3.246760
 21
4.137760
 12
3.273600
 22
3.415280
 13
3.273160
 23
4.167240
  0
POLYLINE
  8
0
  6
CONTINUOUS
 66
     1
 40
0.000000
 41
0.000000
  0
VERTEX
  8
0
  6
CONTINUOUS
 10
3.247200
 20
3.385800
  0
VERTEX
  8
0
  6
CONTINUOUS
 10
3.246760
 20
4.137760
  0
VERTEX
  8
0
  6
CONTINUOUS
 10
3.273160
 20
4.167240
  0
VERTEX
  8
0
  6
CONTINUOUS
 10
3.273600
 20
3.415280
  0
VERTEX
  8
0
  6
CONTINUOUS
 10
3.247200
 20
3.385800
  0
SEQEND
  8
0
  0
SOLID
  8
0
 62
    15
 10
3.273600
 20
3.415280
 11
3.273160
 21
4.167240
 12
3.296920
 22
3.448720
 13
3.296920
 23
4.200680
  0
POLYLINE
  8
0
  6
CONTINUOUS
 66
     1
 40
0.000000
 41
0.000000
  0
VERTEX
  8
0
  6
CONTINUOUS
 10
3.273600
 20
3.415280
  0
VERTEX
  8
0
  6
CONTINUOUS
 10
3.273160
 20
4.167240
  0
VERTEX
  8
0
  6
CONTINUOUS
 10
3.296920
 20
4.200680
  0
VERTEX
  8
0
  6
CONTINUOUS
 10
3.296920
 20
3.448720
  0
VERTEX
  8
0
  6
CONTINUOUS
 10
3.273600
 20
3.415280
  0
SEQEND
  8
0
  0
SOLID
  8
0
 62
    15
 10
3.296920
 20
3.448720
 11
3.296920
 21
4.200680
 12
3.317160
 22
3.485680
 13
3.316720
 23
4.238080
  0
POLYLINE
  8
0
  6
CONTINUOUS
 66
     1
 40
0.000000
 41
0.000000
  0
VERTEX
  8
0
  6
CONTINUOUS
 10
3.296920
 20
3.448720
  0
VERTEX
  8
0
  6
CONTINUOUS
 10
3.296920
 20
4.200680
  0
VERTEX
  8
0
  6
CONTINUOUS
 10
3.316720
 20
4.238080
  0
VERTEX
  8
0
  6
CONTINUOUS
 10
3.317160
 20
3.485680
  0
VERTEX
  8
0
  6
CONTINUOUS
 10
3.296920
 20
3.448720
  0
SEQEND
  8
0
  0
SOLID
  8
0
 62
    15
 10
3.317160
 20
3.485680
 11
3.316720
 21
4.238080
 12
3.333440
 22
3.527480
 13
3.333440
 23
4.279440
  0
POLYLINE
  8
0
  6
CONTINUOUS
 66
     1
 40
0.000000
 41
0.000000
  0
VERTEX
  8
0
  6
CONTINUOUS
 10
3.317160
 20
3.485680
  0
VERTEX
  8
0
  6
CONTINUOUS
 10
3.316720
 20
4.238080
  0
VERTEX
  8
0
  6
CONTINUOUS
 10
3.333440
 20
4.279440
  0
VERTEX
  8
0
  6
CONTINUOUS
 10
3.333440
 20
3.527480
  0
VERTEX
  8
0
  6
CONTINUOUS
 10
3.317160
 20
3.485680
  0
SEQEND
  8
0
  0
SOLID
  8
0
 62
    15
 10
3.333440
 20
3.527480
 11
3.333440
 21
4.279440
 12
3.486560
 22
3.527480
 13
3.486560
 23
4.279440
  0
POLYLINE
  8
0
  6
CONTINUOUS
 66
     1
 40
0.000000
 41
0.000000
  0
VERTEX
  8
0
  6
CONTINUOUS
 10
3.333440
 20
3.527480
  0
VERTEX
  8
0
  6
CONTINUOUS
 10
3.333440
 20
4.279440
  0
VERTEX
  8
0
  6
CONTINUOUS
 10
3.486560
 20
4.279440
  0
VERTEX
  8
0
  6
CONTINUOUS
 10
3.486560
 20
3.527480
  0
VERTEX
  8
0
  6
CONTINUOUS
 10
3.333440
 20
3.527480
  0
SEQEND
  8
0
  0
SOLID
  8
0
 62
    15
 10
3.486560
 20
3.527480
 11
3.486560
 21
4.279440
 12
3.507240
 22
3.559600
 13
3.507240
 23
4.311560
  0
POLYLINE
  8
0
  6
CONTINUOUS
 66
     1
 40
0.000000
 41
0.000000
  0
VERTEX
  8
0
  6
CONTINUOUS
 10
3.486560
 20
3.527480
  0
VERTEX
  8
0
  6
CONTINUOUS
 10
3.486560
 20
4.279440
  0
VERTEX
  8
0
  6
CONTINUOUS
 10
3.507240
 20
4.311560
  0
VERTEX
  8
0
  6
CONTINUOUS
 10
3.507240
 20
3.559600
  0
VERTEX
  8
0
  6
CONTINUOUS
 10
3.486560
 20
3.527480
  0
SEQEND
  8
0
  0
SOLID
  8
0
 62
    15
 10
3.507240
 20
3.559600
 11
3.507240
 21
4.311560
 12
3.530120
 22
3.587760
 13
3.530120
 23
4.339720
  0
POLYLINE
  8
0
  6
CONTINUOUS
 66
     1
 40
0.000000
 41
0.000000
  0
VERTEX
  8
0
  6
CONTINUOUS
 10
3.507240
 20
3.559600
  0
VERTEX
  8
0
  6
CONTINUOUS
 10
3.507240
 20
4.311560
  0
VERTEX
  8
0
  6
CONTINUOUS
 10
3.530120
 20
4.339720
  0
VERTEX
  8
0
  6
CONTINUOUS
 10
3.530120
 20
3.587760
  0
VERTEX
  8
0
  6
CONTINUOUS
 10
3.507240
 20
3.559600
  0
SEQEND
  8
0
  0
SOLID
  8
0
 62
    15
 10
3.530120
 20
3.587760
 11
3.530120
 21
4.339720
 12
3.580720
 22
3.633960
 13
3.580280
 23
4.385920
  0
POLYLINE
  8
0
  6
CONTINUOUS
 66
     1
 40
0.000000
 41
0.000000
  0
VERTEX
  8
0
  6
CONTINUOUS
 10
3.530120
 20
3.587760
  0
VERTEX
  8
0
  6
CONTINUOUS
 10
3.530120
 20
4.339720
  0
VERTEX
  8
0
  6
CONTINUOUS
 10
3.580280
 20
4.385920
  0
VERTEX
  8
0
  6
CONTINUOUS
 10
3.580720
 20
3.633960
  0
VERTEX
  8
0
  6
CONTINUOUS
 10
3.530120
 20
3.587760
  0
SEQEND
  8
0
  0
SOLID
  8
0
 62
    15
 10
3.580720
 20
3.633960
 11
3.580280
 21
4.385920
 12
3.634400
 22
3.667840
 13
3.634400
 23
4.420240
  0
POLYLINE
  8
0
  6
CONTINUOUS
 66
     1
 40
0.000000
 41
0.000000
  0
VERTEX
  8
0
  6
CONTINUOUS
 10
3.580720
 20
3.633960
  0
VERTEX
  8
0
  6
CONTINUOUS
 10
3.580280
 20
4.385920
  0
VERTEX
  8
0
  6
CONTINUOUS
 10
3.634400
 20
4.420240
  0
VERTEX
  8
0
  6
CONTINUOUS
 10
3.634400
 20
3.667840
  0
VERTEX
  8
0
  6
CONTINUOUS
 10
3.580720
 20
3.633960
  0
SEQEND
  8
0
  0
SOLID
  8
0
 62
    15
 10
3.634400
 20
3.667840
 11
3.634400
 21
4.420240
 12
3.689400
 22
3.691600
 13
3.688960
 23
4.443560
  0
POLYLINE
  8
0
  6
CONTINUOUS
 66
     1
 40
0.000000
 41
0.000000
  0
VERTEX
  8
0
  6
CONTINUOUS
 10
3.634400
 20
3.667840
  0
VERTEX
  8
0
  6
CONTINUOUS
 10
3.634400
 20
4.420240
  0
VERTEX
  8
0
  6
CONTINUOUS
 10
3.688960
 20
4.443560
  0
VERTEX
  8
0
  6
CONTINUOUS
 10
3.689400
 20
3.691600
  0
VERTEX
  8
0
  6
CONTINUOUS
 10
3.634400
 20
3.667840
  0
SEQEND
  8
0
  0
SOLID
  8
0
 62
    15
 10
3.689400
 20
3.691600
 11
3.688960
 21
4.443560
 12
3.741760
 22
3.706560
 13
3.741320
 23
4.458520
  0
POLYLINE
  8
0
  6
CONTINUOUS
 66
     1
 40
0.000000
 41
0.000000
  0
VERTEX
  8
0
  6
CONTINUOUS
 10
3.689400
 20
3.691600
  0
VERTEX
  8
0
  6
CONTINUOUS
 10
3.688960
 20
4.443560
  0
VERTEX
  8
0
  6
CONTINUOUS
 10
3.741320
 20
4.458520
  0
VERTEX
  8
0
  6
CONTINUOUS
 10
3.741760
 20
3.706560
  0
VERTEX
  8
0
  6
CONTINUOUS
 10
3.689400
 20
3.691600
  0
SEQEND
  8
0
  0
SOLID
  8
0
 62
    15
 10
3.741760
 20
3.706560
 11
3.741320
 21
4.458520
 12
3.788840
 22
3.714920
 13
3.788400
 23
4.466880
  0
POLYLINE
  8
0
  6
CONTINUOUS
 66
     1
 40
0.000000
 41
0.000000
  0
VERTEX
  8
0
  6
CONTINUOUS
 10
3.741760
 20
3.706560
  0
VERTEX
  8
0
  6
CONTINUOUS
 10
3.741320
 20
4.458520
  0
VERTEX
  8
0
  6
CONTINUOUS
 10
3.788400
 20
4.466880
  0
VERTEX
  8
0
  6
CONTINUOUS
 10
3.788840
 20
3.714920
  0
VERTEX
  8
0
  6
CONTINUOUS
 10
3.741760
 20
3.706560
  0
SEQEND
  8
0
  0
SOLID
  8
0
 62
    15
 10
3.788840
 20
3.714920
 11
3.788400
 21
4.466880
 12
3.826680
 22
3.718440
 13
3.826680
 23
4.470400
  0
POLYLINE
  8
0
  6
CONTINUOUS
 66
     1
 40
0.000000
 41
0.000000
  0
VERTEX
  8
0
  6
CONTINUOUS
 10
3.788840
 20
3.714920
  0
VERTEX
  8
0
  6
CONTINUOUS
 10
3.788400
 20
4.466880
  0
VERTEX
  8
0
  6
CONTINUOUS
 10
3.826680
 20
4.470400
  0
VERTEX
  8
0
  6
CONTINUOUS
 10
3.826680
 20
3.718440
  0
VERTEX
  8
0
  6
CONTINUOUS
 10
3.788840
 20
3.714920
  0
SEQEND
  8
0
  0
SOLID
  8
0
 62
    15
 10
3.826680
 20
3.718440
 11
3.826680
 21
4.470400
 12
3.853520
 22
3.718880
 13
3.853080
 23
4.470840
  0
POLYLINE
  8
0
  6
CONTINUOUS
 66
     1
 40
0.000000
 41
0.000000
  0
VERTEX
  8
0
  6
CONTINUOUS
 10
3.826680
 20
3.718440
  0
VERTEX
  8
0
  6
CONTINUOUS
 10
3.826680
 20
4.470400
  0
VERTEX
  8
0
  6
CONTINUOUS
 10
3.853080
 20
4.470840
  0
VERTEX
  8
0
  6
CONTINUOUS
 10
3.853520
 20
3.718880
  0
VERTEX
  8
0
  6
CONTINUOUS
 10
3.826680
 20
3.718440
  0
SEQEND
  8
0
  0
SOLID
  8
0
 62
    15
 10
3.853520
 20
3.718880
 11
3.853080
 21
4.470840
 12
3.871120
 22
3.832400
 13
3.870680
 23
4.584800
  0
POLYLINE
  8
0
  6
CONTINUOUS
 66
     1
 40
0.000000
 41
0.000000
  0
VERTEX
  8
0
  6
CONTINUOUS
 10
3.853520
 20
3.718880
  0
VERTEX
  8
0
  6
CONTINUOUS
 10
3.853080
 20
4.470840
  0
VERTEX
  8
0
  6
CONTINUOUS
 10
3.870680
 20
4.584800
  0
VERTEX
  8
0
  6
CONTINUOUS
 10
3.871120
 20
3.832400
  0
VERTEX
  8
0
  6
CONTINUOUS
 10
3.853520
 20
3.718880
  0
SEQEND
  8
0
  0
SOLID
  8
0
 62
    15
 10
3.871120
 20
3.832400
 11
3.870680
 21
4.584800
 12
3.961320
 22
3.832400
 13
3.960880
 23
4.584800
  0
POLYLINE
  8
0
  6
CONTINUOUS
 66
     1
 40
0.000000
 41
0.000000
  0
VERTEX
  8
0
  6
CONTINUOUS
 10
3.871120
 20
3.832400
  0
VERTEX
  8
0
  6
CONTINUOUS
 10
3.870680
 20
4.584800
  0
VERTEX
  8
0
  6
CONTINUOUS
 10
3.960880
 20
4.584800
  0
VERTEX
  8
0
  6
CONTINUOUS
 10
3.961320
 20
3.832400
  0
VERTEX
  8
0
  6
CONTINUOUS
 10
3.871120
 20
3.832400
  0
SEQEND
  8
0
  0
SOLID
  8
0
 62
    15
 10
3.961320
 20
3.832400
 11
3.960880
 21
4.584800
 12
4.043160
 22
3.842520
 13
4.043160
 23
4.594480
  0
POLYLINE
  8
0
  6
CONTINUOUS
 66
     1
 40
0.000000
 41
0.000000
  0
VERTEX
  8
0
  6
CONTINUOUS
 10
3.961320
 20
3.832400
  0
VERTEX
  8
0
  6
CONTINUOUS
 10
3.960880
 20
4.584800
  0
VERTEX
  8
0
  6
CONTINUOUS
 10
4.043160
 20
4.594480
  0
VERTEX
  8
0
  6
CONTINUOUS
 10
4.043160
 20
3.842520
  0
VERTEX
  8
0
  6
CONTINUOUS
 10
3.961320
 20
3.832400
  0
SEQEND
  8
0
  0
SOLID
  8
0
 62
    15
 10
4.043160
 20
3.842520
 11
4.043160
 21
4.594480
 12
4.078800
 22
3.850000
 13
4.078800
 23
4.601960
  0
POLYLINE
  8
0
  6
CONTINUOUS
 66
     1
 40
0.000000
 41
0.000000
  0
VERTEX
  8
0
  6
CONTINUOUS
 10
4.043160
 20
3.842520
  0
VERTEX
  8
0
  6
CONTINUOUS
 10
4.043160
 20
4.594480
  0
VERTEX
  8
0
  6
CONTINUOUS
 10
4.078800
 20
4.601960
  0
VERTEX
  8
0
  6
CONTINUOUS
 10
4.078800
 20
3.850000
  0
VERTEX
  8
0
  6
CONTINUOUS
 10
4.043160
 20
3.842520
  0
SEQEND
  8
0
  0
SOLID
  8
0
 62
    15
 10
4.078800
 20
3.850000
 11
4.078800
 21
4.601960
 12
4.110040
 22
3.858360
 13
4.109600
 23
4.610320
  0
POLYLINE
  8
0
  6
CONTINUOUS
 66
     1
 40
0.000000
 41
0.000000
  0
VERTEX
  8
0
  6
CONTINUOUS
 10
4.078800
 20
3.850000
  0
VERTEX
  8
0
  6
CONTINUOUS
 10
4.078800
 20
4.601960
  0
VERTEX
  8
0
  6
CONTINUOUS
 10
4.109600
 20
4.610320
  0
VERTEX
  8
0
  6
CONTINUOUS
 10
4.110040
 20
3.858360
  0
VERTEX
  8
0
  6
CONTINUOUS
 10
4.078800
 20
3.850000
  0
SEQEND
  8
0
  0
SOLID
  8
0
 62
    15
 10
4.110040
 20
3.858360
 11
4.109600
 21
4.610320
 12
4.135120
 22
3.867600
 13
4.135120
 23
4.619560
  0
POLYLINE
  8
0
  6
CONTINUOUS
 66
     1
 40
0.000000
 41
0.000000
  0
VERTEX
  8
0
  6
CONTINUOUS
 10
4.110040
 20
3.858360
  0
VERTEX
  8
0
  6
CONTINUOUS
 10
4.109600
 20
4.610320
  0
VERTEX
  8
0
  6
CONTINUOUS
 10
4.135120
 20
4.619560
  0
VERTEX
  8
0
  6
CONTINUOUS
 10
4.135120
 20
3.867600
  0
VERTEX
  8
0
  6
CONTINUOUS
 10
4.110040
 20
3.858360
  0
SEQEND
  8
0
  0
SOLID
  8
0
 62
    15
 10
4.135120
 20
3.867600
 11
4.135120
 21
4.619560
 12
4.154040
 22
3.876400
 13
4.154040
 23
4.628360
  0
POLYLINE
  8
0
  6
CONTINUOUS
 66
     1
 40
0.000000
 41
0.000000
  0
VERTEX
  8
0
  6
CONTINUOUS
 10
4.135120
 20
3.867600
  0
VERTEX
  8
0
  6
CONTINUOUS
 10
4.135120
 20
4.619560
  0
VERTEX
  8
0
  6
CONTINUOUS
 10
4.154040
 20
4.628360
  0
VERTEX
  8
0
  6
CONTINUOUS
 10
4.154040
 20
3.876400
  0
VERTEX
  8
0
  6
CONTINUOUS
 10
4.135120
 20
3.867600
  0
SEQEND
  8
0
  0
SOLID
  8
0
 62
    15
 10
4.154040
 20
3.876400
 11
4.154040
 21
4.628360
 12
4.191880
 22
3.894880
 13
4.191440
 23
4.646840
  0
POLYLINE
  8
0
  6
CONTINUOUS
 66
     1
 40
0.000000
 41
0.000000
  0
VERTEX
  8
0
  6
CONTINUOUS
 10
4.154040
 20
3.876400
  0
VERTEX
  8
0
  6
CONTINUOUS
 10
4.154040
 20
4.628360
  0
VERTEX
  8
0
  6
CONTINUOUS
 10
4.191440
 20
4.646840
  0
VERTEX
  8
0
  6
CONTINUOUS
 10
4.191880
 20
3.894880
  0
VERTEX
  8
0
  6
CONTINUOUS
 10
4.154040
 20
3.876400
  0
SEQEND
  8
0
  0
SOLID
  8
0
 62
    15
 10
4.191880
 20
3.894880
 11
4.191440
 21
4.646840
 12
4.240280
 22
3.912040
 13
4.239840
 23
4.664440
  0
POLYLINE
  8
0
  6
CONTINUOUS
 66
     1
 40
0.000000
 41
0.000000
  0
VERTEX
  8
0
  6
CONTINUOUS
 10
4.191880
 20
3.894880
  0
VERTEX
  8
0
  6
CONTINUOUS
 10
4.191440
 20
4.646840
  0
VERTEX
  8
0
  6
CONTINUOUS
 10
4.239840
 20
4.664440
  0
VERTEX
  8
0
  6
CONTINUOUS
 10
4.240280
 20
3.912040
  0
VERTEX
  8
0
  6
CONTINUOUS
 10
4.191880
 20
3.894880
  0
SEQEND
  8
0
  0
SOLID
  8
0
 62
    15
 10
4.240280
 20
3.912040
 11
4.239840
 21
4.664440
 12
4.294400
 22
3.924800
 13
4.294400
 23
4.677200
  0
POLYLINE
  8
0
  6
CONTINUOUS
 66
     1
 40
0.000000
 41
0.000000
  0
VERTEX
  8
0
  6
CONTINUOUS
 10
4.240280
 20
3.912040
  0
VERTEX
  8
0
  6
CONTINUOUS
 10
4.239840
 20
4.664440
  0
VERTEX
  8
0
  6
CONTINUOUS
 10
4.294400
 20
4.677200
  0
VERTEX
  8
0
  6
CONTINUOUS
 10
4.294400
 20
3.924800
  0
VERTEX
  8
0
  6
CONTINUOUS
 10
4.240280
 20
3.912040
  0
SEQEND
  8
0
  0
SOLID
  8
0
 62
    15
 10
4.294400
 20
3.924800
 11
4.294400
 21
4.677200
 12
4.349400
 22
3.929200
 13
4.349400
 23
4.681600
  0
POLYLINE
  8
0
  6
CONTINUOUS
 66
     1
 40
0.000000
 41
0.000000
  0
VERTEX
  8
0
  6
CONTINUOUS
 10
4.294400
 20
3.924800
  0
VERTEX
  8
0
  6
CONTINUOUS
 10
4.294400
 20
4.677200
  0
VERTEX
  8
0
  6
CONTINUOUS
 10
4.349400
 20
4.681600
  0
VERTEX
  8
0
  6
CONTINUOUS
 10
4.349400
 20
3.929200
  0
VERTEX
  8
0
  6
CONTINUOUS
 10
4.294400
 20
3.924800
  0
SEQEND
  8
0
  0
SOLID
  8
0
 62
    15
 10
4.349400
 20
3.929200
 11
4.349400
 21
4.681600
 12
4.350280
 22
3.929200
 13
4.349840
 23
4.681600
  0
POLYLINE
  8
0
  6
CONTINUOUS
 66
     1
 40
0.000000
 41
0.000000
  0
VERTEX
  8
0
  6
CONTINUOUS
 10
4.349400
 20
3.929200
  0
VERTEX
  8
0
  6
CONTINUOUS
 10
4.349400
 20
4.681600
  0
VERTEX
  8
0
  6
CONTINUOUS
 10
4.349840
 20
4.681600
  0
VERTEX
  8
0
  6
CONTINUOUS
 10
4.350280
 20
3.929200
  0
VERTEX
  8
0
  6
CONTINUOUS
 10
4.349400
 20
3.929200
  0
SEQEND
  8
0
  0
SOLID
  8
0
 62
    15
 10
4.350280
 20
3.929200
 11
4.349840
 21
4.681600
 12
4.405280
 22
3.924800
 13
4.404840
 23
4.677200
  0
POLYLINE
  8
0
  6
CONTINUOUS
 66
     1
 40
0.000000
 41
0.000000
  0
VERTEX
  8
0
  6
CONTINUOUS
 10
4.350280
 20
3.929200
  0
VERTEX
  8
0
  6
CONTINUOUS
 10
4.349840
 20
4.681600
  0
VERTEX
  8
0
  6
CONTINUOUS
 10
4.404840
 20
4.677200
  0
VERTEX
  8
0
  6
CONTINUOUS
 10
4.405280
 20
3.924800
  0
VERTEX
  8
0
  6
CONTINUOUS
 10
4.350280
 20
3.929200
  0
SEQEND
  8
0
  0
SOLID
  8
0
 62
    15
 10
4.405280
 20
3.924800
 11
4.404840
 21
4.677200
 12
4.459400
 22
3.912040
 13
4.459400
 23
4.664440
  0
POLYLINE
  8
0
  6
CONTINUOUS
 66
     1
 40
0.000000
 41
0.000000
  0
VERTEX
  8
0
  6
CONTINUOUS
 10
4.405280
 20
3.924800
  0
VERTEX
  8
0
  6
CONTINUOUS
 10
4.404840
 20
4.677200
  0
VERTEX
  8
0
  6
CONTINUOUS
 10
4.459400
 20
4.664440
  0
VERTEX
  8
0
  6
CONTINUOUS
 10
4.459400
 20
3.912040
  0
VERTEX
  8
0
  6
CONTINUOUS
 10
4.405280
 20
3.924800
  0
SEQEND
  8
0
  0
SOLID
  8
0
 62
    15
 10
4.459400
 20
3.912040
 11
4.459400
 21
4.664440
 12
4.507800
 22
3.894880
 13
4.507800
 23
4.646840
  0
POLYLINE
  8
0
  6
CONTINUOUS
 66
     1
 40
0.000000
 41
0.000000
  0
VERTEX
  8
0
  6
CONTINUOUS
 10
4.459400
 20
3.912040
  0
VERTEX
  8
0
  6
CONTINUOUS
 10
4.459400
 20
4.664440
  0
VERTEX
  8
0
  6
CONTINUOUS
 10
4.507800
 20
4.646840
  0
VERTEX
  8
0
  6
CONTINUOUS
 10
4.507800
 20
3.894880
  0
VERTEX
  8
0
  6
CONTINUOUS
 10
4.459400
 20
3.912040
  0
SEQEND
  8
0
  0
SOLID
  8
0
 62
    15
 10
4.507800
 20
3.894880
 11
4.507800
 21
4.646840
 12
4.545640
 22
3.876400
 13
4.545200
 23
4.628360
  0
POLYLINE
  8
0
  6
CONTINUOUS
 66
     1
 40
0.000000
 41
0.000000
  0
VERTEX
  8
0
  6
CONTINUOUS
 10
4.507800
 20
3.894880
  0
VERTEX
  8
0
  6
CONTINUOUS
 10
4.507800
 20
4.646840
  0
VERTEX
  8
0
  6
CONTINUOUS
 10
4.545200
 20
4.628360
  0
VERTEX
  8
0
  6
CONTINUOUS
 10
4.545640
 20
3.876400
  0
VERTEX
  8
0
  6
CONTINUOUS
 10
4.507800
 20
3.894880
  0
SEQEND
  8
0
  0
SOLID
  8
0
 62
    15
 10
4.545640
 20
3.876400
 11
4.545200
 21
4.628360
 12
4.564560
 22
3.867600
 13
4.564120
 23
4.619560
  0
POLYLINE
  8
0
  6
CONTINUOUS
 66
     1
 40
0.000000
 41
0.000000
  0
VERTEX
  8
0
  6
CONTINUOUS
 10
4.545640
 20
3.876400
  0
VERTEX
  8
0
  6
CONTINUOUS
 10
4.545200
 20
4.628360
  0
VERTEX
  8
0
  6
CONTINUOUS
 10
4.564120
 20
4.619560
  0
VERTEX
  8
0
  6
CONTINUOUS
 10
4.564560
 20
3.867600
  0
VERTEX
  8
0
  6
CONTINUOUS
 10
4.545640
 20
3.876400
  0
SEQEND
  8
0
  0
SOLID
  8
0
 62
    15
 10
4.564560
 20
3.867600
 11
4.564120
 21
4.619560
 12
4.589640
 22
3.858360
 13
4.589640
 23
4.610320
  0
POLYLINE
  8
0
  6
CONTINUOUS
 66
     1
 40
0.000000
 41
0.000000
  0
VERTEX
  8
0
  6
CONTINUOUS
 10
4.564560
 20
3.867600
  0
VERTEX
  8
0
  6
CONTINUOUS
 10
4.564120
 20
4.619560
  0
VERTEX
  8
0
  6
CONTINUOUS
 10
4.589640
 20
4.610320
  0
VERTEX
  8
0
  6
CONTINUOUS
 10
4.589640
 20
3.858360
  0
VERTEX
  8
0
  6
CONTINUOUS
 10
4.564560
 20
3.867600
  0
SEQEND
  8
0
  0
SOLID
  8
0
 62
    15
 10
4.589640
 20
3.858360
 11
4.589640
 21
4.610320
 12
4.620880
 22
3.850000
 13
4.620440
 23
4.601960
  0
POLYLINE
  8
0
  6
CONTINUOUS
 66
     1
 40
0.000000
 41
0.000000
  0
VERTEX
  8
0
  6
CONTINUOUS
 10
4.589640
 20
3.858360
  0
VERTEX
  8
0
  6
CONTINUOUS
 10
4.589640
 20
4.610320
  0
VERTEX
  8
0
  6
CONTINUOUS
 10
4.620440
 20
4.601960
  0
VERTEX
  8
0
  6
CONTINUOUS
 10
4.620880
 20
3.850000
  0
VERTEX
  8
0
  6
CONTINUOUS
 10
4.589640
 20
3.858360
  0
SEQEND
  8
0
  0
SOLID
  8
0
 62
    15
 10
4.620880
 20
3.850000
 11
4.620440
 21
4.601960
 12
4.656520
 22
3.842520
 13
4.656080
 23
4.594480
  0
POLYLINE
  8
0
  6
CONTINUOUS
 66
     1
 40
0.000000
 41
0.000000
  0
VERTEX
  8
0
  6
CONTINUOUS
 10
4.620880
 20
3.850000
  0
VERTEX
  8
0
  6
CONTINUOUS
 10
4.620440
 20
4.601960
  0
VERTEX
  8
0
  6
CONTINUOUS
 10
4.656080
 20
4.594480
  0
VERTEX
  8
0
  6
CONTINUOUS
 10
4.656520
 20
3.842520
  0
VERTEX
  8
0
  6
CONTINUOUS
 10
4.620880
 20
3.850000
  0
SEQEND
  8
0
  0
SOLID
  8
0
 62
    15
 10
4.656520
 20
3.842520
 11
4.656080
 21
4.594480
 12
4.738360
 22
3.832400
 13
4.738360
 23
4.584800
  0
POLYLINE
  8
0
  6
CONTINUOUS
 66
     1
 40
0.000000
 41
0.000000
  0
VERTEX
  8
0
  6
CONTINUOUS
 10
4.656520
 20
3.842520
  0
VERTEX
  8
0
  6
CONTINUOUS
 10
4.656080
 20
4.594480
  0
VERTEX
  8
0
  6
CONTINUOUS
 10
4.738360
 20
4.584800
  0
VERTEX
  8
0
  6
CONTINUOUS
 10
4.738360
 20
3.832400
  0
VERTEX
  8
0
  6
CONTINUOUS
 10
4.656520
 20
3.842520
  0
SEQEND
  8
0
  0
SOLID
  8
0
 62
    15
 10
4.738360
 20
3.832400
 11
4.738360
 21
4.584800
 12
4.828560
 22
3.832400
 13
4.828560
 23
4.584800
  0
POLYLINE
  8
0
  6
CONTINUOUS
 66
     1
 40
0.000000
 41
0.000000
  0
VERTEX
  8
0
  6
CONTINUOUS
 10
4.738360
 20
3.832400
  0
VERTEX
  8
0
  6
CONTINUOUS
 10
4.738360
 20
4.584800
  0
VERTEX
  8
0
  6
CONTINUOUS
 10
4.828560
 20
4.584800
  0
VERTEX
  8
0
  6
CONTINUOUS
 10
4.828560
 20
3.832400
  0
VERTEX
  8
0
  6
CONTINUOUS
 10
4.738360
 20
3.832400
  0
SEQEND
  8
0
  0
SOLID
  8
0
 62
    15
 10
4.828560
 20
3.832400
 11
4.828560
 21
4.584800
 12
4.846160
 22
3.718880
 13
4.846160
 23
4.470840
  0
POLYLINE
  8
0
  6
CONTINUOUS
 66
     1
 40
0.000000
 41
0.000000
  0
VERTEX
  8
0
  6
CONTINUOUS
 10
4.828560
 20
3.832400
  0
VERTEX
  8
0
  6
CONTINUOUS
 10
4.828560
 20
4.584800
  0
VERTEX
  8
0
  6
CONTINUOUS
 10
4.846160
 20
4.470840
  0
VERTEX
  8
0
  6
CONTINUOUS
 10
4.846160
 20
3.718880
  0
VERTEX
  8
0
  6
CONTINUOUS
 10
4.828560
 20
3.832400
  0
SEQEND
  8
0
  0
SOLID
  8
0
 62
    15
 10
4.846160
 20
3.718880
 11
4.846160
 21
4.470840
 12
4.873000
 22
3.718440
 13
4.872560
 23
4.470400
  0
POLYLINE
  8
0
  6
CONTINUOUS
 66
     1
 40
0.000000
 41
0.000000
  0
VERTEX
  8
0
  6
CONTINUOUS
 10
4.846160
 20
3.718880
  0
VERTEX
  8
0
  6
CONTINUOUS
 10
4.846160
 20
4.470840
  0
VERTEX
  8
0
  6
CONTINUOUS
 10
4.872560
 20
4.470400
  0
VERTEX
  8
0
  6
CONTINUOUS
 10
4.873000
 20
3.718440
  0
VERTEX
  8
0
  6
CONTINUOUS
 10
4.846160
 20
3.718880
  0
SEQEND
  8
0
  0
SOLID
  8
0
 62
    15
 10
4.873000
 20
3.718440
 11
4.872560
 21
4.470400
 12
4.911280
 22
3.714920
 13
4.910840
 23
4.466880
  0
POLYLINE
  8
0
  6
CONTINUOUS
 66
     1
 40
0.000000
 41
0.000000
  0
VERTEX
  8
0
  6
CONTINUOUS
 10
4.873000
 20
3.718440
  0
VERTEX
  8
0
  6
CONTINUOUS
 10
4.872560
 20
4.470400
  0
VERTEX
  8
0
  6
CONTINUOUS
 10
4.910840
 20
4.466880
  0
VERTEX
  8
0
  6
CONTINUOUS
 10
4.911280
 20
3.714920
  0
VERTEX
  8
0
  6
CONTINUOUS
 10
4.873000
 20
3.718440
  0
SEQEND
  8
0
  0
SOLID
  8
0
 62
    15
 10
4.911280
 20
3.714920
 11
4.910840
 21
4.466880
 12
4.957920
 22
3.706560
 13
4.957920
 23
4.458520
  0
POLYLINE
  8
0
  6
CONTINUOUS
 66
     1
 40
0.000000
 41
0.000000
  0
VERTEX
  8
0
  6
CONTINUOUS
 10
4.911280
 20
3.714920
  0
VERTEX
  8
0
  6
CONTINUOUS
 10
4.910840
 20
4.466880
  0
VERTEX
  8
0
  6
CONTINUOUS
 10
4.957920
 20
4.458520
  0
VERTEX
  8
0
  6
CONTINUOUS
 10
4.957920
 20
3.706560
  0
VERTEX
  8
0
  6
CONTINUOUS
 10
4.911280
 20
3.714920
  0
SEQEND
  8
0
  0
SOLID
  8
0
 62
    15
 10
4.957920
 20
3.706560
 11
4.957920
 21
4.458520
 12
5.010280
 22
3.691600
 13
5.010280
 23
4.443560
  0
POLYLINE
  8
0
  6
CONTINUOUS
 66
     1
 40
0.000000
 41
0.000000
  0
VERTEX
  8
0
  6
CONTINUOUS
 10
4.957920
 20
3.706560
  0
VERTEX
  8
0
  6
CONTINUOUS
 10
4.957920
 20
4.458520
  0
VERTEX
  8
0
  6
CONTINUOUS
 10
5.010280
 20
4.443560
  0
VERTEX
  8
0
  6
CONTINUOUS
 10
5.010280
 20
3.691600
  0
VERTEX
  8
0
  6
CONTINUOUS
 10
4.957920
 20
3.706560
  0
SEQEND
  8
0
  0
SOLID
  8
0
 62
    15
 10
5.010280
 20
3.691600
 11
5.010280
 21
4.443560
 12
5.065280
 22
3.667840
 13
5.064840
 23
4.420240
  0
POLYLINE
  8
0
  6
CONTINUOUS
 66
     1
 40
0.000000
 41
0.000000
  0
VERTEX
  8
0
  6
CONTINUOUS
 10
5.010280
 20
3.691600
  0
VERTEX
  8
0
  6
CONTINUOUS
 10
5.010280
 20
4.443560
  0
VERTEX
  8
0
  6
CONTINUOUS
 10
5.064840
 20
4.420240
  0
VERTEX
  8
0
  6
CONTINUOUS
 10
5.065280
 20
3.667840
  0
VERTEX
  8
0
  6
CONTINUOUS
 10
5.010280
 20
3.691600
  0
SEQEND
  8
0
  0
SOLID
  8
0
 62
    15
 10
5.065280
 20
3.667840
 11
5.064840
 21
4.420240
 12
5.119400
 22
3.633960
 13
5.118960
 23
4.385920
  0
POLYLINE
  8
0
  6
CONTINUOUS
 66
     1
 40
0.000000
 41
0.000000
  0
VERTEX
  8
0
  6
CONTINUOUS
 10
5.065280
 20
3.667840
  0
VERTEX
  8
0
  6
CONTINUOUS
 10
5.064840
 20
4.420240
  0
VERTEX
  8
0
  6
CONTINUOUS
 10
5.118960
 20
4.385920
  0
VERTEX
  8
0
  6
CONTINUOUS
 10
5.119400
 20
3.633960
  0
VERTEX
  8
0
  6
CONTINUOUS
 10
5.065280
 20
3.667840
  0
SEQEND
  8
0
  0
SOLID
  8
0
 62
    15
 10
5.119400
 20
3.633960
 11
5.118960
 21
4.385920
 12
5.169560
 22
3.587760
 13
5.169120
 23
4.339720
  0
POLYLINE
  8
0
  6
CONTINUOUS
 66
     1
 40
0.000000
 41
0.000000
  0
VERTEX
  8
0
  6
CONTINUOUS
 10
5.119400
 20
3.633960
  0
VERTEX
  8
0
  6
CONTINUOUS
 10
5.118960
 20
4.385920
  0
VERTEX
  8
0
  6
CONTINUOUS
 10
5.169120
 20
4.339720
  0
VERTEX
  8
0
  6
CONTINUOUS
 10
5.169560
 20
3.587760
  0
VERTEX
  8
0
  6
CONTINUOUS
 10
5.119400
 20
3.633960
  0
SEQEND
  8
0
  0
SOLID
  8
0
 62
    15
 10
5.169560
 20
3.587760
 11
5.169120
 21
4.339720
 12
5.192440
 22
3.559600
 13
5.192000
 23
4.311560
  0
POLYLINE
  8
0
  6
CONTINUOUS
 66
     1
 40
0.000000
 41
0.000000
  0
VERTEX
  8
0
  6
CONTINUOUS
 10
5.169560
 20
3.587760
  0
VERTEX
  8
0
  6
CONTINUOUS
 10
5.169120
 20
4.339720
  0
VERTEX
  8
0
  6
CONTINUOUS
 10
5.192000
 20
4.311560
  0
VERTEX
  8
0
  6
CONTINUOUS
 10
5.192440
 20
3.559600
  0
VERTEX
  8
0
  6
CONTINUOUS
 10
5.169560
 20
3.587760
  0
SEQEND
  8
0
  0
SOLID
  8
0
 62
    15
 10
5.192440
 20
3.559600
 11
5.192000
 21
4.311560
 12
5.213120
 22
3.527480
 13
5.212680
 23
4.279440
  0
POLYLINE
  8
0
  6
CONTINUOUS
 66
     1
 40
0.000000
 41
0.000000
  0
VERTEX
  8
0
  6
CONTINUOUS
 10
5.192440
 20
3.559600
  0
VERTEX
  8
0
  6
CONTINUOUS
 10
5.192000
 20
4.311560
  0
VERTEX
  8
0
  6
CONTINUOUS
 10
5.212680
 20
4.279440
  0
VERTEX
  8
0
  6
CONTINUOUS
 10
5.213120
 20
3.527480
  0
VERTEX
  8
0
  6
CONTINUOUS
 10
5.192440
 20
3.559600
  0
SEQEND
  8
0
  0
SOLID
  8
0
 62
    15
 10
5.213120
 20
3.527480
 11
5.212680
 21
4.279440
 12
5.366240
 22
3.527480
 13
5.366240
 23
4.279440
  0
POLYLINE
  8
0
  6
CONTINUOUS
 66
     1
 40
0.000000
 41
0.000000
  0
VERTEX
  8
0
  6
CONTINUOUS
 10
5.213120
 20
3.527480
  0
VERTEX
  8
0
  6
CONTINUOUS
 10
5.212680
 20
4.279440
  0
VERTEX
  8
0
  6
CONTINUOUS
 10
5.366240
 20
4.279440
  0
VERTEX
  8
0
  6
CONTINUOUS
 10
5.366240
 20
3.527480
  0
VERTEX
  8
0
  6
CONTINUOUS
 10
5.213120
 20
3.527480
  0
SEQEND
  8
0
  0
SOLID
  8
0
 62
    15
 10
5.366240
 20
3.527480
 11
5.366240
 21
4.279440
 12
5.382520
 22
3.485680
 13
5.382080
 23
4.238080
  0
POLYLINE
  8
0
  6
CONTINUOUS
 66
     1
 40
0.000000
 41
0.000000
  0
VERTEX
  8
0
  6
CONTINUOUS
 10
5.366240
 20
3.527480
  0
VERTEX
  8
0
  6
CONTINUOUS
 10
5.366240
 20
4.279440
  0
VERTEX
  8
0
  6
CONTINUOUS
 10
5.382080
 20
4.238080
  0
VERTEX
  8
0
  6
CONTINUOUS
 10
5.382520
 20
3.485680
  0
VERTEX
  8
0
  6
CONTINUOUS
 10
5.366240
 20
3.527480
  0
SEQEND
  8
0
  0
SOLID
  8
0
 62
    15
 10
5.382520
 20
3.485680
 11
5.382080
 21
4.238080
 12
5.402760
 22
3.448720
 13
5.402320
 23
4.200680
  0
POLYLINE
  8
0
  6
CONTINUOUS
 66
     1
 40
0.000000
 41
0.000000
  0
VERTEX
  8
0
  6
CONTINUOUS
 10
5.382520
 20
3.485680
  0
VERTEX
  8
0
  6
CONTINUOUS
 10
5.382080
 20
4.238080
  0
VERTEX
  8
0
  6
CONTINUOUS
 10
5.402320
 20
4.200680
  0
VERTEX
  8
0
  6
CONTINUOUS
 10
5.402760
 20
3.448720
  0
VERTEX
  8
0
  6
CONTINUOUS
 10
5.382520
 20
3.485680
  0
SEQEND
  8
0
  0
SOLID
  8
0
 62
    15
 10
5.402760
 20
3.448720
 11
5.402320
 21
4.200680
 12
5.426080
 22
3.415280
 13
5.425640
 23
4.167240
  0
POLYLINE
  8
0
  6
CONTINUOUS
 66
     1
 40
0.000000
 41
0.000000
  0
VERTEX
  8
0
  6
CONTINUOUS
 10
5.402760
 20
3.448720
  0
VERTEX
  8
0
  6
CONTINUOUS
 10
5.402320
 20
4.200680
  0
VERTEX
  8
0
  6
CONTINUOUS
 10
5.425640
 20
4.167240
  0
VERTEX
  8
0
  6
CONTINUOUS
 10
5.426080
 20
3.415280
  0
VERTEX
  8
0
  6
CONTINUOUS
 10
5.402760
 20
3.448720
  0
SEQEND
  8
0
  0
SOLID
  8
0
 62
    15
 10
5.426080
 20
3.415280
 11
5.425640
 21
4.167240
 12
5.452480
 22
3.385800
 13
5.452480
 23
4.137760
  0
POLYLINE
  8
0
  6
CONTINUOUS
 66
     1
 40
0.000000
 41
0.000000
  0
VERTEX
  8
0
  6
CONTINUOUS
 10
5.426080
 20
3.415280
  0
VERTEX
  8
0
  6
CONTINUOUS
 10
5.425640
 20
4.167240
  0
VERTEX
  8
0
  6
CONTINUOUS
 10
5.452480
 20
4.137760
  0
VERTEX
  8
0
  6
CONTINUOUS
 10
5.452480
 20
3.385800
  0
VERTEX
  8
0
  6
CONTINUOUS
 10
5.426080
 20
3.415280
  0
SEQEND
  8
0
  0
SOLID
  8
0
 62
    15
 10
5.452480
 20
3.385800
 11
5.452480
 21
4.137760
 12
5.481520
 22
3.359840
 13
5.481520
 23
4.111800
  0
POLYLINE
  8
0
  6
CONTINUOUS
 66
     1
 40
0.000000
 41
0.000000
  0
VERTEX
  8
0
  6
CONTINUOUS
 10
5.452480
 20
3.385800
  0
VERTEX
  8
0
  6
CONTINUOUS
 10
5.452480
 20
4.137760
  0
VERTEX
  8
0
  6
CONTINUOUS
 10
5.481520
 20
4.111800
  0
VERTEX
  8
0
  6
CONTINUOUS
 10
5.481520
 20
3.359840
  0
VERTEX
  8
0
  6
CONTINUOUS
 10
5.452480
 20
3.385800
  0
SEQEND
  8
0
  0
SOLID
  8
0
 62
    15
 10
5.481520
 20
3.359840
 11
5.481520
 21
4.111800
 12
5.513200
 22
3.336960
 13
5.512760
 23
4.089360
  0
POLYLINE
  8
0
  6
CONTINUOUS
 66
     1
 40
0.000000
 41
0.000000
  0
VERTEX
  8
0
  6
CONTINUOUS
 10
5.481520
 20
3.359840
  0
VERTEX
  8
0
  6
CONTINUOUS
 10
5.481520
 20
4.111800
  0
VERTEX
  8
0
  6
CONTINUOUS
 10
5.512760
 20
4.089360
  0
VERTEX
  8
0
  6
CONTINUOUS
 10
5.513200
 20
3.336960
  0
VERTEX
  8
0
  6
CONTINUOUS
 10
5.481520
 20
3.359840
  0
SEQEND
  8
0
  0
SOLID
  8
0
 62
    15
 10
5.513200
 20
3.336960
 11
5.512760
 21
4.089360
 12
5.581400
 22
3.300880
 13
5.580960
 23
4.053280
  0
POLYLINE
  8
0
  6
CONTINUOUS
 66
     1
 40
0.000000
 41
0.000000
  0
VERTEX
  8
0
  6
CONTINUOUS
 10
5.513200
 20
3.336960
  0
VERTEX
  8
0
  6
CONTINUOUS
 10
5.512760
 20
4.089360
  0
VERTEX
  8
0
  6
CONTINUOUS
 10
5.580960
 20
4.053280
  0
VERTEX
  8
0
  6
CONTINUOUS
 10
5.581400
 20
3.300880
  0
VERTEX
  8
0
  6
CONTINUOUS
 10
5.513200
 20
3.336960
  0
SEQEND
  8
0
  0
SOLID
  8
0
 62
    15
 10
5.581400
 20
3.300880
 11
5.580960
 21
4.053280
 12
5.653560
 22
3.275800
 13
5.653120
 23
4.028200
  0
POLYLINE
  8
0
  6
CONTINUOUS
 66
     1
 40
0.000000
 41
0.000000
  0
VERTEX
  8
0
  6
CONTINUOUS
 10
5.581400
 20
3.300880
  0
VERTEX
  8
0
  6
CONTINUOUS
 10
5.580960
 20
4.053280
  0
VERTEX
  8
0
  6
CONTINUOUS
 10
5.653120
 20
4.028200
  0
VERTEX
  8
0
  6
CONTINUOUS
 10
5.653560
 20
3.275800
  0
VERTEX
  8
0
  6
CONTINUOUS
 10
5.581400
 20
3.300880
  0
SEQEND
  8
0
  0
SOLID
  8
0
 62
    15
 10
5.653560
 20
3.275800
 11
5.653120
 21
4.028200
 12
5.726600
 22
3.259960
 13
5.726600
 23
4.012360
  0
POLYLINE
  8
0
  6
CONTINUOUS
 66
     1
 40
0.000000
 41
0.000000
  0
VERTEX
  8
0
  6
CONTINUOUS
 10
5.653560
 20
3.275800
  0
VERTEX
  8
0
  6
CONTINUOUS
 10
5.653120
 20
4.028200
  0
VERTEX
  8
0
  6
CONTINUOUS
 10
5.726600
 20
4.012360
  0
VERTEX
  8
0
  6
CONTINUOUS
 10
5.726600
 20
3.259960
  0
VERTEX
  8
0
  6
CONTINUOUS
 10
5.653560
 20
3.275800
  0
SEQEND
  8
0
  0
SOLID
  8
0
 62
    15
 10
5.726600
 20
3.259960
 11
5.726600
 21
4.012360
 12
5.797880
 22
3.251600
 13
5.797880
 23
4.003560
  0
POLYLINE
  8
0
  6
CONTINUOUS
 66
     1
 40
0.000000
 41
0.000000
  0
VERTEX
  8
0
  6
CONTINUOUS
 10
5.726600
 20
3.259960
  0
VERTEX
  8
0
  6
CONTINUOUS
 10
5.726600
 20
4.012360
  0
VERTEX
  8
0
  6
CONTINUOUS
 10
5.797880
 20
4.003560
  0
VERTEX
  8
0
  6
CONTINUOUS
 10
5.797880
 20
3.251600
  0
VERTEX
  8
0
  6
CONTINUOUS
 10
5.726600
 20
3.259960
  0
SEQEND
  8
0
  0
SOLID
  8
0
 62
    15
 10
5.797880
 20
3.251600
 11
5.797880
 21
4.003560
 12
5.863880
 22
3.248520
 13
5.863880
 23
4.000920
  0
POLYLINE
  8
0
  6
CONTINUOUS
 66
     1
 40
0.000000
 41
0.000000
  0
VERTEX
  8
0
  6
CONTINUOUS
 10
5.797880
 20
3.251600
  0
VERTEX
  8
0
  6
CONTINUOUS
 10
5.797880
 20
4.003560
  0
VERTEX
  8
0
  6
CONTINUOUS
 10
5.863880
 20
4.000920
  0
VERTEX
  8
0
  6
CONTINUOUS
 10
5.863880
 20
3.248520
  0
VERTEX
  8
0
  6
CONTINUOUS
 10
5.797880
 20
3.251600
  0
SEQEND
  8
0
  0
POLYLINE
  8
0
  6
CONTINUOUS
 66
     1
 40
0.000000
 41
0.000000
  0
VERTEX
  8
0
  6
CONTINUOUS
 10
2.835800
 20
3.073400
  0
VERTEX
  8
0
  6
CONTINUOUS
 10
2.835800
 20
3.248520
  0
VERTEX
  8
0
  6
CONTINUOUS
 10
2.901800
 20
3.251600
  0
VERTEX
  8
0
  6
CONTINUOUS
 10
2.973080
 20
3.259960
  0
VERTEX
  8
0
  6
CONTINUOUS
 10
3.046120
 20
3.275800
  0
VERTEX
  8
0
  6
CONTINUOUS
 10
3.118280
 20
3.300880
  0
VERTEX
  8
0
  6
CONTINUOUS
 10
3.186480
 20
3.336960
  0
VERTEX
  8
0
  6
CONTINUOUS
 10
3.217720
 20
3.359840
  0
VERTEX
  8
0
  6
CONTINUOUS
 10
3.247200
 20
3.385800
  0
VERTEX
  8
0
  6
CONTINUOUS
 10
3.273600
 20
3.415280
  0
VERTEX
  8
0
  6
CONTINUOUS
 10
3.296920
 20
3.448720
  0
VERTEX
  8
0
  6
CONTINUOUS
 10
3.317160
 20
3.485680
  0
VERTEX
  8
0
  6
CONTINUOUS
 10
3.333440
 20
3.527480
  0
VERTEX
  8
0
  6
CONTINUOUS
 10
3.486560
 20
3.527480
  0
VERTEX
  8
0
  6
CONTINUOUS
 10
3.507240
 20
3.559600
  0
VERTEX
  8
0
  6
CONTINUOUS
 10
3.530120
 20
3.587760
  0
VERTEX
  8
0
  6
CONTINUOUS
 10
3.580720
 20
3.633960
  0
VERTEX
  8
0
  6
CONTINUOUS
 10
3.634400
 20
3.667840
  0
VERTEX
  8
0
  6
CONTINUOUS
 10
3.689400
 20
3.691600
  0
VERTEX
  8
0
  6
CONTINUOUS
 10
3.741760
 20
3.706560
  0
VERTEX
  8
0
  6
CONTINUOUS
 10
3.788840
 20
3.714920
  0
VERTEX
  8
0
  6
CONTINUOUS
 10
3.826680
 20
3.718440
  0
VERTEX
  8
0
  6
CONTINUOUS
 10
3.853520
 20
3.718880
  0
VERTEX
  8
0
  6
CONTINUOUS
 10
3.871120
 20
3.832400
  0
VERTEX
  8
0
  6
CONTINUOUS
 10
3.961320
 20
3.832400
  0
VERTEX
  8
0
  6
CONTINUOUS
 10
4.043160
 20
3.842520
  0
VERTEX
  8
0
  6
CONTINUOUS
 10
4.078800
 20
3.850000
  0
VERTEX
  8
0
  6
CONTINUOUS
 10
4.110040
 20
3.858360
  0
VERTEX
  8
0
  6
CONTINUOUS
 10
4.135120
 20
3.867600
  0
VERTEX
  8
0
  6
CONTINUOUS
 10
4.191880
 20
3.894880
  0
VERTEX
  8
0
  6
CONTINUOUS
 10
4.240280
 20
3.912040
  0
VERTEX
  8
0
  6
CONTINUOUS
 10
4.294400
 20
3.924800
  0
VERTEX
  8
0
  6
CONTINUOUS
 10
4.350280
 20
3.929200
  0
VERTEX
  8
0
  6
CONTINUOUS
 10
4.405280
 20
3.924800
  0
VERTEX
  8
0
  6
CONTINUOUS
 10
4.459400
 20
3.912040
  0
VERTEX
  8
0
  6
CONTINUOUS
 10
4.507800
 20
3.894880
  0
VERTEX
  8
0
  6
CONTINUOUS
 10
4.564560
 20
3.867600
  0
VERTEX
  8
0
  6
CONTINUOUS
 10
4.589640
 20
3.858360
  0
VERTEX
  8
0
  6
CONTINUOUS
 10
4.620880
 20
3.850000
  0
VERTEX
  8
0
  6
CONTINUOUS
 10
4.656520
 20
3.842520
  0
VERTEX
  8
0
  6
CONTINUOUS
 10
4.738360
 20
3.832400
  0
VERTEX
  8
0
  6
CONTINUOUS
 10
4.828560
 20
3.832400
  0
VERTEX
  8
0
  6
CONTINUOUS
 10
4.846160
 20
3.718880
  0
VERTEX
  8
0
  6
CONTINUOUS
 10
4.873000
 20
3.718440
  0
VERTEX
  8
0
  6
CONTINUOUS
 10
4.911280
 20
3.714920
  0
VERTEX
  8
0
  6
CONTINUOUS
 10
4.957920
 20
3.706560
  0
VERTEX
  8
0
  6
CONTINUOUS
 10
5.010280
 20
3.691600
  0
VERTEX
  8
0
  6
CONTINUOUS
 10
5.065280
 20
3.667840
  0
VERTEX
  8
0
  6
CONTINUOUS
 10
5.119400
 20
3.633960
  0
VERTEX
  8
0
  6
CONTINUOUS
 10
5.169560
 20
3.587760
  0
VERTEX
  8
0
  6
CONTINUOUS
 10
5.192440
 20
3.559600
  0
VERTEX
  8
0
  6
CONTINUOUS
 10
5.213120
 20
3.527480
  0
VERTEX
  8
0
  6
CONTINUOUS
 10
5.366240
 20
3.527480
  0
VERTEX
  8
0
  6
CONTINUOUS
 10
5.382520
 20
3.485680
  0
VERTEX
  8
0
  6
CONTINUOUS
 10
5.402760
 20
3.448720
  0
VERTEX
  8
0
  6
CONTINUOUS
 10
5.426080
 20
3.415280
  0
VERTEX
  8
0
  6
CONTINUOUS
 10
5.452480
 20
3.385800
  0
VERTEX
  8
0
  6
CONTINUOUS
 10
5.481520
 20
3.359840
  0
VERTEX
  8
0
  6
CONTINUOUS
 10
5.513200
 20
3.336960
  0
VERTEX
  8
0
  6
CONTINUOUS
 10
5.581400
 20
3.300880
  0
VERTEX
  8
0
  6
CONTINUOUS
 10
5.653560
 20
3.275800
  0
VERTEX
  8
0
  6
CONTINUOUS
 10
5.726600
 20
3.259960
  0
VERTEX
  8
0
  6
CONTINUOUS
 10
5.797880
 20
3.251600
  0
VERTEX
  8
0
  6
CONTINUOUS
 10
5.863880
 20
3.248520
  0
VERTEX
  8
0
  6
CONTINUOUS
 10
5.863880
 20
3.073400
  0
VERTEX
  8
0
  6
CONTINUOUS
 10
2.835800
 20
3.073400
  0
SEQEND
  8
0
  0
TEXT
  8
0
 10
4.007960
 20
2.885080
 40
0.138002
  1
BA  1343
 41
1.000000
  7
SN0
 71
     0
 72
     5
 11
4.690401
 21
2.885080
  0
TEXT
  8
0
 10
4.041400
 20
2.693240
 40
0.138002
  1
7/8" x 3"
 41
1.000000
  7
SN0
 71
     0
 72
     5
 11
4.656466
 21
2.693240
  0
TEXT
  8
0
 10
3.944600
 20
5.658400
 40
0.138002
  1
BA  1343
 41
1.000000
  7
SN0
 71
     0
 72
     5
 11
4.627041
 21
5.658400
  0
TEXT
  8
0
 10
3.978040
 20
5.466560
 40
0.138002
  1
7/8" x 3"
 41
1.000000
  7
SN0
 71
     0
 72
     5
 11
4.593106
 21
5.466560
  0
TEXT
  8
0
 10
3.971880
 20
1.202960
 40
0.138002
  1
BA  1343
 41
1.000000
  7
SN0
 71
     0
 72
     5
 11
4.654321
 21
1.202960
  0
TEXT
  8
0
 10
4.005320
 20
1.011560
 40
0.138002
  1
7/8" x 3"
 41
1.000000
  7
SN0
 71
     0
 72
     5
 11
4.620386
 21
1.011560
  0
TEXT
  8
0
 10
3.468960
 20
4.902040
 40
0.114358
  1
1343 casing use 1342 for plynth
 41
1.000000
  7
SN1
 71
     0
 72
     5
 11
5.414694
 21
4.902040
  0
ENDSEC
  0
EOF
