  0
SECTION
  2
HEADER
  9
$ACADVER
  1
AC1015
  9
$ACADMAINTVER
 70
     6
  9
$DWGCODEPAGE
  3
DOS850
  9
$INSBASE
 10
0.0
 20
0.0
 30
0.0
  9
$EXTMIN
 10
1.000000E+20
 20
1.000000E+20
 30
1.000000E+20
  9
$EXTMAX
 10
-1.000000E+20
 20
-1.000000E+20
 30
-1.000000E+20
  9
$LIMMIN
 10
0.0
 20
0.0
  9
$LIMMAX
 10
0.0
 20
0.0
  9
$ORTHOMODE
 70
     0
  9
$REGENMODE
 70
     1
  9
$FILLMODE
 70
     1
  9
$QTEXTMODE
 70
     0
  9
$MIRRTEXT
 70
     1
  9
$LTSCALE
 40
1.0
  9
$ATTMODE
 70
     1
  9
$TEXTSIZE
 40
0.2
  9
$TRACEWID
 40
0.05
  9
$TEXTSTYLE
  7
Standard
  9
$CLAYER
  8
0
  9
$CELTYPE
  6
Continuous
  9
$CECOLOR
 62
   256
  9
$CELTSCALE
 40
1.0
  9
$DISPSILH
 70
     0
  9
$DIMSCALE
 40
1.0
  9
$DIMASZ
 40
0.18
  9
$DIMEXO
 40
0.0625
  9
$DIMDLI
 40
0.38
  9
$DIMRND
 40
0.0
  9
$DIMDLE
 40
0.0
  9
$DIMEXE
 40
0.18
  9
$DIMTP
 40
0.0
  9
$DIMTM
 40
0.0
  9
$DIMTXT
 40
0.18
  9
$DIMCEN
 40
0.09
  9
$DIMTSZ
 40
0.0
  9
$DIMTOL
 70
     0
  9
$DIMLIM
 70
     0
  9
$DIMTIH
 70
     1
  9
$DIMTOH
 70
     1
  9
$DIMSE1
 70
     0
  9
$DIMSE2
 70
     0
  9
$DIMTAD
 70
     0
  9
$DIMZIN
 70
     0
  9
$DIMBLK
  1

  9
$DIMASO
 70
     1
  9
$DIMSHO
 70
     1
  9
$DIMPOST
  1

  9
$DIMAPOST
  1

  9
$DIMALT
 70
     0
  9
$DIMALTD
 70
     2
  9
$DIMALTF
 40
25.4
  9
$DIMLFAC
 40
1.0
  9
$DIMTOFL
 70
     0
  9
$DIMTVP
 40
0.0
  9
$DIMTIX
 70
     0
  9
$DIMSOXD
 70
     0
  9
$DIMSAH
 70
     0
  9
$DIMBLK1
  1

  9
$DIMBLK2
  1

  9
$DIMSTYLE
  2
Standard
  9
$DIMCLRD
 70
     0
  9
$DIMCLRE
 70
     0
  9
$DIMCLRT
 70
     0
  9
$DIMTFAC
 40
1.0
  9
$DIMGAP
 40
0.09
  9
$DIMJUST
 70
     0
  9
$DIMSD1
 70
     0
  9
$DIMSD2
 70
     0
  9
$DIMTOLJ
 70
     1
  9
$DIMTZIN
 70
     0
  9
$DIMALTZ
 70
     0
  9
$DIMALTTZ
 70
     0
  9
$DIMUPT
 70
     0
  9
$DIMDEC
 70
     4
  9
$DIMTDEC
 70
     4
  9
$DIMALTU
 70
     2
  9
$DIMALTTD
 70
     2
  9
$DIMTXSTY
  7
Standard
  9
$DIMAUNIT
 70
     0
  9
$DIMADEC
 70
     0
  9
$DIMALTRND
 40
0.0
  9
$DIMAZIN
 70
     0
  9
$DIMDSEP
 70
     0
  9
$DIMATFIT
 70
     3
  9
$DIMFRAC
 70
     0
  9
$DIMLDRBLK
  1

  9
$DIMLUNIT
 70
     2
  9
$DIMLWD
 70
     0
  9
$DIMLWE
 70
     0
  9
$DIMTMOVE
 70
     0
  9
$LUNITS
 70
     2
  9
$LUPREC
 70
     4
  9
$SKETCHINC
 40
0.1
  9
$FILLETRAD
 40
0.0
  9
$AUNITS
 70
     0
  9
$AUPREC
 70
     0
  9
$MENU
  1
acad
  9
$ELEVATION
 40
0.0
  9
$PELEVATION
 40
0.0
  9
$THICKNESS
 40
0.0
  9
$LIMCHECK
 70
     0
  9
$CHAMFERA
 40
0.0
  9
$CHAMFERB
 40
0.0
  9
$CHAMFERC
 40
0.0
  9
$CHAMFERD
 40
0.0
  9
$SKPOLY
 70
     0
  9
$TDCREATE
 40
0.000000000
  9
$TDUCREATE
 40
0.000000000
  9
$TDUPDATE
 40
0.000000000
  9
$TDUUPDATE
 40
0.000000000
  9
$TDINDWG
 40
0.0000000000
  9
$TDUSRTIMER
 40
0.0000000000
  9
$USRTIMER
 70
     1
  9
$ANGBASE
 50
0.0
  9
$ANGDIR
 70
     0
  9
$PDMODE
 70
     0
  9
$PDSIZE
 40
0.0
  9
$PLINEWID
 40
0.0
  9
$SPLFRAME
 70
     0
  9
$SPLINETYPE
 70
     6
  9
$SPLINESEGS
 70
     8
  9
$HANDSEED
  5
15D
  9
$SURFTAB1
 70
     6
  9
$SURFTAB2
 70
     6
  9
$SURFTYPE
 70
     6
  9
$SURFU
 70
     6
  9
$SURFV
 70
     6
  9
$UCSBASE
  2

  9
$UCSNAME
  2

  9
$UCSORG
 10
0.0
 20
0.0
 30
0.0
  9
$UCSXDIR
 10
1.0
 20
0.0
 30
0.0
  9
$UCSYDIR
 10
0.0
 20
1.0
 30
0.0
  9
$UCSORTHOREF
  2

  9
$UCSORTHOVIEW
 70
     0
  9
$UCSORGTOP
 10
0.0
 20
0.0
 30
0.0
  9
$UCSORGBOTTOM
 10
0.0
 20
0.0
 30
0.0
  9
$UCSORGLEFT
 10
0.0
 20
0.0
 30
0.0
  9
$UCSORGRIGHT
 10
0.0
 20
0.0
 30
0.0
  9
$UCSORGFRONT
 10
0.0
 20
0.0
 30
0.0
  9
$UCSORGBACK
 10
0.0
 20
0.0
 30
0.0
  9
$PUCSBASE
  2

  9
$PUCSNAME
  2

  9
$PUCSORG
 10
0.0
 20
0.0
 30
0.0
  9
$PUCSXDIR
 10
1.0
 20
0.0
 30
0.0
  9
$PUCSYDIR
 10
0.0
 20
1.0
 30
0.0
  9
$PUCSORTHOREF
  2

  9
$PUCSORTHOVIEW
 70
     0
  9
$PUCSORGTOP
 10
0.0
 20
0.0
 30
0.0
  9
$PUCSORGBOTTOM
 10
0.0
 20
0.0
 30
0.0
  9
$PUCSORGLEFT
 10
0.0
 20
0.0
 30
0.0
  9
$PUCSORGRIGHT
 10
0.0
 20
0.0
 30
0.0
  9
$PUCSORGFRONT
 10
0.0
 20
0.0
 30
0.0
  9
$PUCSORGBACK
 10
0.0
 20
0.0
 30
0.0
  9
$USERI1
 70
     0
  9
$USERI2
 70
     0
  9
$USERI3
 70
     0
  9
$USERI4
 70
     0
  9
$USERI5
 70
     0
  9
$USERR1
 40
0.0
  9
$USERR2
 40
0.0
  9
$USERR3
 40
0.0
  9
$USERR4
 40
0.0
  9
$USERR5
 40
0.0
  9
$WORLDVIEW
 70
     1
  9
$SHADEDGE
 70
     3
  9
$SHADEDIF
 70
    70
  9
$TILEMODE
 70
     1
  9
$MAXACTVP
 70
    16
  9
$PINSBASE
 10
0.0
 20
0.0
 30
0.0
  9
$PLIMCHECK
 70
     0
  9
$PEXTMIN
 10
1.000000E+20
 20
1.000000E+20
 30
1.000000E+20
  9
$PEXTMAX
 10
-1.000000E+20
 20
-1.000000E+20
 30
-1.000000E+20
  9
$PLIMMIN
 10
0.0
 20
0.0
  9
$PLIMMAX
 10
12.0
 20
9.0
  9
$UNITMODE
 70
     0
  9
$VISRETAIN
 70
     0
  9
$PLINEGEN
 70
     1
  9
$PSLTSCALE
 70
     0
  9
$TREEDEPTH
 70
  3020
  9
$CMLSTYLE
  2
Standard
  9
$CMLJUST
 70
     0
  9
$CMLSCALE
 40
1.0
  9
$PROXYGRAPHICS
 70
     0
  9
$MEASUREMENT
 70
     0
  9
$CELWEIGHT
370
     0
  9
$ENDCAPS
280
     0
  9
$JOINSTYLE
280
     0
  9
$LWDISPLAY
290
     0
  9
$INSUNITS
 70
     0
  9
$HYPERLINKBASE
  1

  9
$XEDIT
290
     1
  9
$CEPSNTYPE
380
     0
  9
$PSTYLEMODE
290
     1
  9
$FINGERPRINTGUID
  2

  9
$VERSIONGUID
  2

  9
$EXTNAMES
290
     1
  9
$PSVPSCALE
 40
0.0
  0
ENDSEC
  0
SECTION
  2
CLASSES
  0
CLASS
  1
LWPOLYLINE
  2
AcDbPolyline
  3
AutoCAD 2000
 90
        0
280
     0
281
     1
  0
CLASS
  1
IMAGE
  2
AcDbRasterImage
  3
ISM
 90
    32895
280
     0
281
     1
  0
CLASS
  1
OLE2FRAME
  2
AcDbOle2Frame
  3
AutoCAD 2000
 90
    32768
280
     0
281
     1
  0
CLASS
  1
HATCH
  2
AcDbHatch
  3
AutoCAD 2000
 90
    32768
280
     0
281
     1
  0
CLASS
  1
DICTIONARYVAR
  2
AcDbDictionaryVar
  3
AutoCAD 2000
 90
    32768
280
     0
281
     0
  0
CLASS
  1
RASTERVARIABLES
  2
AcDbRasterVariables
  3
ISM
 90
    32768
280
     0
281
     0
  0
CLASS
  1
IMAGEDEF
  2
AcDbRasterImageDef
  3
ISM
 90
    32768
280
     0
281
     0
  0
CLASS
  1
IMAGEDEF_REACTOR
  2
AcDbRasterImageDefReactor
  3
ISM
 90
    32769
280
     0
281
     0
  0
CLASS
  1
IDBUFFER
  2
AcDbIdBuffer
  3
AutoCAD 2000
 90
    32768
280
     0
281
     0
  0
CLASS
  1
SPATIAL_FILTER
  2
AcDbSpatialFilter
  3
AutoCAD 2000
 90
    32768
280
     0
281
     0
  0
CLASS
  1
XRECORD
  2
AcDbXrecord
  3
AutoCAD 2000
 90
    32768
280
     0
281
     0
  0
CLASS
  1
SORTENTSTABLE
  2
AcDbSortentsTable
  3
AutoCAD 2000
 90
    32768
280
     0
281
     0
  0
CLASS
  1
LAYER_INDEX
  2
AcDbLayerIndex
  3
AutoCAD 2000
 90
    32768
280
     0
281
     0
  0
CLASS
  1
SPATIAL_INDEX
  2
AcDbSpatialIndex
  3
AutoCAD 2000
 90
    32768
280
     0
281
     0
  0
CLASS
  1
OBJECT_PTR
  2
CAseDLPNTableRecord
  3
"ASE-LPNTableRecord"
 90
    32769
280
     0
281
     0
  0
CLASS
  1
LAYOUT
  2
AcDbLayout
  3
AutoCAD 2000
 90
        0
280
     0
281
     0
  0
CLASS
  1
PLOTSETTINGS
  2
AcDbPlotSettings
  3
AutoCAD 2000
 90
    32768
280
     0
281
     0
  0
CLASS
  1
ACDBDICTIONARYWDFLT
  2
AcDbDictionaryWithDefault
  3
AutoCAD 2000
 90
        0
280
     0
281
     0
  0
CLASS
  1
ACDBPLACEHOLDER
  2
AcDbPlaceHolder
  3
AutoCAD 2000
 90
        0
280
     0
281
     0
  0
CLASS
  1
VBA_PROJECT
  2
AcDbVbaProject
  3
acadvba
 90
    32768
280
     0
281
     0
  0
CLASS
  1
WIPEOUT
  2
AcDbWipeout
  3
WipeOut|AutoCAD Express Tool|expresstools@autodesk.com
 90
    32895
280
     0
281
     1
  0
CLASS
  1
WIPEOUTVARIABLES
  2
AcDbWipeoutVariables
  3
WipeOut|AutoCAD Express Tool|expresstools@autodesk.com
 90
        0
280
     0
281
     0
  0
CLASS
  1
RTEXT
  2
RText
  3
RText|AutoCAD Express Tool|expresstools@autodesk.com
 90
    32768
280
     0
281
     1
  0
CLASS
  1
ARCALIGNEDTEXT
  2
AcDbArcAlignedText
  3
ATEXT|AutoCAD Express Tool|expresstools@autodesk.com
 90
    32768
280
     0
281
     1
  0
ENDSEC
  0
SECTION
  2
TABLES
  0
TABLE
  2
VPORT
  5
7
100
AcDbSymbolTable
 70
     1
  0
VPORT
  5
15
100
AcDbSymbolTableRecord
100
AcDbViewportTableRecord
  2
*ACTIVE
 70
     0
 10
0.0
 20
0.0
 11
1.0
 21
1.0
 12
6.591288
 22
4.579184
 13
0.0
 23
0.0
 14
1.0
 24
1.0
 15
0.0
 25
0.0
 16
0.0
 26
0.0
 36
1.0
 17
0.0
 27
0.0
 37
0.0
 40
9.158369
 41
0.688564
 42
50.0
 43
0.0
 44
0.0
 50
0.0
 51
0.0
 71
     0
 72
   100
 73
     1
 74
     1
 75
     0
 76
     0
 77
     0
 78
     0
281
     0
 65
     0
110
0.0
120
0.0
130
0.0
111
1.0
121
0.0
131
0.0
112
0.0
122
1.0
132
0.0
345
0
346
0
 79
     0
146
0.0
  0
ENDTAB
  0
TABLE
  2
LTYPE
  5
4
100
AcDbSymbolTable
 70
     3
  0
LTYPE
  5
11
100
AcDbSymbolTableRecord
100
AcDbLinetypeTableRecord
  2
ByBlock
 70
    64
  3

 72
    65
 73
     0
 40
0.0
  0
LTYPE
  5
12
100
AcDbSymbolTableRecord
100
AcDbLinetypeTableRecord
  2
ByLayer
 70
    64
  3

 72
    65
 73
     0
 40
0.0
  0
LTYPE
  5
13
100
AcDbSymbolTableRecord
100
AcDbLinetypeTableRecord
  2
Continuous
 70
    64
  3
Solid line
 72
    65
 73
     0
 40
0.0
  0
ENDTAB
  0
TABLE
  2
LAYER
  5
2
100
AcDbSymbolTable
 70
     1
  0
LAYER
  5
14
100
AcDbSymbolTableRecord
100
AcDbLayerTableRecord
  2
0
 70
     0
 62
     7
  6
Continuous
290
     1
370
    -3
390
1D
  0
ENDTAB
  0
TABLE
  2
STYLE
  5
3
100
AcDbSymbolTable
 70
     1
  0
STYLE
  5
17
100
AcDbSymbolTableRecord
100
AcDbTextStyleTableRecord
  2
Standard
 70
     0
 40
0.0
 41
1.0
 50
0.0
 71
     0
 42
0.0
  3
txt
  4

  0
ENDTAB
  0
TABLE
  2
VIEW
  5
5
100
AcDbSymbolTable
 70
     0
  0
ENDTAB
  0
TABLE
  2
UCS
  5
6
100
AcDbSymbolTable
 70
     0
  0
ENDTAB
  0
TABLE
  2
APPID
  5
8
100
AcDbSymbolTable
 70
     1
  0
APPID
  5
16
100
AcDbSymbolTableRecord
100
AcDbRegAppTableRecord
  2
ACAD
 70
     0
  0
ENDTAB
  0
TABLE
  2
DIMSTYLE
  5
9
100
AcDbSymbolTable
 70
     1
100
AcDbDimStyleTable
 71
     0
  0
DIMSTYLE
105
18
100
AcDbSymbolTableRecord
100
AcDbDimStyleTableRecord
  2
Standard
 70
     0
  3

  4

 40
1.0
 41
0.18
 42
0.0625
 43
0.38
 44
0.18
 45
0.0
 46
0.0
 47
0.0
 48
0.0
 71
     0
 72
     0
 73
     1
 74
     1
 75
     0
 76
     0
 77
     0
 78
     0
 79
     0
140
0.18
141
0.09
142
0.0
143
25.4
144
1.0
145
0.0
146
1.0
147
0.09
148
0.0
170
     0
171
     2
172
     0
173
     0
174
     0
175
     0
176
     0
177
     0
178
     0
179
     0
271
     4
272
     4
273
     2
274
     2
275
     0
276
     0
277
     2
278
    46
279
     0
280
     0
281
     0
282
     0
283
     1
284
     0
285
     0
286
     0
288
     0
340
17
341
0
342
0
343
0
344
0
371
    -2
372
    -2
  0
ENDTAB
  0
TABLE
  2
BLOCK_RECORD
  5
1
100
AcDbSymbolTable
 70
     0
  0
BLOCK_RECORD
  5
A
100
AcDbSymbolTableRecord
100
AcDbBlockTableRecord
  2
*MODEL_SPACE
340
20
  0
BLOCK_RECORD
  5
B
100
AcDbSymbolTableRecord
100
AcDbBlockTableRecord
  2
*PAPER_SPACE
340
21
  0
ENDTAB
  0
ENDSEC
  0
SECTION
  2
BLOCKS
  0
BLOCK
  5
D
100
AcDbEntity
  8
0
100
AcDbBlockBegin
  2
*MODEL_SPACE
 70
     0
 10
0.0
 20
0.0
 30
0.0
  3
*MODEL_SPACE
  1

  0
ENDBLK
  5
E
100
AcDbEntity
  8
0
100
AcDbBlockEnd
  0
BLOCK
  5
F
100
AcDbEntity
 67
     1
  8
0
100
AcDbBlockBegin
  2
*PAPER_SPACE
 70
     0
 10
0.0
 20
0.0
 30
0.0
  3
*PAPER_SPACE
  1

  0
ENDBLK
  5
10
100
AcDbEntity
 67
     1
  8
0
100
AcDbBlockEnd
  0
ENDSEC
  0
SECTION
  2
ENTITIES
  0
SPLINE
  5
24
100
AcDbEntity
  8
0
 62
     0
100
AcDbSpline
210
0.0
220
0.0
230
1.0
 70
     0
 71
     3
 72
     0
 73
     0
 74
   177
 44
0.0000000001
 11
1.6501614173228347
 21
2.3444724409448821
 31
0.0
 11
1.6479251968503936
 21
2.3880078740157482
 31
0.0
 11
1.6416141732283465
 21
2.4240787401574804
 31
0.0
 11
1.6318031496062992
 21
2.4531181102362205
 31
0.0
 11
1.6190866141732283
 21
2.4755708661417324
 31
0.0
 11
1.6040314960629922
 21
2.4918661417322836
 31
0.0
 11
1.5872362204724408
 21
2.5024566929133858
 31
0.0
 11
1.5692716535433071
 21
2.507771653543307
 31
0.0
 11
1.550728346456693
 21
2.5082598425196849
 31
0.0
 11
1.5321771653543308
 21
2.5043425196850393
 31
0.0
 11
1.5142165354330708
 21
2.4964803149606301
 31
0.0
 11
1.4974133858267717
 21
2.4851023622047244
 31
0.0
 11
1.4823661417322835
 21
2.4706574803149608
 31
0.0
 11
1.4696417322834645
 21
2.4535669291338582
 31
0.0
 11
1.4598385826771654
 21
2.4342874015748031
 31
0.0
 11
1.4535236220472441
 21
2.4132480314960629
 31
0.0
 11
1.4512952755905513
 21
2.3908976377952755
 31
0.0
 11
1.4105590551181102
 21
2.4033385826771654
 31
0.0
 11
1.3647401574803149
 21
2.4200826771653543
 31
0.0
 11
1.3145866141732283
 21
2.4406181102362203
 31
0.0
 11
1.2608740157480316
 21
2.4644645669291338
 31
0.0
 11
1.2043425196850395
 21
2.4911062992125985
 31
0.0
 11
1.145767716535433
 21
2.5200629921259843
 31
0.0
 11
1.0858976377952756
 21
2.5508307086614175
 31
0.0
 11
1.0255000000000001
 21
2.5829212598425197
 31
0.0
 11
0.9653228346456693
 21
2.6158188976377952
 31
0.0
 11
0.9061377952755906
 21
2.649051181102362
 31
0.0
 11
0.8486968503937008
 21
2.6821023622047244
 31
0.0
 11
0.7937637795275591
 21
2.7144960629921262
 31
0.0
 11
0.7420866141732283
 21
2.745716535433071
 31
0.0
 11
0.6944409448818898
 21
2.7752795275590549
 31
0.0
 11
0.6515748031496063
 21
2.8026811023622047
 31
0.0
 11
0.614255905511811
 21
2.8274330708661419
 31
0.0
 11
0.5786771653543307
 21
2.8496929133858266
 31
0.0
 11
0.5410157480314961
 21
2.8700157480314963
 31
0.0
 11
0.5015905511811024
 21
2.8884488188976376
 31
0.0
 11
0.4607283464566929
 21
2.9050472440944883
 31
0.0
 11
0.418740157480315
 21
2.9198582677165352
 31
0.0
 11
0.3759566929133859
 21
2.9329448818897639
 31
0.0
 11
0.3326929133858268
 21
2.9443543307086615
 31
0.0
 11
0.2892755905511811
 21
2.9541496062992127
 31
0.0
 11
0.2460118110236221
 21
2.9623661417322835
 31
0.0
 11
0.2032362204724409
 21
2.9690787401574803
 31
0.0
 11
0.1612637795275591
 21
2.9743267716535433
 31
0.0
 11
0.1204212598425197
 21
2.9781732283464568
 31
0.0
 11
0.0810157480314961
 21
2.9806614173228345
 31
0.0
 11
0.0433818897637795
 21
2.9818582677165355
 31
0.0
 11
0.0078346456692913
 21
2.9818031496062991
 31
0.0
 11
-0.0253070866141732
 21
2.9805669291338583
 31
0.0
 11
-0.0568031496062992
 21
2.9785866141732282
 31
0.0
 11
-0.0878149606299213
 21
2.9761811023622049
 31
0.0
 11
-0.1185905511811024
 21
2.9731771653543309
 31
0.0
 11
-0.1493897637795276
 21
2.9694133858267717
 31
0.0
 11
-0.1804645669291339
 21
2.964708661417323
 31
0.0
 11
-0.2120866141732284
 21
2.9589055118110235
 31
0.0
 11
-0.244496062992126
 21
2.9518307086614173
 31
0.0
 11
-0.2779606299212599
 21
2.9433228346456692
 31
0.0
 11
-0.3127244094488189
 21
2.9331968503937009
 31
0.0
 11
-0.3490590551181103
 21
2.9212992125984254
 31
0.0
 11
-0.3872086614173229
 21
2.907456692913386
 31
0.0
 11
-0.4274448818897638
 21
2.8915039370078741
 31
0.0
 11
-0.470007874015748
 21
2.8732637795275591
 31
0.0
 11
-0.5151653543307087
 21
2.8525787401574805
 31
0.0
 11
-0.5631692913385826
 21
2.8292716535433069
 31
0.0
 11
-0.6142834645669292
 21
2.8031811023622049
 31
0.0
 11
-0.6383858267716536
 21
2.7921220472440944
 31
0.0
 11
-0.6691141732283464
 21
2.7805708661417321
 31
0.0
 11
-0.7056692913385827
 21
2.7689881889763779
 31
0.0
 11
-0.747255905511811
 21
2.7578464566929135
 31
0.0
 11
-0.7930669291338582
 21
2.7475905511811023
 31
0.0
 11
-0.8423188976377953
 21
2.7387047244094487
 31
0.0
 11
-0.8941968503937008
 21
2.7316417322834647
 31
0.0
 11
-0.9479212598425197
 21
2.7268740157480313
 31
0.0
 11
-1.0026771653543307
 21
2.7248464566929136
 31
0.0
 11
-1.0576771653543307
 21
2.7260433070866141
 31
0.0
 11
-1.1121181102362205
 21
2.7309173228346455
 31
0.0
 11
-1.1652125984251969
 21
2.7399409448818899
 31
0.0
 11
-1.2161496062992125
 21
2.7535669291338585
 31
0.0
 11
-1.2641377952755906
 21
2.772267716535433
 31
0.0
 11
-1.3083779527559054
 21
2.7965
 31
0.0
 11
-1.3480787401574803
 21
2.826740157480315
 31
0.0
 11
-1.3750433070866142
 21
2.8487637795275589
 31
0.0
 11
-1.4008031496062991
 21
2.8656850393700788
 31
0.0
 11
-1.425267716535433
 21
2.8778228346456691
 31
0.0
 11
-1.4483543307086615
 21
2.885496062992126
 31
0.0
 11
-1.4699645669291339
 21
2.8890196850393699
 31
0.0
 11
-1.490023622047244
 21
2.8887204724409448
 31
0.0
 11
-1.5084330708661418
 21
2.8849133858267715
 31
0.0
 11
-1.5251181102362206
 21
2.8779291338582675
 31
0.0
 11
-1.539976377952756
 21
2.8680669291338581
 31
0.0
 11
-1.5529330708661417
 21
2.8556653543307084
 31
0.0
 11
-1.5638897637795275
 21
2.8410314960629921
 31
0.0
 11
-1.5727755905511811
 21
2.8244960629921261
 31
0.0
 11
-1.5794842519685039
 21
2.8063661417322834
 31
0.0
 11
-1.5839448818897637
 21
2.7869763779527559
 31
0.0
 11
-1.5860590551181102
 21
2.7666338582677166
 31
0.0
 11
-1.585748031496063
 21
2.7456692913385825
 31
0.0
 11
-1.585748031496063
 21
2.7456692913385825
 31
0.0
 11
-1.585748031496063
 21
2.7456692913385825
 31
0.0
 11
-1.585748031496063
 21
2.7456692913385825
 31
0.0
 11
-1.585748031496063
 21
2.7456692913385825
 31
0.0
 11
-1.585748031496063
 21
2.7456692913385825
 31
0.0
 11
-1.585748031496063
 21
2.7456692913385825
 31
0.0
 11
-1.585748031496063
 21
2.7456692913385825
 31
0.0
 11
-1.585748031496063
 21
2.7456692913385825
 31
0.0
 11
-1.585748031496063
 21
2.7456692913385825
 31
0.0
 11
-1.585748031496063
 21
2.7456692913385825
 31
0.0
 11
-1.585748031496063
 21
2.7456692913385825
 31
0.0
 11
-1.585748031496063
 21
2.7456692913385825
 31
0.0
 11
-1.585748031496063
 21
2.7456692913385825
 31
0.0
 11
-1.585748031496063
 21
2.7456692913385825
 31
0.0
 11
-1.585748031496063
 21
2.7456692913385825
 31
0.0
 11
-1.585748031496063
 21
2.7456692913385825
 31
0.0
 11
-1.585748031496063
 21
2.7007125984251967
 31
0.0
 11
-1.585748031496063
 21
2.6557598425196849
 31
0.0
 11
-1.585748031496063
 21
2.6107992125984252
 31
0.0
 11
-1.585748031496063
 21
2.5658464566929133
 31
0.0
 11
-1.585748031496063
 21
2.5208779527559053
 31
0.0
 11
-1.585748031496063
 21
2.4759133858267717
 31
0.0
 11
-1.585748031496063
 21
2.4309370078740158
 31
0.0
 11
-1.585748031496063
 21
2.3859606299212599
 31
0.0
 11
-1.585748031496063
 21
2.3409645669291339
 31
0.0
 11
-1.585748031496063
 21
2.2959685039370079
 31
0.0
 11
-1.585748031496063
 21
2.2509566929133857
 31
0.0
 11
-1.585748031496063
 21
2.2059409448818896
 31
0.0
 11
-1.585748031496063
 21
2.1609055118110234
 31
0.0
 11
-1.585748031496063
 21
2.1158622047244093
 31
0.0
 11
-1.585748031496063
 21
2.0708031496062991
 31
0.0
 11
-1.585748031496063
 21
2.025732283464567
 31
0.0
 11
-1.3835787401574804
 21
2.025732283464567
 31
0.0
 11
-1.1813976377952755
 21
2.025732283464567
 31
0.0
 11
-0.9792007874015748
 21
2.025732283464567
 31
0.0
 11
-0.776996062992126
 21
2.025732283464567
 31
0.0
 11
-0.5747716535433071
 21
2.025732283464567
 31
0.0
 11
-0.3725433070866142
 21
2.025732283464567
 31
0.0
 11
-0.1702992125984252
 21
2.025732283464567
 31
0.0
 11
0.0319448818897638
 21
2.025732283464567
 31
0.0
 11
0.2342007874015748
 21
2.025732283464567
 31
0.0
 11
0.4364645669291339
 21
2.025732283464567
 31
0.0
 11
0.6387362204724409
 21
2.025732283464567
 31
0.0
 11
0.841015748031496
 21
2.025732283464567
 31
0.0
 11
1.0432952755905511
 21
2.025732283464567
 31
0.0
 11
1.2455826771653544
 21
2.025732283464567
 31
0.0
 11
1.4478700787401575
 21
2.025732283464567
 31
0.0
 11
1.6501614173228347
 21
2.025732283464567
 31
0.0
 11
1.6501614173228347
 21
2.025732283464567
 31
0.0
 11
1.6501614173228347
 21
2.025732283464567
 31
0.0
 11
1.6501614173228347
 21
2.025732283464567
 31
0.0
 11
1.6501614173228347
 21
2.025732283464567
 31
0.0
 11
1.6501614173228347
 21
2.025732283464567
 31
0.0
 11
1.6501614173228347
 21
2.025732283464567
 31
0.0
 11
1.6501614173228347
 21
2.025732283464567
 31
0.0
 11
1.6501614173228347
 21
2.025732283464567
 31
0.0
 11
1.6501614173228347
 21
2.025732283464567
 31
0.0
 11
1.6501614173228347
 21
2.025732283464567
 31
0.0
 11
1.6501614173228347
 21
2.025732283464567
 31
0.0
 11
1.6501614173228347
 21
2.025732283464567
 31
0.0
 11
1.6501614173228347
 21
2.025732283464567
 31
0.0
 11
1.6501614173228347
 21
2.025732283464567
 31
0.0
 11
1.6501614173228347
 21
2.025732283464567
 31
0.0
 11
1.6501614173228347
 21
2.025732283464567
 31
0.0
 11
1.6501614173228347
 21
2.0258582677165355
 31
0.0
 11
1.6501614173228347
 21
2.026551181102362
 31
0.0
 11
1.6501614173228347
 21
2.0282440944881888
 31
0.0
 11
1.6501614173228347
 21
2.0313937007874014
 31
0.0
 11
1.6501614173228347
 21
2.0364291338582676
 31
0.0
 11
1.6501614173228347
 21
2.0438149606299212
 31
0.0
 11
1.6501614173228347
 21
2.0539842519685041
 31
0.0
 11
1.6501614173228347
 21
2.0673937007874015
 31
0.0
 11
1.6501614173228347
 21
2.0844685039370079
 31
0.0
 11
1.6501614173228347
 21
2.1056771653543307
 31
0.0
 11
1.6501614173228347
 21
2.1314488188976379
 31
0.0
 11
1.6501614173228347
 21
2.1622440944881891
 31
0.0
 11
1.6501614173228347
 21
2.1984960629921262
 31
0.0
 11
1.6501614173228347
 21
2.2406535433070864
 31
0.0
 11
1.6501614173228347
 21
2.2891614173228345
 31
0.0
 11
1.6501614173228347
 21
2.3444724409448821
 31
0.0
  0
LWPOLYLINE
  5
25
100
AcDbEntity
  8
0
 62
     8
100
AcDbPolyline
 90
        2
 70
     0
 39
0.013858
 10
-1.689685
 20
0.621197
 40
0.013858
 41
0.013858
 10
-1.686913
 20
1.371622
 40
0.013858
 41
0.013858
  0
LWPOLYLINE
  5
26
100
AcDbEntity
  8
0
 62
     8
100
AcDbPolyline
 90
        2
 70
     0
 39
0.013858
 10
-1.686913
 20
1.371622
 40
0.013858
 41
0.013858
 10
-1.685528
 20
1.413197
 40
0.013858
 41
0.013858
  0
LWPOLYLINE
  5
27
100
AcDbEntity
  8
0
 62
     8
100
AcDbPolyline
 90
        2
 70
     0
 39
0.013858
 10
-1.685528
 20
1.413197
 40
0.013858
 41
0.013858
 10
-1.687606
 20
0.662772
 40
0.013858
 41
0.013858
  0
LWPOLYLINE
  5
28
100
AcDbEntity
  8
0
 62
     8
100
AcDbPolyline
 90
        2
 70
     0
 39
0.013858
 10
-1.687606
 20
0.662772
 40
0.013858
 41
0.013858
 10
-1.689685
 20
0.621197
 40
0.013858
 41
0.013858
  0
LWPOLYLINE
  5
29
100
AcDbEntity
  8
0
 62
     8
100
AcDbPolyline
 90
        2
 70
     0
 39
0.013858
 10
-1.687606
 20
0.662772
 40
0.013858
 41
0.013858
 10
-1.685528
 20
1.413197
 40
0.013858
 41
0.013858
  0
LWPOLYLINE
  5
2A
100
AcDbEntity
  8
0
 62
     8
100
AcDbPolyline
 90
        2
 70
     0
 39
0.013858
 10
-1.685528
 20
1.413197
 40
0.013858
 41
0.013858
 10
-1.673748
 20
1.450614
 40
0.013858
 41
0.013858
  0
LWPOLYLINE
  5
2B
100
AcDbEntity
  8
0
 62
     8
100
AcDbPolyline
 90
        2
 70
     0
 39
0.013858
 10
-1.673748
 20
1.450614
 40
0.013858
 41
0.013858
 10
-1.67652
 20
0.700189
 40
0.013858
 41
0.013858
  0
LWPOLYLINE
  5
2C
100
AcDbEntity
  8
0
 62
     8
100
AcDbPolyline
 90
        2
 70
     0
 39
0.013858
 10
-1.67652
 20
0.700189
 40
0.013858
 41
0.013858
 10
-1.687606
 20
0.662772
 40
0.013858
 41
0.013858
  0
LWPOLYLINE
  5
2D
100
AcDbEntity
  8
0
 62
     8
100
AcDbPolyline
 90
        2
 70
     0
 39
0.013858
 10
-1.67652
 20
0.700189
 40
0.013858
 41
0.013858
 10
-1.673748
 20
1.450614
 40
0.013858
 41
0.013858
  0
LWPOLYLINE
  5
2E
100
AcDbEntity
  8
0
 62
     8
100
AcDbPolyline
 90
        2
 70
     0
 39
0.013858
 10
-1.673748
 20
1.450614
 40
0.013858
 41
0.013858
 10
-1.654346
 20
1.481795
 40
0.013858
 41
0.013858
  0
LWPOLYLINE
  5
2F
100
AcDbEntity
  8
0
 62
     8
100
AcDbPolyline
 90
        2
 70
     0
 39
0.013858
 10
-1.654346
 20
1.481795
 40
0.013858
 41
0.013858
 10
-1.656425
 20
0.73137
 40
0.013858
 41
0.013858
  0
LWPOLYLINE
  5
30
100
AcDbEntity
  8
0
 62
     8
100
AcDbPolyline
 90
        2
 70
     0
 39
0.013858
 10
-1.656425
 20
0.73137
 40
0.013858
 41
0.013858
 10
-1.67652
 20
0.700189
 40
0.013858
 41
0.013858
  0
LWPOLYLINE
  5
31
100
AcDbEntity
  8
0
 62
     8
100
AcDbPolyline
 90
        2
 70
     0
 39
0.013858
 10
-1.656425
 20
0.73137
 40
0.013858
 41
0.013858
 10
-1.654346
 20
1.481795
 40
0.013858
 41
0.013858
  0
LWPOLYLINE
  5
32
100
AcDbEntity
  8
0
 62
     8
100
AcDbPolyline
 90
        2
 70
     0
 39
0.013858
 10
-1.654346
 20
1.481795
 40
0.013858
 41
0.013858
 10
-1.62663
 20
1.503969
 40
0.013858
 41
0.013858
  0
LWPOLYLINE
  5
33
100
AcDbEntity
  8
0
 62
     8
100
AcDbPolyline
 90
        2
 70
     0
 39
0.013858
 10
-1.62663
 20
1.503969
 40
0.013858
 41
0.013858
 10
-1.628709
 20
0.753543
 40
0.013858
 41
0.013858
  0
LWPOLYLINE
  5
34
100
AcDbEntity
  8
0
 62
     8
100
AcDbPolyline
 90
        2
 70
     0
 39
0.013858
 10
-1.628709
 20
0.753543
 40
0.013858
 41
0.013858
 10
-1.656425
 20
0.73137
 40
0.013858
 41
0.013858
  0
LWPOLYLINE
  5
35
100
AcDbEntity
  8
0
 62
   252
100
AcDbPolyline
 90
        2
 70
     0
 39
0.013858
 10
-1.628709
 20
0.753543
 40
0.013858
 41
0.013858
 10
-1.62663
 20
1.503969
 40
0.013858
 41
0.013858
  0
LWPOLYLINE
  5
36
100
AcDbEntity
  8
0
 62
   252
100
AcDbPolyline
 90
        2
 70
     0
 39
0.013858
 10
-1.62663
 20
1.503969
 40
0.013858
 41
0.013858
 10
-1.591291
 20
1.515055
 40
0.013858
 41
0.013858
  0
LWPOLYLINE
  5
37
100
AcDbEntity
  8
0
 62
   252
100
AcDbPolyline
 90
        2
 70
     0
 39
0.013858
 10
-1.591291
 20
1.515055
 40
0.013858
 41
0.013858
 10
-1.59337
 20
0.763937
 40
0.013858
 41
0.013858
  0
LWPOLYLINE
  5
38
100
AcDbEntity
  8
0
 62
   252
100
AcDbPolyline
 90
        2
 70
     0
 39
0.013858
 10
-1.59337
 20
0.763937
 40
0.013858
 41
0.013858
 10
-1.628709
 20
0.753543
 40
0.013858
 41
0.013858
  0
LWPOLYLINE
  5
39
100
AcDbEntity
  8
0
 62
   253
100
AcDbPolyline
 90
        2
 70
     0
 39
0.013858
 10
-1.59337
 20
0.763937
 40
0.013858
 41
0.013858
 10
-1.591291
 20
1.515055
 40
0.013858
 41
0.013858
  0
LWPOLYLINE
  5
3A
100
AcDbEntity
  8
0
 62
   253
100
AcDbPolyline
 90
        2
 70
     0
 39
0.013858
 10
-1.591291
 20
1.515055
 40
0.013858
 41
0.013858
 10
-1.549717
 20
1.511591
 40
0.013858
 41
0.013858
  0
LWPOLYLINE
  5
3B
100
AcDbEntity
  8
0
 62
   253
100
AcDbPolyline
 90
        2
 70
     0
 39
0.013858
 10
-1.549717
 20
1.511591
 40
0.013858
 41
0.013858
 10
-1.551795
 20
0.761165
 40
0.013858
 41
0.013858
  0
LWPOLYLINE
  5
3C
100
AcDbEntity
  8
0
 62
   253
100
AcDbPolyline
 90
        2
 70
     0
 39
0.013858
 10
-1.551795
 20
0.761165
 40
0.013858
 41
0.013858
 10
-1.59337
 20
0.763937
 40
0.013858
 41
0.013858
  0
LWPOLYLINE
  5
3D
100
AcDbEntity
  8
0
 62
   253
100
AcDbPolyline
 90
        2
 70
     0
 39
0.013858
 10
-1.551795
 20
0.761165
 40
0.013858
 41
0.013858
 10
-1.549717
 20
1.511591
 40
0.013858
 41
0.013858
  0
LWPOLYLINE
  5
3E
100
AcDbEntity
  8
0
 62
   253
100
AcDbPolyline
 90
        2
 70
     0
 39
0.013858
 10
-1.549717
 20
1.511591
 40
0.013858
 41
0.013858
 10
-1.526157
 20
1.503969
 40
0.013858
 41
0.013858
  0
LWPOLYLINE
  5
3F
100
AcDbEntity
  8
0
 62
   253
100
AcDbPolyline
 90
        2
 70
     0
 39
0.013858
 10
-1.526157
 20
1.503969
 40
0.013858
 41
0.013858
 10
-1.528929
 20
0.753543
 40
0.013858
 41
0.013858
  0
LWPOLYLINE
  5
40
100
AcDbEntity
  8
0
 62
   253
100
AcDbPolyline
 90
        2
 70
     0
 39
0.013858
 10
-1.528929
 20
0.753543
 40
0.013858
 41
0.013858
 10
-1.551795
 20
0.761165
 40
0.013858
 41
0.013858
  0
LWPOLYLINE
  5
41
100
AcDbEntity
  8
0
 62
   253
100
AcDbPolyline
 90
        2
 70
     0
 39
0.013858
 10
-1.528929
 20
0.753543
 40
0.013858
 41
0.013858
 10
-1.526157
 20
1.503969
 40
0.013858
 41
0.013858
  0
LWPOLYLINE
  5
42
100
AcDbEntity
  8
0
 62
   253
100
AcDbPolyline
 90
        2
 70
     0
 39
0.013858
 10
-1.526157
 20
1.503969
 40
0.013858
 41
0.013858
 10
-1.501906
 20
1.491496
 40
0.013858
 41
0.013858
  0
LWPOLYLINE
  5
43
100
AcDbEntity
  8
0
 62
   253
100
AcDbPolyline
 90
        2
 70
     0
 39
0.013858
 10
-1.501906
 20
1.491496
 40
0.013858
 41
0.013858
 10
-1.504677
 20
0.741071
 40
0.013858
 41
0.013858
  0
LWPOLYLINE
  5
44
100
AcDbEntity
  8
0
 62
   253
100
AcDbPolyline
 90
        2
 70
     0
 39
0.013858
 10
-1.504677
 20
0.741071
 40
0.013858
 41
0.013858
 10
-1.528929
 20
0.753543
 40
0.013858
 41
0.013858
  0
LWPOLYLINE
  5
45
100
AcDbEntity
  8
0
 62
   253
100
AcDbPolyline
 90
        2
 70
     0
 39
0.013858
 10
-1.504677
 20
0.741071
 40
0.013858
 41
0.013858
 10
-1.501906
 20
1.491496
 40
0.013858
 41
0.013858
  0
LWPOLYLINE
  5
46
100
AcDbEntity
  8
0
 62
   253
100
AcDbPolyline
 90
        2
 70
     0
 39
0.013858
 10
-1.501906
 20
1.491496
 40
0.013858
 41
0.013858
 10
-1.476268
 20
1.474866
 40
0.013858
 41
0.013858
  0
LWPOLYLINE
  5
47
100
AcDbEntity
  8
0
 62
   253
100
AcDbPolyline
 90
        2
 70
     0
 39
0.013858
 10
-1.476268
 20
1.474866
 40
0.013858
 41
0.013858
 10
-1.479039
 20
0.724441
 40
0.013858
 41
0.013858
  0
LWPOLYLINE
  5
48
100
AcDbEntity
  8
0
 62
   253
100
AcDbPolyline
 90
        2
 70
     0
 39
0.013858
 10
-1.479039
 20
0.724441
 40
0.013858
 41
0.013858
 10
-1.504677
 20
0.741071
 40
0.013858
 41
0.013858
  0
LWPOLYLINE
  5
49
100
AcDbEntity
  8
0
 62
   253
100
AcDbPolyline
 90
        2
 70
     0
 39
0.013858
 10
-1.479039
 20
0.724441
 40
0.013858
 41
0.013858
 10
-1.476268
 20
1.474866
 40
0.013858
 41
0.013858
  0
LWPOLYLINE
  5
4A
100
AcDbEntity
  8
0
 62
   253
100
AcDbPolyline
 90
        2
 70
     0
 39
0.013858
 10
-1.476268
 20
1.474866
 40
0.013858
 41
0.013858
 10
-1.449244
 20
1.452693
 40
0.013858
 41
0.013858
  0
LWPOLYLINE
  5
4B
100
AcDbEntity
  8
0
 62
   253
100
AcDbPolyline
 90
        2
 70
     0
 39
0.013858
 10
-1.449244
 20
1.452693
 40
0.013858
 41
0.013858
 10
-1.452016
 20
0.702268
 40
0.013858
 41
0.013858
  0
LWPOLYLINE
  5
4C
100
AcDbEntity
  8
0
 62
   253
100
AcDbPolyline
 90
        2
 70
     0
 39
0.013858
 10
-1.452016
 20
0.702268
 40
0.013858
 41
0.013858
 10
-1.479039
 20
0.724441
 40
0.013858
 41
0.013858
  0
LWPOLYLINE
  5
4D
100
AcDbEntity
  8
0
 62
   253
100
AcDbPolyline
 90
        2
 70
     0
 39
0.013858
 10
-1.452016
 20
0.702268
 40
0.013858
 41
0.013858
 10
-1.449244
 20
1.452693
 40
0.013858
 41
0.013858
  0
LWPOLYLINE
  5
4E
100
AcDbEntity
  8
0
 62
   253
100
AcDbPolyline
 90
        2
 70
     0
 39
0.013858
 10
-1.449244
 20
1.452693
 40
0.013858
 41
0.013858
 10
-1.409748
 20
1.422898
 40
0.013858
 41
0.013858
  0
LWPOLYLINE
  5
4F
100
AcDbEntity
  8
0
 62
   253
100
AcDbPolyline
 90
        2
 70
     0
 39
0.013858
 10
-1.409748
 20
1.422898
 40
0.013858
 41
0.013858
 10
-1.411827
 20
0.67178
 40
0.013858
 41
0.013858
  0
LWPOLYLINE
  5
50
100
AcDbEntity
  8
0
 62
   253
100
AcDbPolyline
 90
        2
 70
     0
 39
0.013858
 10
-1.411827
 20
0.67178
 40
0.013858
 41
0.013858
 10
-1.452016
 20
0.702268
 40
0.013858
 41
0.013858
  0
LWPOLYLINE
  5
51
100
AcDbEntity
  8
0
 62
   253
100
AcDbPolyline
 90
        2
 70
     0
 39
0.013858
 10
-1.411827
 20
0.67178
 40
0.013858
 41
0.013858
 10
-1.409748
 20
1.422898
 40
0.013858
 41
0.013858
  0
LWPOLYLINE
  5
52
100
AcDbEntity
  8
0
 62
   253
100
AcDbPolyline
 90
        2
 70
     0
 39
0.013858
 10
-1.409748
 20
1.422898
 40
0.013858
 41
0.013858
 10
-1.365402
 20
1.398646
 40
0.013858
 41
0.013858
  0
LWPOLYLINE
  5
53
100
AcDbEntity
  8
0
 62
   253
100
AcDbPolyline
 90
        2
 70
     0
 39
0.013858
 10
-1.365402
 20
1.398646
 40
0.013858
 41
0.013858
 10
-1.368173
 20
0.647528
 40
0.013858
 41
0.013858
  0
LWPOLYLINE
  5
54
100
AcDbEntity
  8
0
 62
   253
100
AcDbPolyline
 90
        2
 70
     0
 39
0.013858
 10
-1.368173
 20
0.647528
 40
0.013858
 41
0.013858
 10
-1.411827
 20
0.67178
 40
0.013858
 41
0.013858
  0
LWPOLYLINE
  5
55
100
AcDbEntity
  8
0
 62
   253
100
AcDbPolyline
 90
        2
 70
     0
 39
0.013858
 10
-1.368173
 20
0.647528
 40
0.013858
 41
0.013858
 10
-1.365402
 20
1.398646
 40
0.013858
 41
0.013858
  0
LWPOLYLINE
  5
56
100
AcDbEntity
  8
0
 62
   253
100
AcDbPolyline
 90
        2
 70
     0
 39
0.013858
 10
-1.365402
 20
1.398646
 40
0.013858
 41
0.013858
 10
-1.317591
 20
1.379937
 40
0.013858
 41
0.013858
  0
LWPOLYLINE
  5
57
100
AcDbEntity
  8
0
 62
   253
100
AcDbPolyline
 90
        2
 70
     0
 39
0.013858
 10
-1.317591
 20
1.379937
 40
0.013858
 41
0.013858
 10
-1.319669
 20
0.628819
 40
0.013858
 41
0.013858
  0
LWPOLYLINE
  5
58
100
AcDbEntity
  8
0
 62
   253
100
AcDbPolyline
 90
        2
 70
     0
 39
0.013858
 10
-1.319669
 20
0.628819
 40
0.013858
 41
0.013858
 10
-1.368173
 20
0.647528
 40
0.013858
 41
0.013858
  0
LWPOLYLINE
  5
59
100
AcDbEntity
  8
0
 62
   253
100
AcDbPolyline
 90
        2
 70
     0
 39
0.013858
 10
-1.319669
 20
0.628819
 40
0.013858
 41
0.013858
 10
-1.317591
 20
1.379937
 40
0.013858
 41
0.013858
  0
LWPOLYLINE
  5
5A
100
AcDbEntity
  8
0
 62
   253
100
AcDbPolyline
 90
        2
 70
     0
 39
0.013858
 10
-1.317591
 20
1.379937
 40
0.013858
 41
0.013858
 10
-1.266315
 20
1.366079
 40
0.013858
 41
0.013858
  0
LWPOLYLINE
  5
5B
100
AcDbEntity
  8
0
 62
   253
100
AcDbPolyline
 90
        2
 70
     0
 39
0.013858
 10
-1.266315
 20
1.366079
 40
0.013858
 41
0.013858
 10
-1.269087
 20
0.615654
 40
0.013858
 41
0.013858
  0
LWPOLYLINE
  5
5C
100
AcDbEntity
  8
0
 62
   253
100
AcDbPolyline
 90
        2
 70
     0
 39
0.013858
 10
-1.269087
 20
0.615654
 40
0.013858
 41
0.013858
 10
-1.319669
 20
0.628819
 40
0.013858
 41
0.013858
  0
LWPOLYLINE
  5
5D
100
AcDbEntity
  8
0
 62
   253
100
AcDbPolyline
 90
        2
 70
     0
 39
0.013858
 10
-1.269087
 20
0.615654
 40
0.013858
 41
0.013858
 10
-1.266315
 20
1.366079
 40
0.013858
 41
0.013858
  0
LWPOLYLINE
  5
5E
100
AcDbEntity
  8
0
 62
   253
100
AcDbPolyline
 90
        2
 70
     0
 39
0.013858
 10
-1.266315
 20
1.366079
 40
0.013858
 41
0.013858
 10
-1.158913
 20
1.35222
 40
0.013858
 41
0.013858
  0
LWPOLYLINE
  5
5F
100
AcDbEntity
  8
0
 62
   253
100
AcDbPolyline
 90
        2
 70
     0
 39
0.013858
 10
-1.158913
 20
1.35222
 40
0.013858
 41
0.013858
 10
-1.160992
 20
0.601102
 40
0.013858
 41
0.013858
  0
LWPOLYLINE
  5
60
100
AcDbEntity
  8
0
 62
   253
100
AcDbPolyline
 90
        2
 70
     0
 39
0.013858
 10
-1.160992
 20
0.601102
 40
0.013858
 41
0.013858
 10
-1.269087
 20
0.615654
 40
0.013858
 41
0.013858
  0
LWPOLYLINE
  5
61
100
AcDbEntity
  8
0
 62
   253
100
AcDbPolyline
 90
        2
 70
     0
 39
0.013858
 10
-1.160992
 20
0.601102
 40
0.013858
 41
0.013858
 10
-1.158913
 20
1.35222
 40
0.013858
 41
0.013858
  0
LWPOLYLINE
  5
62
100
AcDbEntity
  8
0
 62
   253
100
AcDbPolyline
 90
        2
 70
     0
 39
0.013858
 10
-1.158913
 20
1.35222
 40
0.013858
 41
0.013858
 10
-1.04874
 20
1.352913
 40
0.013858
 41
0.013858
  0
LWPOLYLINE
  5
63
100
AcDbEntity
  8
0
 62
   253
100
AcDbPolyline
 90
        2
 70
     0
 39
0.013858
 10
-1.04874
 20
1.352913
 40
0.013858
 41
0.013858
 10
-1.051512
 20
0.601795
 40
0.013858
 41
0.013858
  0
LWPOLYLINE
  5
64
100
AcDbEntity
  8
0
 62
   253
100
AcDbPolyline
 90
        2
 70
     0
 39
0.013858
 10
-1.051512
 20
0.601795
 40
0.013858
 41
0.013858
 10
-1.160992
 20
0.601102
 40
0.013858
 41
0.013858
  0
LWPOLYLINE
  5
65
100
AcDbEntity
  8
0
 62
   253
100
AcDbPolyline
 90
        2
 70
     0
 39
0.013858
 10
-1.051512
 20
0.601795
 40
0.013858
 41
0.013858
 10
-1.04874
 20
1.352913
 40
0.013858
 41
0.013858
  0
LWPOLYLINE
  5
66
100
AcDbEntity
  8
0
 62
   253
100
AcDbPolyline
 90
        2
 70
     0
 39
0.013858
 10
-1.04874
 20
1.352913
 40
0.013858
 41
0.013858
 10
-0.943417
 20
1.364693
 40
0.013858
 41
0.013858
  0
LWPOLYLINE
  5
67
100
AcDbEntity
  8
0
 62
   253
100
AcDbPolyline
 90
        2
 70
     0
 39
0.013858
 10
-0.943417
 20
1.364693
 40
0.013858
 41
0.013858
 10
-0.946189
 20
0.614268
 40
0.013858
 41
0.013858
  0
LWPOLYLINE
  5
68
100
AcDbEntity
  8
0
 62
   253
100
AcDbPolyline
 90
        2
 70
     0
 39
0.013858
 10
-0.946189
 20
0.614268
 40
0.013858
 41
0.013858
 10
-1.051512
 20
0.601795
 40
0.013858
 41
0.013858
  0
LWPOLYLINE
  5
69
100
AcDbEntity
  8
0
 62
   253
100
AcDbPolyline
 90
        2
 70
     0
 39
0.013858
 10
-0.946189
 20
0.614268
 40
0.013858
 41
0.013858
 10
-0.943417
 20
1.364693
 40
0.013858
 41
0.013858
  0
LWPOLYLINE
  5
6A
100
AcDbEntity
  8
0
 62
   253
100
AcDbPolyline
 90
        2
 70
     0
 39
0.013858
 10
-0.943417
 20
1.364693
 40
0.013858
 41
0.013858
 10
-0.848488
 20
1.383402
 40
0.013858
 41
0.013858
  0
LWPOLYLINE
  5
6B
100
AcDbEntity
  8
0
 62
   253
100
AcDbPolyline
 90
        2
 70
     0
 39
0.013858
 10
-0.848488
 20
1.383402
 40
0.013858
 41
0.013858
 10
-0.850567
 20
0.632976
 40
0.013858
 41
0.013858
  0
LWPOLYLINE
  5
6C
100
AcDbEntity
  8
0
 62
   253
100
AcDbPolyline
 90
        2
 70
     0
 39
0.013858
 10
-0.850567
 20
0.632976
 40
0.013858
 41
0.013858
 10
-0.946189
 20
0.614268
 40
0.013858
 41
0.013858
  0
LWPOLYLINE
  5
6D
100
AcDbEntity
  8
0
 62
   252
100
AcDbPolyline
 90
        2
 70
     0
 39
0.013858
 10
-0.850567
 20
0.632976
 40
0.013858
 41
0.013858
 10
-0.848488
 20
1.383402
 40
0.013858
 41
0.013858
  0
LWPOLYLINE
  5
6E
100
AcDbEntity
  8
0
 62
   252
100
AcDbPolyline
 90
        2
 70
     0
 39
0.013858
 10
-0.848488
 20
1.383402
 40
0.013858
 41
0.013858
 10
-0.806913
 20
1.395181
 40
0.013858
 41
0.013858
  0
LWPOLYLINE
  5
6F
100
AcDbEntity
  8
0
 62
   252
100
AcDbPolyline
 90
        2
 70
     0
 39
0.013858
 10
-0.806913
 20
1.395181
 40
0.013858
 41
0.013858
 10
-0.808992
 20
0.644063
 40
0.013858
 41
0.013858
  0
LWPOLYLINE
  5
70
100
AcDbEntity
  8
0
 62
   252
100
AcDbPolyline
 90
        2
 70
     0
 39
0.013858
 10
-0.808992
 20
0.644063
 40
0.013858
 41
0.013858
 10
-0.850567
 20
0.632976
 40
0.013858
 41
0.013858
  0
LWPOLYLINE
  5
71
100
AcDbEntity
  8
0
 62
   252
100
AcDbPolyline
 90
        2
 70
     0
 39
0.013858
 10
-0.808992
 20
0.644063
 40
0.013858
 41
0.013858
 10
-0.806913
 20
1.395181
 40
0.013858
 41
0.013858
  0
LWPOLYLINE
  5
72
100
AcDbEntity
  8
0
 62
   252
100
AcDbPolyline
 90
        2
 70
     0
 39
0.013858
 10
-0.806913
 20
1.395181
 40
0.013858
 41
0.013858
 10
-0.770189
 20
1.406268
 40
0.013858
 41
0.013858
  0
LWPOLYLINE
  5
73
100
AcDbEntity
  8
0
 62
   252
100
AcDbPolyline
 90
        2
 70
     0
 39
0.013858
 10
-0.770189
 20
1.406268
 40
0.013858
 41
0.013858
 10
-0.772961
 20
0.655843
 40
0.013858
 41
0.013858
  0
LWPOLYLINE
  5
74
100
AcDbEntity
  8
0
 62
   252
100
AcDbPolyline
 90
        2
 70
     0
 39
0.013858
 10
-0.772961
 20
0.655843
 40
0.013858
 41
0.013858
 10
-0.808992
 20
0.644063
 40
0.013858
 41
0.013858
  0
LWPOLYLINE
  5
75
100
AcDbEntity
  8
0
 62
   252
100
AcDbPolyline
 90
        2
 70
     0
 39
0.013858
 10
-0.772961
 20
0.655843
 40
0.013858
 41
0.013858
 10
-0.770189
 20
1.406268
 40
0.013858
 41
0.013858
  0
LWPOLYLINE
  5
76
100
AcDbEntity
  8
0
 62
   252
100
AcDbPolyline
 90
        2
 70
     0
 39
0.013858
 10
-0.770189
 20
1.406268
 40
0.013858
 41
0.013858
 10
-0.739701
 20
1.418047
 40
0.013858
 41
0.013858
  0
LWPOLYLINE
  5
77
100
AcDbEntity
  8
0
 62
   252
100
AcDbPolyline
 90
        2
 70
     0
 39
0.013858
 10
-0.739701
 20
1.418047
 40
0.013858
 41
0.013858
 10
-0.74178
 20
0.667622
 40
0.013858
 41
0.013858
  0
LWPOLYLINE
  5
78
100
AcDbEntity
  8
0
 62
   252
100
AcDbPolyline
 90
        2
 70
     0
 39
0.013858
 10
-0.74178
 20
0.667622
 40
0.013858
 41
0.013858
 10
-0.772961
 20
0.655843
 40
0.013858
 41
0.013858
  0
LWPOLYLINE
  5
79
100
AcDbEntity
  8
0
 62
   252
100
AcDbPolyline
 90
        2
 70
     0
 39
0.013858
 10
-0.74178
 20
0.667622
 40
0.013858
 41
0.013858
 10
-0.739701
 20
1.418047
 40
0.013858
 41
0.013858
  0
LWPOLYLINE
  5
7A
100
AcDbEntity
  8
0
 62
   252
100
AcDbPolyline
 90
        2
 70
     0
 39
0.013858
 10
-0.739701
 20
1.418047
 40
0.013858
 41
0.013858
 10
-0.715449
 20
1.429134
 40
0.013858
 41
0.013858
  0
LWPOLYLINE
  5
7B
100
AcDbEntity
  8
0
 62
   252
100
AcDbPolyline
 90
        2
 70
     0
 39
0.013858
 10
-0.715449
 20
1.429134
 40
0.013858
 41
0.013858
 10
-0.71822
 20
0.678709
 40
0.013858
 41
0.013858
  0
LWPOLYLINE
  5
7C
100
AcDbEntity
  8
0
 62
   252
100
AcDbPolyline
 90
        2
 70
     0
 39
0.013858
 10
-0.71822
 20
0.678709
 40
0.013858
 41
0.013858
 10
-0.74178
 20
0.667622
 40
0.013858
 41
0.013858
  0
LWPOLYLINE
  5
7D
100
AcDbEntity
  8
0
 62
   252
100
AcDbPolyline
 90
        2
 70
     0
 39
0.013858
 10
-0.71822
 20
0.678709
 40
0.013858
 41
0.013858
 10
-0.715449
 20
1.429134
 40
0.013858
 41
0.013858
  0
LWPOLYLINE
  5
7E
100
AcDbEntity
  8
0
 62
   252
100
AcDbPolyline
 90
        2
 70
     0
 39
0.013858
 10
-0.715449
 20
1.429134
 40
0.013858
 41
0.013858
 10
-0.616362
 20
1.478331
 40
0.013858
 41
0.013858
  0
LWPOLYLINE
  5
7F
100
AcDbEntity
  8
0
 62
   252
100
AcDbPolyline
 90
        2
 70
     0
 39
0.013858
 10
-0.616362
 20
1.478331
 40
0.013858
 41
0.013858
 10
-0.618441
 20
0.727906
 40
0.013858
 41
0.013858
  0
LWPOLYLINE
  5
80
100
AcDbEntity
  8
0
 62
   252
100
AcDbPolyline
 90
        2
 70
     0
 39
0.013858
 10
-0.618441
 20
0.727906
 40
0.013858
 41
0.013858
 10
-0.71822
 20
0.678709
 40
0.013858
 41
0.013858
  0
LWPOLYLINE
  5
81
100
AcDbEntity
  8
0
 62
   252
100
AcDbPolyline
 90
        2
 70
     0
 39
0.013858
 10
-0.618441
 20
0.727906
 40
0.013858
 41
0.013858
 10
-0.616362
 20
1.478331
 40
0.013858
 41
0.013858
  0
LWPOLYLINE
  5
82
100
AcDbEntity
  8
0
 62
   252
100
AcDbPolyline
 90
        2
 70
     0
 39
0.013858
 10
-0.616362
 20
1.478331
 40
0.013858
 41
0.013858
 10
-0.528362
 20
1.517134
 40
0.013858
 41
0.013858
  0
LWPOLYLINE
  5
83
100
AcDbEntity
  8
0
 62
   252
100
AcDbPolyline
 90
        2
 70
     0
 39
0.013858
 10
-0.528362
 20
1.517134
 40
0.013858
 41
0.013858
 10
-0.531134
 20
0.766709
 40
0.013858
 41
0.013858
  0
LWPOLYLINE
  5
84
100
AcDbEntity
  8
0
 62
   252
100
AcDbPolyline
 90
        2
 70
     0
 39
0.013858
 10
-0.531134
 20
0.766709
 40
0.013858
 41
0.013858
 10
-0.618441
 20
0.727906
 40
0.013858
 41
0.013858
  0
LWPOLYLINE
  5
85
100
AcDbEntity
  8
0
 62
   252
100
AcDbPolyline
 90
        2
 70
     0
 39
0.013858
 10
-0.531134
 20
0.766709
 40
0.013858
 41
0.013858
 10
-0.528362
 20
1.517134
 40
0.013858
 41
0.013858
  0
LWPOLYLINE
  5
86
100
AcDbEntity
  8
0
 62
   252
100
AcDbPolyline
 90
        2
 70
     0
 39
0.013858
 10
-0.528362
 20
1.517134
 40
0.013858
 41
0.013858
 10
-0.450063
 20
1.546929
 40
0.013858
 41
0.013858
  0
LWPOLYLINE
  5
87
100
AcDbEntity
  8
0
 62
   252
100
AcDbPolyline
 90
        2
 70
     0
 39
0.013858
 10
-0.450063
 20
1.546929
 40
0.013858
 41
0.013858
 10
-0.452835
 20
0.796504
 40
0.013858
 41
0.013858
  0
LWPOLYLINE
  5
88
100
AcDbEntity
  8
0
 62
   252
100
AcDbPolyline
 90
        2
 70
     0
 39
0.013858
 10
-0.452835
 20
0.796504
 40
0.013858
 41
0.013858
 10
-0.531134
 20
0.766709
 40
0.013858
 41
0.013858
  0
LWPOLYLINE
  5
89
100
AcDbEntity
  8
0
 62
   252
100
AcDbPolyline
 90
        2
 70
     0
 39
0.013858
 10
-0.452835
 20
0.796504
 40
0.013858
 41
0.013858
 10
-0.450063
 20
1.546929
 40
0.013858
 41
0.013858
  0
LWPOLYLINE
  5
8A
100
AcDbEntity
  8
0
 62
   252
100
AcDbPolyline
 90
        2
 70
     0
 39
0.013858
 10
-0.450063
 20
1.546929
 40
0.013858
 41
0.013858
 10
-0.378693
 20
1.569102
 40
0.013858
 41
0.013858
  0
LWPOLYLINE
  5
8B
100
AcDbEntity
  8
0
 62
   252
100
AcDbPolyline
 90
        2
 70
     0
 39
0.013858
 10
-0.378693
 20
1.569102
 40
0.013858
 41
0.013858
 10
-0.381465
 20
0.818677
 40
0.013858
 41
0.013858
  0
LWPOLYLINE
  5
8C
100
AcDbEntity
  8
0
 62
   252
100
AcDbPolyline
 90
        2
 70
     0
 39
0.013858
 10
-0.381465
 20
0.818677
 40
0.013858
 41
0.013858
 10
-0.452835
 20
0.796504
 40
0.013858
 41
0.013858
  0
LWPOLYLINE
  5
8D
100
AcDbEntity
  8
0
 62
   252
100
AcDbPolyline
 90
        2
 70
     0
 39
0.013858
 10
-0.381465
 20
0.818677
 40
0.013858
 41
0.013858
 10
-0.378693
 20
1.569102
 40
0.013858
 41
0.013858
  0
LWPOLYLINE
  5
8E
100
AcDbEntity
  8
0
 62
   252
100
AcDbPolyline
 90
        2
 70
     0
 39
0.013858
 10
-0.378693
 20
1.569102
 40
0.013858
 41
0.013858
 10
-0.312866
 20
1.585039
 40
0.013858
 41
0.013858
  0
LWPOLYLINE
  5
8F
100
AcDbEntity
  8
0
 62
   252
100
AcDbPolyline
 90
        2
 70
     0
 39
0.013858
 10
-0.312866
 20
1.585039
 40
0.013858
 41
0.013858
 10
-0.315638
 20
0.833921
 40
0.013858
 41
0.013858
  0
LWPOLYLINE
  5
90
100
AcDbEntity
  8
0
 62
   252
100
AcDbPolyline
 90
        2
 70
     0
 39
0.013858
 10
-0.315638
 20
0.833921
 40
0.013858
 41
0.013858
 10
-0.381465
 20
0.818677
 40
0.013858
 41
0.013858
  0
LWPOLYLINE
  5
91
100
AcDbEntity
  8
0
 62
   253
100
AcDbPolyline
 90
        2
 70
     0
 39
0.013858
 10
-0.315638
 20
0.833921
 40
0.013858
 41
0.013858
 10
-0.312866
 20
1.585039
 40
0.013858
 41
0.013858
  0
LWPOLYLINE
  5
92
100
AcDbEntity
  8
0
 62
   253
100
AcDbPolyline
 90
        2
 70
     0
 39
0.013858
 10
-0.312866
 20
1.585039
 40
0.013858
 41
0.013858
 10
-0.250504
 20
1.595433
 40
0.013858
 41
0.013858
  0
LWPOLYLINE
  5
93
100
AcDbEntity
  8
0
 62
   253
100
AcDbPolyline
 90
        2
 70
     0
 39
0.013858
 10
-0.250504
 20
1.595433
 40
0.013858
 41
0.013858
 10
-0.252583
 20
0.844315
 40
0.013858
 41
0.013858
  0
LWPOLYLINE
  5
94
100
AcDbEntity
  8
0
 62
   253
100
AcDbPolyline
 90
        2
 70
     0
 39
0.013858
 10
-0.252583
 20
0.844315
 40
0.013858
 41
0.013858
 10
-0.315638
 20
0.833921
 40
0.013858
 41
0.013858
  0
LWPOLYLINE
  5
95
100
AcDbEntity
  8
0
 62
   253
100
AcDbPolyline
 90
        2
 70
     0
 39
0.013858
 10
-0.252583
 20
0.844315
 40
0.013858
 41
0.013858
 10
-0.250504
 20
1.595433
 40
0.013858
 41
0.013858
  0
LWPOLYLINE
  5
96
100
AcDbEntity
  8
0
 62
   253
100
AcDbPolyline
 90
        2
 70
     0
 39
0.013858
 10
-0.250504
 20
1.595433
 40
0.013858
 41
0.013858
 10
-0.126472
 20
1.60652
 40
0.013858
 41
0.013858
  0
LWPOLYLINE
  5
97
100
AcDbEntity
  8
0
 62
   253
100
AcDbPolyline
 90
        2
 70
     0
 39
0.013858
 10
-0.126472
 20
1.60652
 40
0.013858
 41
0.013858
 10
-0.128551
 20
0.856094
 40
0.013858
 41
0.013858
  0
LWPOLYLINE
  5
98
100
AcDbEntity
  8
0
 62
   253
100
AcDbPolyline
 90
        2
 70
     0
 39
0.013858
 10
-0.128551
 20
0.856094
 40
0.013858
 41
0.013858
 10
-0.252583
 20
0.844315
 40
0.013858
 41
0.013858
  0
LWPOLYLINE
  5
99
100
AcDbEntity
  8
0
 62
   253
100
AcDbPolyline
 90
        2
 70
     0
 39
0.013858
 10
-0.128551
 20
0.856094
 40
0.013858
 41
0.013858
 10
-0.126472
 20
1.60652
 40
0.013858
 41
0.013858
  0
LWPOLYLINE
  5
9A
100
AcDbEntity
  8
0
 62
   253
100
AcDbPolyline
 90
        2
 70
     0
 39
0.013858
 10
-0.126472
 20
1.60652
 40
0.013858
 41
0.013858
 10
-0.057181
 20
1.607906
 40
0.013858
 41
0.013858
  0
LWPOLYLINE
  5
9B
100
AcDbEntity
  8
0
 62
   253
100
AcDbPolyline
 90
        2
 70
     0
 39
0.013858
 10
-0.057181
 20
1.607906
 40
0.013858
 41
0.013858
 10
-0.059953
 20
0.856787
 40
0.013858
 41
0.013858
  0
LWPOLYLINE
  5
9C
100
AcDbEntity
  8
0
 62
   253
100
AcDbPolyline
 90
        2
 70
     0
 39
0.013858
 10
-0.059953
 20
0.856787
 40
0.013858
 41
0.013858
 10
-0.128551
 20
0.856094
 40
0.013858
 41
0.013858
  0
LWPOLYLINE
  5
9D
100
AcDbEntity
  8
0
 62
   253
100
AcDbPolyline
 90
        2
 70
     0
 39
0.013858
 10
-0.059953
 20
0.856787
 40
0.013858
 41
0.013858
 10
-0.057181
 20
1.607906
 40
0.013858
 41
0.013858
  0
LWPOLYLINE
  5
9E
100
AcDbEntity
  8
0
 62
   253
100
AcDbPolyline
 90
        2
 70
     0
 39
0.013858
 10
-0.057181
 20
1.607906
 40
0.013858
 41
0.013858
 10
0.019736
 20
1.604441
 40
0.013858
 41
0.013858
  0
LWPOLYLINE
  5
9F
100
AcDbEntity
  8
0
 62
   253
100
AcDbPolyline
 90
        2
 70
     0
 39
0.013858
 10
0.019736
 20
1.604441
 40
0.013858
 41
0.013858
 10
0.016965
 20
0.853323
 40
0.013858
 41
0.013858
  0
LWPOLYLINE
  5
A0
100
AcDbEntity
  8
0
 62
   253
100
AcDbPolyline
 90
        2
 70
     0
 39
0.013858
 10
0.016965
 20
0.853323
 40
0.013858
 41
0.013858
 10
-0.059953
 20
0.856787
 40
0.013858
 41
0.013858
  0
LWPOLYLINE
  5
A1
100
AcDbEntity
  8
0
 62
   253
100
AcDbPolyline
 90
        2
 70
     0
 39
0.013858
 10
0.016965
 20
0.853323
 40
0.013858
 41
0.013858
 10
0.019736
 20
1.604441
 40
0.013858
 41
0.013858
  0
LWPOLYLINE
  5
A2
100
AcDbEntity
  8
0
 62
   253
100
AcDbPolyline
 90
        2
 70
     0
 39
0.013858
 10
0.019736
 20
1.604441
 40
0.013858
 41
0.013858
 10
0.102193
 20
1.59474
 40
0.013858
 41
0.013858
  0
LWPOLYLINE
  5
A3
100
AcDbEntity
  8
0
 62
   253
100
AcDbPolyline
 90
        2
 70
     0
 39
0.013858
 10
0.102193
 20
1.59474
 40
0.013858
 41
0.013858
 10
0.100114
 20
0.844315
 40
0.013858
 41
0.013858
  0
LWPOLYLINE
  5
A4
100
AcDbEntity
  8
0
 62
   253
100
AcDbPolyline
 90
        2
 70
     0
 39
0.013858
 10
0.100114
 20
0.844315
 40
0.013858
 41
0.013858
 10
0.016965
 20
0.853323
 40
0.013858
 41
0.013858
  0
LWPOLYLINE
  5
A5
100
AcDbEntity
  8
0
 62
   253
100
AcDbPolyline
 90
        2
 70
     0
 39
0.013858
 10
0.100114
 20
0.844315
 40
0.013858
 41
0.013858
 10
0.102193
 20
1.59474
 40
0.013858
 41
0.013858
  0
LWPOLYLINE
  5
A6
100
AcDbEntity
  8
0
 62
   253
100
AcDbPolyline
 90
        2
 70
     0
 39
0.013858
 10
0.102193
 20
1.59474
 40
0.013858
 41
0.013858
 10
0.188114
 20
1.580189
 40
0.013858
 41
0.013858
  0
LWPOLYLINE
  5
A7
100
AcDbEntity
  8
0
 62
   253
100
AcDbPolyline
 90
        2
 70
     0
 39
0.013858
 10
0.188114
 20
1.580189
 40
0.013858
 41
0.013858
 10
0.186035
 20
0.829071
 40
0.013858
 41
0.013858
  0
LWPOLYLINE
  5
A8
100
AcDbEntity
  8
0
 62
   253
100
AcDbPolyline
 90
        2
 70
     0
 39
0.013858
 10
0.186035
 20
0.829071
 40
0.013858
 41
0.013858
 10
0.100114
 20
0.844315
 40
0.013858
 41
0.013858
  0
LWPOLYLINE
  5
A9
100
AcDbEntity
  8
0
 62
   253
100
AcDbPolyline
 90
        2
 70
     0
 39
0.013858
 10
0.186035
 20
0.829071
 40
0.013858
 41
0.013858
 10
0.188114
 20
1.580189
 40
0.013858
 41
0.013858
  0
LWPOLYLINE
  5
AA
100
AcDbEntity
  8
0
 62
   253
100
AcDbPolyline
 90
        2
 70
     0
 39
0.013858
 10
0.188114
 20
1.580189
 40
0.013858
 41
0.013858
 10
0.274728
 20
1.558709
 40
0.013858
 41
0.013858
  0
LWPOLYLINE
  5
AB
100
AcDbEntity
  8
0
 62
   253
100
AcDbPolyline
 90
        2
 70
     0
 39
0.013858
 10
0.274728
 20
1.558709
 40
0.013858
 41
0.013858
 10
0.27265
 20
0.808283
 40
0.013858
 41
0.013858
  0
LWPOLYLINE
  5
AC
100
AcDbEntity
  8
0
 62
   253
100
AcDbPolyline
 90
        2
 70
     0
 39
0.013858
 10
0.27265
 20
0.808283
 40
0.013858
 41
0.013858
 10
0.186035
 20
0.829071
 40
0.013858
 41
0.013858
  0
LWPOLYLINE
  5
AD
100
AcDbEntity
  8
0
 62
   253
100
AcDbPolyline
 90
        2
 70
     0
 39
0.013858
 10
0.27265
 20
0.808283
 40
0.013858
 41
0.013858
 10
0.274728
 20
1.558709
 40
0.013858
 41
0.013858
  0
LWPOLYLINE
  5
AE
100
AcDbEntity
  8
0
 62
   253
100
AcDbPolyline
 90
        2
 70
     0
 39
0.013858
 10
0.274728
 20
1.558709
 40
0.013858
 41
0.013858
 10
0.359957
 20
1.530992
 40
0.013858
 41
0.013858
  0
LWPOLYLINE
  5
AF
100
AcDbEntity
  8
0
 62
   253
100
AcDbPolyline
 90
        2
 70
     0
 39
0.013858
 10
0.359957
 20
1.530992
 40
0.013858
 41
0.013858
 10
0.357185
 20
0.780567
 40
0.013858
 41
0.013858
  0
LWPOLYLINE
  5
B0
100
AcDbEntity
  8
0
 62
   253
100
AcDbPolyline
 90
        2
 70
     0
 39
0.013858
 10
0.357185
 20
0.780567
 40
0.013858
 41
0.013858
 10
0.27265
 20
0.808283
 40
0.013858
 41
0.013858
  0
LWPOLYLINE
  5
B1
100
AcDbEntity
  8
0
 62
   253
100
AcDbPolyline
 90
        2
 70
     0
 39
0.013858
 10
0.357185
 20
0.780567
 40
0.013858
 41
0.013858
 10
0.359957
 20
1.530992
 40
0.013858
 41
0.013858
  0
LWPOLYLINE
  5
B2
100
AcDbEntity
  8
0
 62
   253
100
AcDbPolyline
 90
        2
 70
     0
 39
0.013858
 10
0.359957
 20
1.530992
 40
0.013858
 41
0.013858
 10
0.439642
 20
1.495654
 40
0.013858
 41
0.013858
  0
LWPOLYLINE
  5
B3
100
AcDbEntity
  8
0
 62
   253
100
AcDbPolyline
 90
        2
 70
     0
 39
0.013858
 10
0.439642
 20
1.495654
 40
0.013858
 41
0.013858
 10
0.437563
 20
0.745228
 40
0.013858
 41
0.013858
  0
LWPOLYLINE
  5
B4
100
AcDbEntity
  8
0
 62
   253
100
AcDbPolyline
 90
        2
 70
     0
 39
0.013858
 10
0.437563
 20
0.745228
 40
0.013858
 41
0.013858
 10
0.357185
 20
0.780567
 40
0.013858
 41
0.013858
  0
LWPOLYLINE
  5
B5
100
AcDbEntity
  8
0
 62
   253
100
AcDbPolyline
 90
        2
 70
     0
 39
0.013858
 10
0.437563
 20
0.745228
 40
0.013858
 41
0.013858
 10
0.439642
 20
1.495654
 40
0.013858
 41
0.013858
  0
LWPOLYLINE
  5
B6
100
AcDbEntity
  8
0
 62
   253
100
AcDbPolyline
 90
        2
 70
     0
 39
0.013858
 10
0.439642
 20
1.495654
 40
0.013858
 41
0.013858
 10
0.513091
 20
1.453386
 40
0.013858
 41
0.013858
  0
LWPOLYLINE
  5
B7
100
AcDbEntity
  8
0
 62
   253
100
AcDbPolyline
 90
        2
 70
     0
 39
0.013858
 10
0.513091
 20
1.453386
 40
0.013858
 41
0.013858
 10
0.510319
 20
0.702268
 40
0.013858
 41
0.013858
  0
LWPOLYLINE
  5
B8
100
AcDbEntity
  8
0
 62
   253
100
AcDbPolyline
 90
        2
 70
     0
 39
0.013858
 10
0.510319
 20
0.702268
 40
0.013858
 41
0.013858
 10
0.437563
 20
0.745228
 40
0.013858
 41
0.013858
  0
LWPOLYLINE
  5
B9
100
AcDbEntity
  8
0
 62
   253
100
AcDbPolyline
 90
        2
 70
     0
 39
0.013858
 10
0.510319
 20
0.702268
 40
0.013858
 41
0.013858
 10
0.513091
 20
1.453386
 40
0.013858
 41
0.013858
  0
LWPOLYLINE
  5
BA
100
AcDbEntity
  8
0
 62
   253
100
AcDbPolyline
 90
        2
 70
     0
 39
0.013858
 10
0.513091
 20
1.453386
 40
0.013858
 41
0.013858
 10
0.550508
 20
1.428441
 40
0.013858
 41
0.013858
  0
LWPOLYLINE
  5
BB
100
AcDbEntity
  8
0
 62
   253
100
AcDbPolyline
 90
        2
 70
     0
 39
0.013858
 10
0.550508
 20
1.428441
 40
0.013858
 41
0.013858
 10
0.547736
 20
0.678016
 40
0.013858
 41
0.013858
  0
LWPOLYLINE
  5
BC
100
AcDbEntity
  8
0
 62
   253
100
AcDbPolyline
 90
        2
 70
     0
 39
0.013858
 10
0.547736
 20
0.678016
 40
0.013858
 41
0.013858
 10
0.510319
 20
0.702268
 40
0.013858
 41
0.013858
  0
LWPOLYLINE
  5
BD
100
AcDbEntity
  8
0
 62
   253
100
AcDbPolyline
 90
        2
 70
     0
 39
0.013858
 10
0.547736
 20
0.678016
 40
0.013858
 41
0.013858
 10
0.550508
 20
1.428441
 40
0.013858
 41
0.013858
  0
LWPOLYLINE
  5
BE
100
AcDbEntity
  8
0
 62
   253
100
AcDbPolyline
 90
        2
 70
     0
 39
0.013858
 10
0.550508
 20
1.428441
 40
0.013858
 41
0.013858
 10
0.593469
 20
1.401417
 40
0.013858
 41
0.013858
  0
LWPOLYLINE
  5
BF
100
AcDbEntity
  8
0
 62
   253
100
AcDbPolyline
 90
        2
 70
     0
 39
0.013858
 10
0.593469
 20
1.401417
 40
0.013858
 41
0.013858
 10
0.590697
 20
0.650299
 40
0.013858
 41
0.013858
  0
LWPOLYLINE
  5
C0
100
AcDbEntity
  8
0
 62
   253
100
AcDbPolyline
 90
        2
 70
     0
 39
0.013858
 10
0.590697
 20
0.650299
 40
0.013858
 41
0.013858
 10
0.547736
 20
0.678016
 40
0.013858
 41
0.013858
  0
LWPOLYLINE
  5
C1
100
AcDbEntity
  8
0
 62
   253
100
AcDbPolyline
 90
        2
 70
     0
 39
0.013858
 10
0.590697
 20
0.650299
 40
0.013858
 41
0.013858
 10
0.593469
 20
1.401417
 40
0.013858
 41
0.013858
  0
LWPOLYLINE
  5
C2
100
AcDbEntity
  8
0
 62
   253
100
AcDbPolyline
 90
        2
 70
     0
 39
0.013858
 10
0.593469
 20
1.401417
 40
0.013858
 41
0.013858
 10
0.692555
 20
1.340441
 40
0.013858
 41
0.013858
  0
LWPOLYLINE
  5
C3
100
AcDbEntity
  8
0
 62
   253
100
AcDbPolyline
 90
        2
 70
     0
 39
0.013858
 10
0.692555
 20
1.340441
 40
0.013858
 41
0.013858
 10
0.689783
 20
0.590016
 40
0.013858
 41
0.013858
  0
LWPOLYLINE
  5
C4
100
AcDbEntity
  8
0
 62
   253
100
AcDbPolyline
 90
        2
 70
     0
 39
0.013858
 10
0.689783
 20
0.590016
 40
0.013858
 41
0.013858
 10
0.590697
 20
0.650299
 40
0.013858
 41
0.013858
  0
LWPOLYLINE
  5
C5
100
AcDbEntity
  8
0
 62
   253
100
AcDbPolyline
 90
        2
 70
     0
 39
0.013858
 10
0.689783
 20
0.590016
 40
0.013858
 41
0.013858
 10
0.692555
 20
1.340441
 40
0.013858
 41
0.013858
  0
LWPOLYLINE
  5
C6
100
AcDbEntity
  8
0
 62
   253
100
AcDbPolyline
 90
        2
 70
     0
 39
0.013858
 10
0.692555
 20
1.340441
 40
0.013858
 41
0.013858
 10
0.804807
 20
1.275307
 40
0.013858
 41
0.013858
  0
LWPOLYLINE
  5
C7
100
AcDbEntity
  8
0
 62
   253
100
AcDbPolyline
 90
        2
 70
     0
 39
0.013858
 10
0.804807
 20
1.275307
 40
0.013858
 41
0.013858
 10
0.802728
 20
0.524189
 40
0.013858
 41
0.013858
  0
LWPOLYLINE
  5
C8
100
AcDbEntity
  8
0
 62
   253
100
AcDbPolyline
 90
        2
 70
     0
 39
0.013858
 10
0.802728
 20
0.524189
 40
0.013858
 41
0.013858
 10
0.689783
 20
0.590016
 40
0.013858
 41
0.013858
  0
LWPOLYLINE
  5
C9
100
AcDbEntity
  8
0
 62
   253
100
AcDbPolyline
 90
        2
 70
     0
 39
0.013858
 10
0.802728
 20
0.524189
 40
0.013858
 41
0.013858
 10
0.804807
 20
1.275307
 40
0.013858
 41
0.013858
  0
LWPOLYLINE
  5
CA
100
AcDbEntity
  8
0
 62
   253
100
AcDbPolyline
 90
        2
 70
     0
 39
0.013858
 10
0.804807
 20
1.275307
 40
0.013858
 41
0.013858
 10
0.924681
 20
1.208787
 40
0.013858
 41
0.013858
  0
LWPOLYLINE
  5
CB
100
AcDbEntity
  8
0
 62
   253
100
AcDbPolyline
 90
        2
 70
     0
 39
0.013858
 10
0.924681
 20
1.208787
 40
0.013858
 41
0.013858
 10
0.921909
 20
0.458362
 40
0.013858
 41
0.013858
  0
LWPOLYLINE
  5
CC
100
AcDbEntity
  8
0
 62
   253
100
AcDbPolyline
 90
        2
 70
     0
 39
0.013858
 10
0.921909
 20
0.458362
 40
0.013858
 41
0.013858
 10
0.802728
 20
0.524189
 40
0.013858
 41
0.013858
  0
LWPOLYLINE
  5
CD
100
AcDbEntity
  8
0
 62
   253
100
AcDbPolyline
 90
        2
 70
     0
 39
0.013858
 10
0.921909
 20
0.458362
 40
0.013858
 41
0.013858
 10
0.924681
 20
1.208787
 40
0.013858
 41
0.013858
  0
LWPOLYLINE
  5
CE
100
AcDbEntity
  8
0
 62
   253
100
AcDbPolyline
 90
        2
 70
     0
 39
0.013858
 10
0.924681
 20
1.208787
 40
0.013858
 41
0.013858
 10
1.044555
 20
1.145732
 40
0.013858
 41
0.013858
  0
LWPOLYLINE
  5
CF
100
AcDbEntity
  8
0
 62
   253
100
AcDbPolyline
 90
        2
 70
     0
 39
0.013858
 10
1.044555
 20
1.145732
 40
0.013858
 41
0.013858
 10
1.042476
 20
0.395307
 40
0.013858
 41
0.013858
  0
LWPOLYLINE
  5
D0
100
AcDbEntity
  8
0
 62
   253
100
AcDbPolyline
 90
        2
 70
     0
 39
0.013858
 10
1.042476
 20
0.395307
 40
0.013858
 41
0.013858
 10
0.921909
 20
0.458362
 40
0.013858
 41
0.013858
  0
LWPOLYLINE
  5
D1
100
AcDbEntity
  8
0
 62
   253
100
AcDbPolyline
 90
        2
 70
     0
 39
0.013858
 10
1.042476
 20
0.395307
 40
0.013858
 41
0.013858
 10
1.044555
 20
1.145732
 40
0.013858
 41
0.013858
  0
LWPOLYLINE
  5
D2
100
AcDbEntity
  8
0
 62
   253
100
AcDbPolyline
 90
        2
 70
     0
 39
0.013858
 10
1.044555
 20
1.145732
 40
0.013858
 41
0.013858
 10
1.159579
 20
1.090299
 40
0.013858
 41
0.013858
  0
LWPOLYLINE
  5
D3
100
AcDbEntity
  8
0
 62
   253
100
AcDbPolyline
 90
        2
 70
     0
 39
0.013858
 10
1.159579
 20
1.090299
 40
0.013858
 41
0.013858
 10
1.1575
 20
0.339874
 40
0.013858
 41
0.013858
  0
LWPOLYLINE
  5
D4
100
AcDbEntity
  8
0
 62
   253
100
AcDbPolyline
 90
        2
 70
     0
 39
0.013858
 10
1.1575
 20
0.339874
 40
0.013858
 41
0.013858
 10
1.042476
 20
0.395307
 40
0.013858
 41
0.013858
  0
LWPOLYLINE
  5
D5
100
AcDbEntity
  8
0
 62
   253
100
AcDbPolyline
 90
        2
 70
     0
 39
0.013858
 10
1.1575
 20
0.339874
 40
0.013858
 41
0.013858
 10
1.159579
 20
1.090299
 40
0.013858
 41
0.013858
  0
LWPOLYLINE
  5
D6
100
AcDbEntity
  8
0
 62
   253
100
AcDbPolyline
 90
        2
 70
     0
 39
0.013858
 10
1.159579
 20
1.090299
 40
0.013858
 41
0.013858
 10
1.213626
 20
1.06674
 40
0.013858
 41
0.013858
  0
LWPOLYLINE
  5
D7
100
AcDbEntity
  8
0
 62
   253
100
AcDbPolyline
 90
        2
 70
     0
 39
0.013858
 10
1.213626
 20
1.06674
 40
0.013858
 41
0.013858
 10
1.210854
 20
0.315622
 40
0.013858
 41
0.013858
  0
LWPOLYLINE
  5
D8
100
AcDbEntity
  8
0
 62
   253
100
AcDbPolyline
 90
        2
 70
     0
 39
0.013858
 10
1.210854
 20
0.315622
 40
0.013858
 41
0.013858
 10
1.1575
 20
0.339874
 40
0.013858
 41
0.013858
  0
LWPOLYLINE
  5
D9
100
AcDbEntity
  8
0
 62
   253
100
AcDbPolyline
 90
        2
 70
     0
 39
0.013858
 10
1.210854
 20
0.315622
 40
0.013858
 41
0.013858
 10
1.213626
 20
1.06674
 40
0.013858
 41
0.013858
  0
LWPOLYLINE
  5
DA
100
AcDbEntity
  8
0
 62
   253
100
AcDbPolyline
 90
        2
 70
     0
 39
0.013858
 10
1.213626
 20
1.06674
 40
0.013858
 41
0.013858
 10
1.263516
 20
1.045953
 40
0.013858
 41
0.013858
  0
LWPOLYLINE
  5
DB
100
AcDbEntity
  8
0
 62
   253
100
AcDbPolyline
 90
        2
 70
     0
 39
0.013858
 10
1.263516
 20
1.045953
 40
0.013858
 41
0.013858
 10
1.261437
 20
0.295528
 40
0.013858
 41
0.013858
  0
LWPOLYLINE
  5
DC
100
AcDbEntity
  8
0
 62
   253
100
AcDbPolyline
 90
        2
 70
     0
 39
0.013858
 10
1.261437
 20
0.295528
 40
0.013858
 41
0.013858
 10
1.210854
 20
0.315622
 40
0.013858
 41
0.013858
  0
LWPOLYLINE
  5
DD
100
AcDbEntity
  8
0
 62
   253
100
AcDbPolyline
 90
        2
 70
     0
 39
0.013858
 10
1.261437
 20
0.295528
 40
0.013858
 41
0.013858
 10
1.263516
 20
1.045953
 40
0.013858
 41
0.013858
  0
LWPOLYLINE
  5
DE
100
AcDbEntity
  8
0
 62
   253
100
AcDbPolyline
 90
        2
 70
     0
 39
0.013858
 10
1.263516
 20
1.045953
 40
0.013858
 41
0.013858
 10
1.309248
 20
1.029323
 40
0.013858
 41
0.013858
  0
LWPOLYLINE
  5
DF
100
AcDbEntity
  8
0
 62
   253
100
AcDbPolyline
 90
        2
 70
     0
 39
0.013858
 10
1.309248
 20
1.029323
 40
0.013858
 41
0.013858
 10
1.307169
 20
0.278205
 40
0.013858
 41
0.013858
  0
LWPOLYLINE
  5
E0
100
AcDbEntity
  8
0
 62
   253
100
AcDbPolyline
 90
        2
 70
     0
 39
0.013858
 10
1.307169
 20
0.278205
 40
0.013858
 41
0.013858
 10
1.261437
 20
0.295528
 40
0.013858
 41
0.013858
  0
LWPOLYLINE
  5
E1
100
AcDbEntity
  8
0
 62
   253
100
AcDbPolyline
 90
        2
 70
     0
 39
0.013858
 10
1.307169
 20
0.278205
 40
0.013858
 41
0.013858
 10
1.309248
 20
1.029323
 40
0.013858
 41
0.013858
  0
LWPOLYLINE
  5
E2
100
AcDbEntity
  8
0
 62
   253
100
AcDbPolyline
 90
        2
 70
     0
 39
0.013858
 10
1.309248
 20
1.029323
 40
0.013858
 41
0.013858
 10
1.35013
 20
1.01685
 40
0.013858
 41
0.013858
  0
LWPOLYLINE
  5
E3
100
AcDbEntity
  8
0
 62
   253
100
AcDbPolyline
 90
        2
 70
     0
 39
0.013858
 10
1.35013
 20
1.01685
 40
0.013858
 41
0.013858
 10
1.347358
 20
0.265732
 40
0.013858
 41
0.013858
  0
LWPOLYLINE
  5
E4
100
AcDbEntity
  8
0
 62
   253
100
AcDbPolyline
 90
        2
 70
     0
 39
0.013858
 10
1.347358
 20
0.265732
 40
0.013858
 41
0.013858
 10
1.307169
 20
0.278205
 40
0.013858
 41
0.013858
  0
LWPOLYLINE
  5
E5
100
AcDbEntity
  8
0
 62
     8
100
AcDbPolyline
 90
        2
 70
     0
 39
0.013858
 10
1.347358
 20
0.265732
 40
0.013858
 41
0.013858
 10
1.35013
 20
1.01685
 40
0.013858
 41
0.013858
  0
LWPOLYLINE
  5
E6
100
AcDbEntity
  8
0
 62
     8
100
AcDbPolyline
 90
        2
 70
     0
 39
0.013858
 10
1.35013
 20
1.01685
 40
0.013858
 41
0.013858
 10
1.358445
 20
1.059811
 40
0.013858
 41
0.013858
  0
LWPOLYLINE
  5
E7
100
AcDbEntity
  8
0
 62
     8
100
AcDbPolyline
 90
        2
 70
     0
 39
0.013858
 10
1.358445
 20
1.059811
 40
0.013858
 41
0.013858
 10
1.356366
 20
0.309386
 40
0.013858
 41
0.013858
  0
LWPOLYLINE
  5
E8
100
AcDbEntity
  8
0
 62
     8
100
AcDbPolyline
 90
        2
 70
     0
 39
0.013858
 10
1.356366
 20
0.309386
 40
0.013858
 41
0.013858
 10
1.347358
 20
0.265732
 40
0.013858
 41
0.013858
  0
LWPOLYLINE
  5
E9
100
AcDbEntity
  8
0
 62
   252
100
AcDbPolyline
 90
        2
 70
     0
 39
0.013858
 10
1.356366
 20
0.309386
 40
0.013858
 41
0.013858
 10
1.358445
 20
1.059811
 40
0.013858
 41
0.013858
  0
LWPOLYLINE
  5
EA
100
AcDbEntity
  8
0
 62
   252
100
AcDbPolyline
 90
        2
 70
     0
 39
0.013858
 10
1.358445
 20
1.059811
 40
0.013858
 41
0.013858
 10
1.381311
 20
1.096535
 40
0.013858
 41
0.013858
  0
LWPOLYLINE
  5
EB
100
AcDbEntity
  8
0
 62
   252
100
AcDbPolyline
 90
        2
 70
     0
 39
0.013858
 10
1.381311
 20
1.096535
 40
0.013858
 41
0.013858
 10
1.378539
 20
0.345417
 40
0.013858
 41
0.013858
  0
LWPOLYLINE
  5
EC
100
AcDbEntity
  8
0
 62
   252
100
AcDbPolyline
 90
        2
 70
     0
 39
0.013858
 10
1.378539
 20
0.345417
 40
0.013858
 41
0.013858
 10
1.356366
 20
0.309386
 40
0.013858
 41
0.013858
  0
LWPOLYLINE
  5
ED
100
AcDbEntity
  8
0
 62
   253
100
AcDbPolyline
 90
        2
 70
     0
 39
0.013858
 10
1.378539
 20
0.345417
 40
0.013858
 41
0.013858
 10
1.381311
 20
1.096535
 40
0.013858
 41
0.013858
  0
LWPOLYLINE
  5
EE
100
AcDbEntity
  8
0
 62
   253
100
AcDbPolyline
 90
        2
 70
     0
 39
0.013858
 10
1.381311
 20
1.096535
 40
0.013858
 41
0.013858
 10
1.413185
 20
1.122173
 40
0.013858
 41
0.013858
  0
LWPOLYLINE
  5
EF
100
AcDbEntity
  8
0
 62
   253
100
AcDbPolyline
 90
        2
 70
     0
 39
0.013858
 10
1.413185
 20
1.122173
 40
0.013858
 41
0.013858
 10
1.410413
 20
0.371748
 40
0.013858
 41
0.013858
  0
LWPOLYLINE
  5
F0
100
AcDbEntity
  8
0
 62
   253
100
AcDbPolyline
 90
        2
 70
     0
 39
0.013858
 10
1.410413
 20
0.371748
 40
0.013858
 41
0.013858
 10
1.378539
 20
0.345417
 40
0.013858
 41
0.013858
  0
LWPOLYLINE
  5
F1
100
AcDbEntity
  8
0
 62
   253
100
AcDbPolyline
 90
        2
 70
     0
 39
0.013858
 10
1.410413
 20
0.371748
 40
0.013858
 41
0.013858
 10
1.413185
 20
1.122173
 40
0.013858
 41
0.013858
  0
LWPOLYLINE
  5
F2
100
AcDbEntity
  8
0
 62
   253
100
AcDbPolyline
 90
        2
 70
     0
 39
0.013858
 10
1.413185
 20
1.122173
 40
0.013858
 41
0.013858
 10
1.449909
 20
1.133953
 40
0.013858
 41
0.013858
  0
LWPOLYLINE
  5
F3
100
AcDbEntity
  8
0
 62
   253
100
AcDbPolyline
 90
        2
 70
     0
 39
0.013858
 10
1.449909
 20
1.133953
 40
0.013858
 41
0.013858
 10
1.447138
 20
0.383528
 40
0.013858
 41
0.013858
  0
LWPOLYLINE
  5
F4
100
AcDbEntity
  8
0
 62
   253
100
AcDbPolyline
 90
        2
 70
     0
 39
0.013858
 10
1.447138
 20
0.383528
 40
0.013858
 41
0.013858
 10
1.410413
 20
0.371748
 40
0.013858
 41
0.013858
  0
LWPOLYLINE
  5
F5
100
AcDbEntity
  8
0
 62
   253
100
AcDbPolyline
 90
        2
 70
     0
 39
0.013858
 10
1.447138
 20
0.383528
 40
0.013858
 41
0.013858
 10
1.449909
 20
1.133953
 40
0.013858
 41
0.013858
  0
LWPOLYLINE
  5
F6
100
AcDbEntity
  8
0
 62
   253
100
AcDbPolyline
 90
        2
 70
     0
 39
0.013858
 10
1.449909
 20
1.133953
 40
0.013858
 41
0.013858
 10
1.468618
 20
1.133953
 40
0.013858
 41
0.013858
  0
LWPOLYLINE
  5
F7
100
AcDbEntity
  8
0
 62
   253
100
AcDbPolyline
 90
        2
 70
     0
 39
0.013858
 10
1.468618
 20
1.133953
 40
0.013858
 41
0.013858
 10
1.465846
 20
0.382835
 40
0.013858
 41
0.013858
  0
LWPOLYLINE
  5
F8
100
AcDbEntity
  8
0
 62
   253
100
AcDbPolyline
 90
        2
 70
     0
 39
0.013858
 10
1.465846
 20
0.382835
 40
0.013858
 41
0.013858
 10
1.447138
 20
0.383528
 40
0.013858
 41
0.013858
  0
LWPOLYLINE
  5
F9
100
AcDbEntity
  8
0
 62
   253
100
AcDbPolyline
 90
        2
 70
     0
 39
0.013858
 10
1.465846
 20
0.382835
 40
0.013858
 41
0.013858
 10
1.468618
 20
1.133953
 40
0.013858
 41
0.013858
  0
LWPOLYLINE
  5
FA
100
AcDbEntity
  8
0
 62
   253
100
AcDbPolyline
 90
        2
 70
     0
 39
0.013858
 10
1.468618
 20
1.133953
 40
0.013858
 41
0.013858
 10
1.485941
 20
1.128409
 40
0.013858
 41
0.013858
  0
LWPOLYLINE
  5
FB
100
AcDbEntity
  8
0
 62
   253
100
AcDbPolyline
 90
        2
 70
     0
 39
0.013858
 10
1.485941
 20
1.128409
 40
0.013858
 41
0.013858
 10
1.483862
 20
0.377984
 40
0.013858
 41
0.013858
  0
LWPOLYLINE
  5
FC
100
AcDbEntity
  8
0
 62
   253
100
AcDbPolyline
 90
        2
 70
     0
 39
0.013858
 10
1.483862
 20
0.377984
 40
0.013858
 41
0.013858
 10
1.465846
 20
0.382835
 40
0.013858
 41
0.013858
  0
LWPOLYLINE
  5
FD
100
AcDbEntity
  8
0
 62
   253
100
AcDbPolyline
 90
        2
 70
     0
 39
0.013858
 10
1.483862
 20
0.377984
 40
0.013858
 41
0.013858
 10
1.485941
 20
1.128409
 40
0.013858
 41
0.013858
  0
LWPOLYLINE
  5
FE
100
AcDbEntity
  8
0
 62
   253
100
AcDbPolyline
 90
        2
 70
     0
 39
0.013858
 10
1.485941
 20
1.128409
 40
0.013858
 41
0.013858
 10
1.503264
 20
1.118016
 40
0.013858
 41
0.013858
  0
LWPOLYLINE
  5
FF
100
AcDbEntity
  8
0
 62
   253
100
AcDbPolyline
 90
        2
 70
     0
 39
0.013858
 10
1.503264
 20
1.118016
 40
0.013858
 41
0.013858
 10
1.500492
 20
0.366898
 40
0.013858
 41
0.013858
  0
LWPOLYLINE
  5
100
100
AcDbEntity
  8
0
 62
   253
100
AcDbPolyline
 90
        2
 70
     0
 39
0.013858
 10
1.500492
 20
0.366898
 40
0.013858
 41
0.013858
 10
1.483862
 20
0.377984
 40
0.013858
 41
0.013858
  0
LWPOLYLINE
  5
101
100
AcDbEntity
  8
0
 62
   252
100
AcDbPolyline
 90
        2
 70
     0
 39
0.013858
 10
1.500492
 20
0.366898
 40
0.013858
 41
0.013858
 10
1.503264
 20
1.118016
 40
0.013858
 41
0.013858
  0
LWPOLYLINE
  5
102
100
AcDbEntity
  8
0
 62
   252
100
AcDbPolyline
 90
        2
 70
     0
 39
0.013858
 10
1.503264
 20
1.118016
 40
0.013858
 41
0.013858
 10
1.517815
 20
1.101386
 40
0.013858
 41
0.013858
  0
LWPOLYLINE
  5
103
100
AcDbEntity
  8
0
 62
   252
100
AcDbPolyline
 90
        2
 70
     0
 39
0.013858
 10
1.517815
 20
1.101386
 40
0.013858
 41
0.013858
 10
1.515736
 20
0.350961
 40
0.013858
 41
0.013858
  0
LWPOLYLINE
  5
104
100
AcDbEntity
  8
0
 62
   252
100
AcDbPolyline
 90
        2
 70
     0
 39
0.013858
 10
1.515736
 20
0.350961
 40
0.013858
 41
0.013858
 10
1.500492
 20
0.366898
 40
0.013858
 41
0.013858
  0
LWPOLYLINE
  5
105
100
AcDbEntity
  8
0
 62
   252
100
AcDbPolyline
 90
        2
 70
     0
 39
0.013858
 10
1.515736
 20
0.350961
 40
0.013858
 41
0.013858
 10
1.517815
 20
1.101386
 40
0.013858
 41
0.013858
  0
LWPOLYLINE
  5
106
100
AcDbEntity
  8
0
 62
   252
100
AcDbPolyline
 90
        2
 70
     0
 39
0.013858
 10
1.517815
 20
1.101386
 40
0.013858
 41
0.013858
 10
1.53098
 20
1.079213
 40
0.013858
 41
0.013858
  0
LWPOLYLINE
  5
107
100
AcDbEntity
  8
0
 62
   252
100
AcDbPolyline
 90
        2
 70
     0
 39
0.013858
 10
1.53098
 20
1.079213
 40
0.013858
 41
0.013858
 10
1.528209
 20
0.328787
 40
0.013858
 41
0.013858
  0
LWPOLYLINE
  5
108
100
AcDbEntity
  8
0
 62
   252
100
AcDbPolyline
 90
        2
 70
     0
 39
0.013858
 10
1.528209
 20
0.328787
 40
0.013858
 41
0.013858
 10
1.515736
 20
0.350961
 40
0.013858
 41
0.013858
  0
LWPOLYLINE
  5
109
100
AcDbEntity
  8
0
 62
     8
100
AcDbPolyline
 90
        2
 70
     0
 39
0.013858
 10
1.537909
 20
0.299685
 40
0.013858
 41
0.013858
 10
1.540681
 20
1.05011
 40
0.013858
 41
0.013858
  0
LWPOLYLINE
  5
10A
100
AcDbEntity
  8
0
 62
     8
100
AcDbPolyline
 90
        2
 70
     0
 39
0.013858
 10
1.540681
 20
1.05011
 40
0.013858
 41
0.013858
 10
1.546917
 20
1.014079
 40
0.013858
 41
0.013858
  0
LWPOLYLINE
  5
10B
100
AcDbEntity
  8
0
 62
     8
100
AcDbPolyline
 90
        2
 70
     0
 39
0.013858
 10
1.546917
 20
1.014079
 40
0.013858
 41
0.013858
 10
1.544839
 20
0.263654
 40
0.013858
 41
0.013858
  0
LWPOLYLINE
  5
10C
100
AcDbEntity
  8
0
 62
     8
100
AcDbPolyline
 90
        2
 70
     0
 39
0.013858
 10
1.544839
 20
0.263654
 40
0.013858
 41
0.013858
 10
1.537909
 20
0.299685
 40
0.013858
 41
0.013858
  0
LWPOLYLINE
  5
10D
100
AcDbEntity
  8
0
 62
     8
100
AcDbPolyline
 90
        2
 70
     0
 39
0.013858
 10
1.528209
 20
0.328787
 40
0.013858
 41
0.013858
 10
1.53098
 20
1.079213
 40
0.013858
 41
0.013858
  0
LWPOLYLINE
  5
10E
100
AcDbEntity
  8
0
 62
     8
100
AcDbPolyline
 90
        2
 70
     0
 39
0.013858
 10
1.53098
 20
1.079213
 40
0.013858
 41
0.013858
 10
1.540681
 20
1.05011
 40
0.013858
 41
0.013858
  0
LWPOLYLINE
  5
10F
100
AcDbEntity
  8
0
 62
     8
100
AcDbPolyline
 90
        2
 70
     0
 39
0.013858
 10
1.540681
 20
1.05011
 40
0.013858
 41
0.013858
 10
1.537909
 20
0.299685
 40
0.013858
 41
0.013858
  0
LWPOLYLINE
  5
110
100
AcDbEntity
  8
0
 62
     8
100
AcDbPolyline
 90
        2
 70
     0
 39
0.013858
 10
1.537909
 20
0.299685
 40
0.013858
 41
0.013858
 10
1.528209
 20
0.328787
 40
0.013858
 41
0.013858
  0
LWPOLYLINE
  5
111
100
AcDbEntity
  8
0
 62
     8
100
AcDbPolyline
 90
        2
 70
     0
 39
0.013858
 10
1.544839
 20
0.263654
 40
0.013858
 41
0.013858
 10
1.546917
 20
1.014079
 40
0.013858
 41
0.013858
  0
LWPOLYLINE
  5
112
100
AcDbEntity
  8
0
 62
     8
100
AcDbPolyline
 90
        2
 70
     0
 39
0.013858
 10
1.546917
 20
1.014079
 40
0.013858
 41
0.013858
 10
1.548996
 20
0.970425
 40
0.013858
 41
0.013858
  0
LWPOLYLINE
  5
113
100
AcDbEntity
  8
0
 62
     8
100
AcDbPolyline
 90
        2
 70
     0
 39
0.013858
 10
1.548996
 20
0.970425
 40
0.013858
 41
0.013858
 10
1.546917
 20
0.22
 40
0.013858
 41
0.013858
  0
LWPOLYLINE
  5
114
100
AcDbEntity
  8
0
 62
     8
100
AcDbPolyline
 90
        2
 70
     0
 39
0.013858
 10
1.546917
 20
0.22
 40
0.013858
 41
0.013858
 10
1.544839
 20
0.263654
 40
0.013858
 41
0.013858
  0
LWPOLYLINE
  5
115
100
AcDbEntity
  8
0
 62
     8
100
AcDbPolyline
 90
        2
 70
     0
 39
0.013858
 10
1.546917
 20
0.22
 40
0.013858
 41
0.013858
 10
1.548996
 20
0.970425
 40
0.013858
 41
0.013858
  0
LWPOLYLINE
  5
116
100
AcDbEntity
  8
0
 62
     8
100
AcDbPolyline
 90
        2
 70
     0
 39
0.013858
 10
1.548996
 20
0.970425
 40
0.013858
 41
0.013858
 10
1.548996
 20
0.651685
 40
0.013858
 41
0.013858
  0
LWPOLYLINE
  5
117
100
AcDbEntity
  8
0
 62
     8
100
AcDbPolyline
 90
        2
 70
     0
 39
0.013858
 10
1.548996
 20
0.651685
 40
0.013858
 41
0.013858
 10
1.546917
 20
-0.099437
 40
0.013858
 41
0.013858
  0
LWPOLYLINE
  5
118
100
AcDbEntity
  8
0
 62
     8
100
AcDbPolyline
 90
        2
 70
     0
 39
0.013858
 10
1.546917
 20
-0.099437
 40
0.013858
 41
0.013858
 10
1.546917
 20
0.22
 40
0.013858
 41
0.013858
  0
LWPOLYLINE
  5
119
100
AcDbEntity
  8
0
 62
     7
100
AcDbPolyline
 90
        2
 70
     0
 39
0.013858
 10
1.546917
 20
-0.099437
 40
0.013858
 41
0.013858
 10
-1.689685
 20
-0.099437
 40
0.013858
 41
0.013858
  0
LWPOLYLINE
  5
11A
100
AcDbEntity
  8
0
 62
     7
100
AcDbPolyline
 90
        2
 70
     0
 39
0.013858
 10
-1.689685
 20
-0.099437
 40
0.013858
 41
0.013858
 10
-1.689685
 20
0.621197
 40
0.013858
 41
0.013858
  0
LWPOLYLINE
  5
11B
100
AcDbEntity
  8
0
 62
     7
100
AcDbPolyline
 90
        2
 70
     0
 39
0.013858
 10
-1.689685
 20
0.621197
 40
0.013858
 41
0.013858
 10
-1.687606
 20
0.662772
 40
0.013858
 41
0.013858
  0
LWPOLYLINE
  5
11C
100
AcDbEntity
  8
0
 62
     7
100
AcDbPolyline
 90
        2
 70
     0
 39
0.013858
 10
-1.687606
 20
0.662772
 40
0.013858
 41
0.013858
 10
-1.67652
 20
0.700189
 40
0.013858
 41
0.013858
  0
LWPOLYLINE
  5
11D
100
AcDbEntity
  8
0
 62
     7
100
AcDbPolyline
 90
        2
 70
     0
 39
0.013858
 10
-1.67652
 20
0.700189
 40
0.013858
 41
0.013858
 10
-1.656425
 20
0.73137
 40
0.013858
 41
0.013858
  0
LWPOLYLINE
  5
11E
100
AcDbEntity
  8
0
 62
     7
100
AcDbPolyline
 90
        2
 70
     0
 39
0.013858
 10
-1.656425
 20
0.73137
 40
0.013858
 41
0.013858
 10
-1.628709
 20
0.753543
 40
0.013858
 41
0.013858
  0
LWPOLYLINE
  5
11F
100
AcDbEntity
  8
0
 62
     7
100
AcDbPolyline
 90
        2
 70
     0
 39
0.013858
 10
-1.628709
 20
0.753543
 40
0.013858
 41
0.013858
 10
-1.59337
 20
0.763937
 40
0.013858
 41
0.013858
  0
LWPOLYLINE
  5
120
100
AcDbEntity
  8
0
 62
     7
100
AcDbPolyline
 90
        2
 70
     0
 39
0.013858
 10
-1.59337
 20
0.763937
 40
0.013858
 41
0.013858
 10
-1.551795
 20
0.761165
 40
0.013858
 41
0.013858
  0
LWPOLYLINE
  5
121
100
AcDbEntity
  8
0
 62
     7
100
AcDbPolyline
 90
        2
 70
     0
 39
0.013858
 10
-1.551795
 20
0.761165
 40
0.013858
 41
0.013858
 10
-1.528929
 20
0.753543
 40
0.013858
 41
0.013858
  0
LWPOLYLINE
  5
122
100
AcDbEntity
  8
0
 62
     7
100
AcDbPolyline
 90
        2
 70
     0
 39
0.013858
 10
-1.528929
 20
0.753543
 40
0.013858
 41
0.013858
 10
-1.504677
 20
0.741071
 40
0.013858
 41
0.013858
  0
LWPOLYLINE
  5
123
100
AcDbEntity
  8
0
 62
     7
100
AcDbPolyline
 90
        2
 70
     0
 39
0.013858
 10
-1.504677
 20
0.741071
 40
0.013858
 41
0.013858
 10
-1.479039
 20
0.724441
 40
0.013858
 41
0.013858
  0
LWPOLYLINE
  5
124
100
AcDbEntity
  8
0
 62
     7
100
AcDbPolyline
 90
        2
 70
     0
 39
0.013858
 10
-1.479039
 20
0.724441
 40
0.013858
 41
0.013858
 10
-1.452016
 20
0.702268
 40
0.013858
 41
0.013858
  0
LWPOLYLINE
  5
125
100
AcDbEntity
  8
0
 62
     7
100
AcDbPolyline
 90
        2
 70
     0
 39
0.013858
 10
-1.452016
 20
0.702268
 40
0.013858
 41
0.013858
 10
-1.411827
 20
0.67178
 40
0.013858
 41
0.013858
  0
LWPOLYLINE
  5
126
100
AcDbEntity
  8
0
 62
     7
100
AcDbPolyline
 90
        2
 70
     0
 39
0.013858
 10
-1.411827
 20
0.67178
 40
0.013858
 41
0.013858
 10
-1.368173
 20
0.647528
 40
0.013858
 41
0.013858
  0
LWPOLYLINE
  5
127
100
AcDbEntity
  8
0
 62
     7
100
AcDbPolyline
 90
        2
 70
     0
 39
0.013858
 10
-1.368173
 20
0.647528
 40
0.013858
 41
0.013858
 10
-1.319669
 20
0.628819
 40
0.013858
 41
0.013858
  0
LWPOLYLINE
  5
128
100
AcDbEntity
  8
0
 62
     7
100
AcDbPolyline
 90
        2
 70
     0
 39
0.013858
 10
-1.319669
 20
0.628819
 40
0.013858
 41
0.013858
 10
-1.269087
 20
0.615654
 40
0.013858
 41
0.013858
  0
LWPOLYLINE
  5
129
100
AcDbEntity
  8
0
 62
     7
100
AcDbPolyline
 90
        2
 70
     0
 39
0.013858
 10
-1.269087
 20
0.615654
 40
0.013858
 41
0.013858
 10
-1.160992
 20
0.601102
 40
0.013858
 41
0.013858
  0
LWPOLYLINE
  5
12A
100
AcDbEntity
  8
0
 62
     7
100
AcDbPolyline
 90
        2
 70
     0
 39
0.013858
 10
-1.160992
 20
0.601102
 40
0.013858
 41
0.013858
 10
-1.051512
 20
0.601795
 40
0.013858
 41
0.013858
  0
LWPOLYLINE
  5
12B
100
AcDbEntity
  8
0
 62
     7
100
AcDbPolyline
 90
        2
 70
     0
 39
0.013858
 10
-1.051512
 20
0.601795
 40
0.013858
 41
0.013858
 10
-0.946189
 20
0.614268
 40
0.013858
 41
0.013858
  0
LWPOLYLINE
  5
12C
100
AcDbEntity
  8
0
 62
     7
100
AcDbPolyline
 90
        2
 70
     0
 39
0.013858
 10
-0.946189
 20
0.614268
 40
0.013858
 41
0.013858
 10
-0.850567
 20
0.632976
 40
0.013858
 41
0.013858
  0
LWPOLYLINE
  5
12D
100
AcDbEntity
  8
0
 62
     7
100
AcDbPolyline
 90
        2
 70
     0
 39
0.013858
 10
-0.850567
 20
0.632976
 40
0.013858
 41
0.013858
 10
-0.808992
 20
0.644063
 40
0.013858
 41
0.013858
  0
LWPOLYLINE
  5
12E
100
AcDbEntity
  8
0
 62
     7
100
AcDbPolyline
 90
        2
 70
     0
 39
0.013858
 10
-0.808992
 20
0.644063
 40
0.013858
 41
0.013858
 10
-0.772961
 20
0.655843
 40
0.013858
 41
0.013858
  0
LWPOLYLINE
  5
12F
100
AcDbEntity
  8
0
 62
     7
100
AcDbPolyline
 90
        2
 70
     0
 39
0.013858
 10
-0.772961
 20
0.655843
 40
0.013858
 41
0.013858
 10
-0.74178
 20
0.667622
 40
0.013858
 41
0.013858
  0
LWPOLYLINE
  5
130
100
AcDbEntity
  8
0
 62
     7
100
AcDbPolyline
 90
        2
 70
     0
 39
0.013858
 10
-0.74178
 20
0.667622
 40
0.013858
 41
0.013858
 10
-0.71822
 20
0.678709
 40
0.013858
 41
0.013858
  0
LWPOLYLINE
  5
131
100
AcDbEntity
  8
0
 62
     7
100
AcDbPolyline
 90
        2
 70
     0
 39
0.013858
 10
-0.71822
 20
0.678709
 40
0.013858
 41
0.013858
 10
-0.618441
 20
0.727906
 40
0.013858
 41
0.013858
  0
LWPOLYLINE
  5
132
100
AcDbEntity
  8
0
 62
     7
100
AcDbPolyline
 90
        2
 70
     0
 39
0.013858
 10
-0.618441
 20
0.727906
 40
0.013858
 41
0.013858
 10
-0.531134
 20
0.766709
 40
0.013858
 41
0.013858
  0
LWPOLYLINE
  5
133
100
AcDbEntity
  8
0
 62
     7
100
AcDbPolyline
 90
        2
 70
     0
 39
0.013858
 10
-0.531134
 20
0.766709
 40
0.013858
 41
0.013858
 10
-0.452835
 20
0.796504
 40
0.013858
 41
0.013858
  0
LWPOLYLINE
  5
134
100
AcDbEntity
  8
0
 62
     7
100
AcDbPolyline
 90
        2
 70
     0
 39
0.013858
 10
-0.452835
 20
0.796504
 40
0.013858
 41
0.013858
 10
-0.381465
 20
0.818677
 40
0.013858
 41
0.013858
  0
LWPOLYLINE
  5
135
100
AcDbEntity
  8
0
 62
     7
100
AcDbPolyline
 90
        2
 70
     0
 39
0.013858
 10
-0.381465
 20
0.818677
 40
0.013858
 41
0.013858
 10
-0.315638
 20
0.833921
 40
0.013858
 41
0.013858
  0
LWPOLYLINE
  5
136
100
AcDbEntity
  8
0
 62
     7
100
AcDbPolyline
 90
        2
 70
     0
 39
0.013858
 10
-0.315638
 20
0.833921
 40
0.013858
 41
0.013858
 10
-0.252583
 20
0.844315
 40
0.013858
 41
0.013858
  0
LWPOLYLINE
  5
137
100
AcDbEntity
  8
0
 62
     7
100
AcDbPolyline
 90
        2
 70
     0
 39
0.013858
 10
-0.252583
 20
0.844315
 40
0.013858
 41
0.013858
 10
-0.128551
 20
0.856094
 40
0.013858
 41
0.013858
  0
LWPOLYLINE
  5
138
100
AcDbEntity
  8
0
 62
     7
100
AcDbPolyline
 90
        2
 70
     0
 39
0.013858
 10
-0.128551
 20
0.856094
 40
0.013858
 41
0.013858
 10
-0.059953
 20
0.856787
 40
0.013858
 41
0.013858
  0
LWPOLYLINE
  5
139
100
AcDbEntity
  8
0
 62
     7
100
AcDbPolyline
 90
        2
 70
     0
 39
0.013858
 10
-0.059953
 20
0.856787
 40
0.013858
 41
0.013858
 10
0.016965
 20
0.853323
 40
0.013858
 41
0.013858
  0
LWPOLYLINE
  5
13A
100
AcDbEntity
  8
0
 62
     7
100
AcDbPolyline
 90
        2
 70
     0
 39
0.013858
 10
0.016965
 20
0.853323
 40
0.013858
 41
0.013858
 10
0.100114
 20
0.844315
 40
0.013858
 41
0.013858
  0
LWPOLYLINE
  5
13B
100
AcDbEntity
  8
0
 62
     7
100
AcDbPolyline
 90
        2
 70
     0
 39
0.013858
 10
0.100114
 20
0.844315
 40
0.013858
 41
0.013858
 10
0.186035
 20
0.829071
 40
0.013858
 41
0.013858
  0
LWPOLYLINE
  5
13C
100
AcDbEntity
  8
0
 62
     7
100
AcDbPolyline
 90
        2
 70
     0
 39
0.013858
 10
0.186035
 20
0.829071
 40
0.013858
 41
0.013858
 10
0.27265
 20
0.808283
 40
0.013858
 41
0.013858
  0
LWPOLYLINE
  5
13D
100
AcDbEntity
  8
0
 62
     7
100
AcDbPolyline
 90
        2
 70
     0
 39
0.013858
 10
0.27265
 20
0.808283
 40
0.013858
 41
0.013858
 10
0.357185
 20
0.780567
 40
0.013858
 41
0.013858
  0
LWPOLYLINE
  5
13E
100
AcDbEntity
  8
0
 62
     7
100
AcDbPolyline
 90
        2
 70
     0
 39
0.013858
 10
0.357185
 20
0.780567
 40
0.013858
 41
0.013858
 10
0.437563
 20
0.745228
 40
0.013858
 41
0.013858
  0
LWPOLYLINE
  5
13F
100
AcDbEntity
  8
0
 62
     7
100
AcDbPolyline
 90
        2
 70
     0
 39
0.013858
 10
0.437563
 20
0.745228
 40
0.013858
 41
0.013858
 10
0.510319
 20
0.702268
 40
0.013858
 41
0.013858
  0
LWPOLYLINE
  5
140
100
AcDbEntity
  8
0
 62
     7
100
AcDbPolyline
 90
        2
 70
     0
 39
0.013858
 10
0.510319
 20
0.702268
 40
0.013858
 41
0.013858
 10
0.547736
 20
0.678016
 40
0.013858
 41
0.013858
  0
LWPOLYLINE
  5
141
100
AcDbEntity
  8
0
 62
     7
100
AcDbPolyline
 90
        2
 70
     0
 39
0.013858
 10
0.547736
 20
0.678016
 40
0.013858
 41
0.013858
 10
0.590697
 20
0.650299
 40
0.013858
 41
0.013858
  0
LWPOLYLINE
  5
142
100
AcDbEntity
  8
0
 62
     7
100
AcDbPolyline
 90
        2
 70
     0
 39
0.013858
 10
0.590697
 20
0.650299
 40
0.013858
 41
0.013858
 10
0.689783
 20
0.590016
 40
0.013858
 41
0.013858
  0
LWPOLYLINE
  5
143
100
AcDbEntity
  8
0
 62
     7
100
AcDbPolyline
 90
        2
 70
     0
 39
0.013858
 10
0.689783
 20
0.590016
 40
0.013858
 41
0.013858
 10
0.802728
 20
0.524189
 40
0.013858
 41
0.013858
  0
LWPOLYLINE
  5
144
100
AcDbEntity
  8
0
 62
     7
100
AcDbPolyline
 90
        2
 70
     0
 39
0.013858
 10
0.802728
 20
0.524189
 40
0.013858
 41
0.013858
 10
0.921909
 20
0.458362
 40
0.013858
 41
0.013858
  0
LWPOLYLINE
  5
145
100
AcDbEntity
  8
0
 62
     7
100
AcDbPolyline
 90
        2
 70
     0
 39
0.013858
 10
0.921909
 20
0.458362
 40
0.013858
 41
0.013858
 10
1.042476
 20
0.395307
 40
0.013858
 41
0.013858
  0
LWPOLYLINE
  5
146
100
AcDbEntity
  8
0
 62
     7
100
AcDbPolyline
 90
        2
 70
     0
 39
0.013858
 10
1.042476
 20
0.395307
 40
0.013858
 41
0.013858
 10
1.1575
 20
0.339874
 40
0.013858
 41
0.013858
  0
LWPOLYLINE
  5
147
100
AcDbEntity
  8
0
 62
     7
100
AcDbPolyline
 90
        2
 70
     0
 39
0.013858
 10
1.1575
 20
0.339874
 40
0.013858
 41
0.013858
 10
1.210854
 20
0.315622
 40
0.013858
 41
0.013858
  0
LWPOLYLINE
  5
148
100
AcDbEntity
  8
0
 62
     7
100
AcDbPolyline
 90
        2
 70
     0
 39
0.013858
 10
1.210854
 20
0.315622
 40
0.013858
 41
0.013858
 10
1.261437
 20
0.295528
 40
0.013858
 41
0.013858
  0
LWPOLYLINE
  5
149
100
AcDbEntity
  8
0
 62
     7
100
AcDbPolyline
 90
        2
 70
     0
 39
0.013858
 10
1.261437
 20
0.295528
 40
0.013858
 41
0.013858
 10
1.307169
 20
0.278205
 40
0.013858
 41
0.013858
  0
LWPOLYLINE
  5
14A
100
AcDbEntity
  8
0
 62
     7
100
AcDbPolyline
 90
        2
 70
     0
 39
0.013858
 10
1.307169
 20
0.278205
 40
0.013858
 41
0.013858
 10
1.347358
 20
0.265732
 40
0.013858
 41
0.013858
  0
LWPOLYLINE
  5
14B
100
AcDbEntity
  8
0
 62
     7
100
AcDbPolyline
 90
        2
 70
     0
 39
0.013858
 10
1.347358
 20
0.265732
 40
0.013858
 41
0.013858
 10
1.356366
 20
0.309386
 40
0.013858
 41
0.013858
  0
LWPOLYLINE
  5
14C
100
AcDbEntity
  8
0
 62
     7
100
AcDbPolyline
 90
        2
 70
     0
 39
0.013858
 10
1.356366
 20
0.309386
 40
0.013858
 41
0.013858
 10
1.378539
 20
0.345417
 40
0.013858
 41
0.013858
  0
LWPOLYLINE
  5
14D
100
AcDbEntity
  8
0
 62
     7
100
AcDbPolyline
 90
        2
 70
     0
 39
0.013858
 10
1.378539
 20
0.345417
 40
0.013858
 41
0.013858
 10
1.410413
 20
0.371748
 40
0.013858
 41
0.013858
  0
LWPOLYLINE
  5
14E
100
AcDbEntity
  8
0
 62
     7
100
AcDbPolyline
 90
        2
 70
     0
 39
0.013858
 10
1.410413
 20
0.371748
 40
0.013858
 41
0.013858
 10
1.447138
 20
0.383528
 40
0.013858
 41
0.013858
  0
LWPOLYLINE
  5
14F
100
AcDbEntity
  8
0
 62
     7
100
AcDbPolyline
 90
        2
 70
     0
 39
0.013858
 10
1.447138
 20
0.383528
 40
0.013858
 41
0.013858
 10
1.465846
 20
0.382835
 40
0.013858
 41
0.013858
  0
LWPOLYLINE
  5
150
100
AcDbEntity
  8
0
 62
     7
100
AcDbPolyline
 90
        2
 70
     0
 39
0.013858
 10
1.465846
 20
0.382835
 40
0.013858
 41
0.013858
 10
1.483862
 20
0.377984
 40
0.013858
 41
0.013858
  0
LWPOLYLINE
  5
151
100
AcDbEntity
  8
0
 62
     7
100
AcDbPolyline
 90
        2
 70
     0
 39
0.013858
 10
1.483862
 20
0.377984
 40
0.013858
 41
0.013858
 10
1.500492
 20
0.366898
 40
0.013858
 41
0.013858
  0
LWPOLYLINE
  5
152
100
AcDbEntity
  8
0
 62
     7
100
AcDbPolyline
 90
        2
 70
     0
 39
0.013858
 10
1.500492
 20
0.366898
 40
0.013858
 41
0.013858
 10
1.515736
 20
0.350961
 40
0.013858
 41
0.013858
  0
LWPOLYLINE
  5
153
100
AcDbEntity
  8
0
 62
     7
100
AcDbPolyline
 90
        2
 70
     0
 39
0.013858
 10
1.515736
 20
0.350961
 40
0.013858
 41
0.013858
 10
1.528209
 20
0.328787
 40
0.013858
 41
0.013858
  0
LWPOLYLINE
  5
154
100
AcDbEntity
  8
0
 62
     7
100
AcDbPolyline
 90
        2
 70
     0
 39
0.013858
 10
1.528209
 20
0.328787
 40
0.013858
 41
0.013858
 10
1.537909
 20
0.299685
 40
0.013858
 41
0.013858
  0
LWPOLYLINE
  5
155
100
AcDbEntity
  8
0
 62
     7
100
AcDbPolyline
 90
        2
 70
     0
 39
0.013858
 10
1.537909
 20
0.299685
 40
0.013858
 41
0.013858
 10
1.544839
 20
0.263654
 40
0.013858
 41
0.013858
  0
LWPOLYLINE
  5
156
100
AcDbEntity
  8
0
 62
     7
100
AcDbPolyline
 90
        2
 70
     0
 39
0.013858
 10
1.544839
 20
0.263654
 40
0.013858
 41
0.013858
 10
1.546917
 20
0.22
 40
0.013858
 41
0.013858
  0
LWPOLYLINE
  5
157
100
AcDbEntity
  8
0
 62
     7
100
AcDbPolyline
 90
        2
 70
     0
 39
0.013858
 10
1.546917
 20
0.22
 40
0.013858
 41
0.013858
 10
1.546917
 20
-0.099437
 40
0.013858
 41
0.013858
  0
MTEXT
  5
158
100
AcDbEntity
  8
0
 62
     0
100
AcDbMText
 10
-1.144016
 20
-0.033098
 30
0.0
 40
0.166992
 41
0.0
 71
     1
 72
     1
  1
{\fTimes New Roman|b0|i0|c0|p32;BA  1342}
 73
     1
 44
1.0
  0
MTEXT
  5
159
100
AcDbEntity
  8
0
 62
     0
100
AcDbMText
 10
-1.144016
 20
-0.225035
 30
0.0
 40
0.166992
 41
0.0
 71
     1
 72
     1
  1
{\fTimes New Roman|b0|i0|c0|p32;15/16" x 3-1/4"}
 73
     1
 44
1.0
  0
MTEXT
  5
15A
100
AcDbEntity
  8
0
 62
     0
100
AcDbMText
 10
-1.053425
 20
2.568555
 30
0.0
 40
0.166992
 41
0.0
 71
     1
 72
     1
  1
{\fTimes New Roman|b0|i0|c0|p32;BA  1342}
 73
     1
 44
1.0
  0
MTEXT
  5
15B
100
AcDbEntity
  8
0
 62
     0
100
AcDbMText
 10
-1.053425
 20
2.376618
 30
0.0
 40
0.166992
 41
0.0
 71
     1
 72
     1
  1
{\fTimes New Roman|b0|i0|c0|p32;15/16" x 3-1/4"}
 73
     1
 44
1.0
  0
MTEXT
  5
15C
100
AcDbEntity
  8
0
 62
     0
100
AcDbMText
 10
-1.126138
 20
3.915957
 30
0.0
 40
0.375382
 41
0.0
 71
     1
 72
     1
  1
{\fTimes New Roman|b0|i0|c0|p32;Plynth for 1343}
 73
     1
 44
1.0
  0
ENDSEC
  0
SECTION
  2
OBJECTS
  0
DICTIONARY
  5
19
100
AcDbDictionary
280
     0
281
     1
  3
ACAD_GROUP
350
1A
  3
ACAD_MLINESTYLE
350
1B
  3
ACAD_LAYOUT
350
1E
  3
ACAD_PLOTSETTINGS
350
22
  3
ACAD_PLOTSTYLENAME
350
1F
  3
ACAD_WIPEOUT_VARS
350
23
  0
DICTIONARY
  5
1A
102
{ACAD_REACTORS
330
19
102
}
100
AcDbDictionary
280
     0
281
     1
  0
DICTIONARY
  5
1B
102
{ACAD_REACTORS
330
19
102
}
100
AcDbDictionary
280
     0
281
     1
  3
Standard
350
1C
  0
MLINESTYLE
  5
1C
102
{ACAD_REACTORS
330
1B
102
}
100
AcDbMlineStyle
  2
Standard
 70
     0
  3

 62
     0
 51
90.0
 52
90.0
 71
     2
 49
0.5
 62
   256
  6
BYLAYER
 49
-0.5
 62
   256
  6
BYLAYER
  0
ACDBDICTIONARYWDFLT
  5
1F
102
{ACAD_REACTORS
330
19
102
}
100
AcDbDictionary
281
     1
  3
Normal
350
1D
100
AcDbDictionaryWithDefault
340
1D
  0
ACDBPLACEHOLDER
  5
1D
102
{ACAD_REACTORS
330
1F
102
}
  0
LAYOUT
  5
20
102
{ACAD_REACTORS
330
1E
102
}
100
AcDbPlotSettings
  1

  2

  4

  6

 40
0.0
 41
0.0
 42
0.0
 43
0.0
 44
0.0
 45
0.0
 46
0.0
 47
0.0
 48
0.0
 49
0.0
140
0.0
141
0.0
142
1.0
143
1.0
 70
  1024
 72
     0
 73
     0
 74
     0
  7

 75
     0
147
1.0
148
0.0
149
0.0
100
AcDbLayout
  1
Model
 70
     0
 71
     0
 10
0.0
 20
0.0
 11
0.0
 21
0.0
 12
0.0
 22
0.0
 32
0.0
 14
0.0
 24
0.0
 34
0.0
 15
0.0
 25
0.0
 35
0.0
146
0.0
 13
0.0
 23
0.0
 33
0.0
 16
0.0
 26
0.0
 36
0.0
 17
0.0
 27
0.0
 37
0.0
 76
     0
330
A
331
0
345
0
346
0
  0
LAYOUT
  5
21
102
{ACAD_REACTORS
330
1E
102
}
100
AcDbPlotSettings
  1

  2

  4

  6

 40
0.0
 41
0.0
 42
0.0
 43
0.0
 44
0.0
 45
0.0
 46
0.0
 47
0.0
 48
0.0
 49
0.0
140
0.0
141
0.0
142
1.0
143
1.0
 70
     0
 72
     0
 73
     0
 74
     0
  7

 75
     0
147
1.0
148
0.0
149
0.0
100
AcDbLayout
  1
Layout1
 70
     0
 71
     0
 10
0.0
 20
0.0
 11
0.0
 21
0.0
 12
0.0
 22
0.0
 32
0.0
 14
0.0
 24
0.0
 34
0.0
 15
0.0
 25
0.0
 35
0.0
146
0.0
 13
0.0
 23
0.0
 33
0.0
 16
0.0
 26
0.0
 36
0.0
 17
0.0
 27
0.0
 37
0.0
 76
     0
330
B
331
0
345
0
346
0
  0
DICTIONARY
  5
1E
102
{ACAD_REACTORS
330
19
102
}
100
AcDbDictionary
280
     0
281
     1
  3
Layout1
350
21
  3
Model
350
20
  0
DICTIONARY
  5
22
102
{ACAD_REACTORS
330
19
102
}
100
AcDbDictionary
280
     0
281
     1
  0
WIPEOUTVARIABLES
  5
23
100
AcDbWipeoutVariables
 70
     1
  0
ENDSEC
  0
EOF
