  0
SECTION
  2
HEADER
  9
$ACADVER
  1
AC1006
  9
$EXTMIN
 10
1.175240
 20
2.894320
  9
$EXTMAX
 10
7.323360
 20
8.244720
  9
$LTSCALE
 40
0.044000
  9
$PDMODE
 70
    35
  9
$PDSIZE
 40
0.035200
  0
ENDSEC
  0
SECTION
  2
TABLES
  0
TABLE
  2
LTYPE
 70
     9
  0
LTYPE
  2
CONTINUOUS
 70
    64
  3
Solid line
 72
    65
 73
     0
 40
0.000000
  0
LTYPE
  2
DASHED
 70
    64
  3
__ __ __ __ __ __ __ __ __ __ __ __ __ __ __
 72
    65
 73
     2
 40
0.000330
 49
0.000220
 49
-0.000110
  0
LTYPE
  2
HIDDEN
 70
    64
  3
 _ _ _ _ _ _ _ _ _ _ _ _ _ _ _ _ _ _ _ _ _ _
 72
    65
 73
     2
 40
0.000165
 49
0.000110
 49
-0.000055
  0
LTYPE
  2
CENTER
 70
    64
  3
____ _ ____ _ ____ _ ____ _ ____ _ ____ _ ____
 72
    65
 73
     4
 40
0.000880
 49
0.000550
 49
-0.000110
 49
0.000110
 49
-0.000110
  0
LTYPE
  2
PHANTOM
 70
    64
  3
_____ _ _ _____ _ _ _____ _ _ _____ _ _ ____
 72
    65
 73
     6
 40
0.001100
 49
0.000550
 49
-0.000110
 49
0.000110
 49
-0.000110
 49
0.000110
 49
-0.000110
  0
LTYPE
  2
DOT
 70
    64
  3
...............................................
 72
    65
 73
     2
 40
0.000110
 49
0.000000
 49
-0.000110
  0
LTYPE
  2
DASHDOT
 70
    64
  3
__ . __ . __ . __ . __ . __ . __ . __ . __ . __
 72
    65
 73
     4
 40
0.000440
 49
0.000220
 49
-0.000110
 49
0.000000
 49
-0.000110
  0
LTYPE
  2
BORDER
 70
    64
  3
__ __ . __ __ . __ __ . __ __ . __ __ . __ __
 72
    65
 73
     6
 40
0.000770
 49
0.000220
 49
-0.000110
 49
0.000220
 49
-0.000110
 49
0.000000
 49
-0.000110
  0
LTYPE
  2
DIVIDE
 70
    64
  3
__ . . __ . . __ . . __ . . __ . . __ . . __
 72
    65
 73
     6
 40
0.000550
 49
0.000220
 49
-0.000110
 49
0.000000
 49
-0.000110
 49
0.000000
 49
-0.000110
  0
LTYPE
  2
DOTDOT
 70
    64
  3
 . .  . .  . .  . .  . .  . . 
 72
    65
 73
     5
 40
0.000242
 49
-0.000110
 49
0.000000
 49
-0.000110
 49
0.000000
 49
-0.000110
  0
ENDTAB
  0
TABLE
  2
STYLE
 70
     2
  0
STYLE
 70
     0
  2
SN0
 40
0.000000
 41
0.000440
 50
0.000000
 71
     0
 42
0.000000
  3
ROMAND
  0
STYLE
 70
    68
  2
SV0
 40
0.000000
 41
0.000440
 50
0.000000
 71
     0
 42
0.000000
  3
ROMAND
  0
ENDTAB
  0
TABLE
  2
LAYER
 70
     3
  0
LAYER
  2
FOREGROUND
 70
    64
 62
     7
  6
CONTINUOUS
  0
LAYER
  2
BACKGROUND
 70
    65
 62
    -7
  6
CONTINUOUS
  0
LAYER
  2
0
 70
    64
 62
     7
  6
CONTINUOUS
  0
ENDTAB
  0
ENDSEC
  0
SECTION
  2
ENTITIES
  0
POLYLINE
  8
FOREGROUND
  6
CONTINUOUS
 66
     1
 40
0.000000
 41
0.000000
  0
VERTEX
  8
FOREGROUND
  6
CONTINUOUS
 10
0.000000
 20
11.139040
  0
VERTEX
  8
FOREGROUND
  6
CONTINUOUS
 10
8.499920
 20
11.139040
  0
VERTEX
  8
FOREGROUND
  6
CONTINUOUS
 10
8.499920
 20
0.139040
  0
VERTEX
  8
FOREGROUND
  6
CONTINUOUS
 10
0.000000
 20
0.139040
  0
VERTEX
  8
FOREGROUND
  6
CONTINUOUS
 10
0.000000
 20
11.139040
  0
SEQEND
  8
0
  0
POLYLINE
  8
FOREGROUND
  6
CONTINUOUS
 66
     1
 40
0.000000
 41
0.000000
  0
VERTEX
  8
FOREGROUND
  6
CONTINUOUS
 10
0.000000
 20
11.139040
  0
VERTEX
  8
FOREGROUND
  6
CONTINUOUS
 10
8.499920
 20
11.139040
  0
VERTEX
  8
FOREGROUND
  6
CONTINUOUS
 10
8.499920
 20
0.139040
  0
VERTEX
  8
FOREGROUND
  6
CONTINUOUS
 10
0.000000
 20
0.139040
  0
VERTEX
  8
FOREGROUND
  6
CONTINUOUS
 10
0.000000
 20
11.139040
  0
SEQEND
  8
0
  0
POLYLINE
  8
0
  6
CONTINUOUS
 66
     1
 40
0.014080
 41
0.014080
  0
VERTEX
  8
0
  6
CONTINUOUS
 10
3.574560
 20
8.114480
  0
VERTEX
  8
0
  6
CONTINUOUS
 10
3.293400
 20
8.114480
  0
VERTEX
  8
0
  6
CONTINUOUS
 10
2.775080
 20
8.114480
  0
VERTEX
  8
0
  6
CONTINUOUS
 10
2.658480
 20
8.237240
  0
VERTEX
  8
0
  6
CONTINUOUS
 10
1.182720
 20
8.237240
  0
VERTEX
  8
0
  6
CONTINUOUS
 10
1.182720
 20
7.488360
  0
VERTEX
  8
0
  6
CONTINUOUS
 10
1.182720
 20
7.487040
  0
VERTEX
  8
0
  6
CONTINUOUS
 10
3.227840
 20
7.487040
  0
VERTEX
  8
0
  6
CONTINUOUS
 10
3.550360
 20
7.487040
  0
VERTEX
  8
0
  6
CONTINUOUS
 10
7.182560
 20
7.487040
  0
VERTEX
  8
0
  6
CONTINUOUS
 10
7.182560
 20
7.930120
  0
VERTEX
  8
0
  6
CONTINUOUS
 10
7.182120
 20
7.942440
  0
VERTEX
  8
0
  6
CONTINUOUS
 10
7.181680
 20
7.953880
  0
VERTEX
  8
0
  6
CONTINUOUS
 10
7.178600
 20
7.976320
  0
VERTEX
  8
0
  6
CONTINUOUS
 10
7.173760
 20
7.997440
  0
VERTEX
  8
0
  6
CONTINUOUS
 10
7.167160
 20
8.016800
  0
VERTEX
  8
0
  6
CONTINUOUS
 10
7.158800
 20
8.034400
  0
VERTEX
  8
0
  6
CONTINUOUS
 10
7.149560
 20
8.050680
  0
VERTEX
  8
0
  6
CONTINUOUS
 10
7.138560
 20
8.065640
  0
VERTEX
  8
0
  6
CONTINUOUS
 10
7.126680
 20
8.078840
  0
VERTEX
  8
0
  6
CONTINUOUS
 10
7.113480
 20
8.090280
  0
VERTEX
  8
0
  6
CONTINUOUS
 10
7.099400
 20
8.100400
  0
VERTEX
  8
0
  6
CONTINUOUS
 10
7.084440
 20
8.108760
  0
VERTEX
  8
0
  6
CONTINUOUS
 10
7.069040
 20
8.115800
  0
VERTEX
  8
0
  6
CONTINUOUS
 10
7.052760
 20
8.121080
  0
VERTEX
  8
0
  6
CONTINUOUS
 10
7.036480
 20
8.125040
  0
VERTEX
  8
0
  6
CONTINUOUS
 10
7.019760
 20
8.127240
  0
VERTEX
  8
0
  6
CONTINUOUS
 10
7.003040
 20
8.128120
  0
VERTEX
  8
0
  6
CONTINUOUS
 10
6.986320
 20
8.127680
  0
VERTEX
  8
0
  6
CONTINUOUS
 10
6.969600
 20
8.125040
  0
VERTEX
  8
0
  6
CONTINUOUS
 10
6.953320
 20
8.121520
  0
VERTEX
  8
0
  6
CONTINUOUS
 10
6.937040
 20
8.115800
  0
VERTEX
  8
0
  6
CONTINUOUS
 10
6.921640
 20
8.109200
  0
VERTEX
  8
0
  6
CONTINUOUS
 10
6.907120
 20
8.100400
  0
VERTEX
  8
0
  6
CONTINUOUS
 10
6.893040
 20
8.090720
  0
VERTEX
  8
0
  6
CONTINUOUS
 10
6.879840
 20
8.078840
  0
VERTEX
  8
0
  6
CONTINUOUS
 10
6.867960
 20
8.066080
  0
VERTEX
  8
0
  6
CONTINUOUS
 10
6.856960
 20
8.051120
  0
VERTEX
  8
0
  6
CONTINUOUS
 10
6.847280
 20
8.035280
  0
VERTEX
  8
0
  6
CONTINUOUS
 10
6.839360
 20
8.017240
  0
VERTEX
  8
0
  6
CONTINUOUS
 10
6.832760
 20
7.997880
  0
VERTEX
  8
0
  6
CONTINUOUS
 10
6.827920
 20
7.977200
  0
VERTEX
  8
0
  6
CONTINUOUS
 10
6.824840
 20
7.954760
  0
VERTEX
  8
0
  6
CONTINUOUS
 10
6.824400
 20
7.943320
  0
VERTEX
  8
0
  6
CONTINUOUS
 10
6.823960
 20
7.931000
  0
VERTEX
  8
0
  6
CONTINUOUS
 10
6.735080
 20
7.931000
  0
VERTEX
  8
0
  6
CONTINUOUS
 10
6.688000
 20
8.114480
  0
VERTEX
  8
0
  6
CONTINUOUS
 10
6.077720
 20
8.114480
  0
VERTEX
  8
0
  6
CONTINUOUS
 10
3.574560
 20
8.114480
  0
SEQEND
  8
0
  0
POLYLINE
  8
0
  6
CONTINUOUS
 66
     1
 40
0.000000
 41
0.000000
  0
VERTEX
  8
0
  6
CONTINUOUS
 10
4.931080
 20
3.522200
  0
VERTEX
  8
0
  6
CONTINUOUS
 10
5.212680
 20
3.522200
  0
VERTEX
  8
0
  6
CONTINUOUS
 10
5.731000
 20
3.522200
  0
VERTEX
  8
0
  6
CONTINUOUS
 10
5.847160
 20
3.644520
  0
VERTEX
  8
0
  6
CONTINUOUS
 10
7.322920
 20
3.644520
  0
VERTEX
  8
0
  6
CONTINUOUS
 10
7.322920
 20
2.895640
  0
VERTEX
  8
0
  6
CONTINUOUS
 10
7.322920
 20
2.894760
  0
VERTEX
  8
0
  6
CONTINUOUS
 10
5.278240
 20
2.894760
  0
VERTEX
  8
0
  6
CONTINUOUS
 10
4.955720
 20
2.894760
  0
VERTEX
  8
0
  6
CONTINUOUS
 10
1.323520
 20
2.894760
  0
VERTEX
  8
0
  6
CONTINUOUS
 10
1.323520
 20
3.337400
  0
VERTEX
  8
0
  6
CONTINUOUS
 10
1.323960
 20
3.349720
  0
VERTEX
  8
0
  6
CONTINUOUS
 10
1.324400
 20
3.361160
  0
VERTEX
  8
0
  6
CONTINUOUS
 10
1.327480
 20
3.383600
  0
VERTEX
  8
0
  6
CONTINUOUS
 10
1.332320
 20
3.404720
  0
VERTEX
  8
0
  6
CONTINUOUS
 10
1.338920
 20
3.424080
  0
VERTEX
  8
0
  6
CONTINUOUS
 10
1.346840
 20
3.441680
  0
VERTEX
  8
0
  6
CONTINUOUS
 10
1.356520
 20
3.457960
  0
VERTEX
  8
0
  6
CONTINUOUS
 10
1.367520
 20
3.472920
  0
VERTEX
  8
0
  6
CONTINUOUS
 10
1.379400
 20
3.486120
  0
VERTEX
  8
0
  6
CONTINUOUS
 10
1.392600
 20
3.497560
  0
VERTEX
  8
0
  6
CONTINUOUS
 10
1.406680
 20
3.507680
  0
VERTEX
  8
0
  6
CONTINUOUS
 10
1.421640
 20
3.516040
  0
VERTEX
  8
0
  6
CONTINUOUS
 10
1.437040
 20
3.523080
  0
VERTEX
  8
0
  6
CONTINUOUS
 10
1.452880
 20
3.528360
  0
VERTEX
  8
0
  6
CONTINUOUS
 10
1.469160
 20
3.532320
  0
VERTEX
  8
0
  6
CONTINUOUS
 10
1.485880
 20
3.534520
  0
VERTEX
  8
0
  6
CONTINUOUS
 10
1.503040
 20
3.535400
  0
VERTEX
  8
0
  6
CONTINUOUS
 10
1.519760
 20
3.534960
  0
VERTEX
  8
0
  6
CONTINUOUS
 10
1.536480
 20
3.532320
  0
VERTEX
  8
0
  6
CONTINUOUS
 10
1.552760
 20
3.528800
  0
VERTEX
  8
0
  6
CONTINUOUS
 10
1.568600
 20
3.523080
  0
VERTEX
  8
0
  6
CONTINUOUS
 10
1.584000
 20
3.516480
  0
VERTEX
  8
0
  6
CONTINUOUS
 10
1.598960
 20
3.507680
  0
VERTEX
  8
0
  6
CONTINUOUS
 10
1.613040
 20
3.498000
  0
VERTEX
  8
0
  6
CONTINUOUS
 10
1.626240
 20
3.486120
  0
VERTEX
  8
0
  6
CONTINUOUS
 10
1.638120
 20
3.473360
  0
VERTEX
  8
0
  6
CONTINUOUS
 10
1.649120
 20
3.458400
  0
VERTEX
  8
0
  6
CONTINUOUS
 10
1.658800
 20
3.442560
  0
VERTEX
  8
0
  6
CONTINUOUS
 10
1.666720
 20
3.424520
  0
VERTEX
  8
0
  6
CONTINUOUS
 10
1.673320
 20
3.405160
  0
VERTEX
  8
0
  6
CONTINUOUS
 10
1.678160
 20
3.384480
  0
VERTEX
  8
0
  6
CONTINUOUS
 10
1.681240
 20
3.362040
  0
VERTEX
  8
0
  6
CONTINUOUS
 10
1.681680
 20
3.350600
  0
VERTEX
  8
0
  6
CONTINUOUS
 10
1.682120
 20
3.338280
  0
VERTEX
  8
0
  6
CONTINUOUS
 10
1.771000
 20
3.338280
  0
VERTEX
  8
0
  6
CONTINUOUS
 10
1.817640
 20
3.522200
  0
VERTEX
  8
0
  6
CONTINUOUS
 10
2.428360
 20
3.522200
  0
VERTEX
  8
0
  6
CONTINUOUS
 10
4.931080
 20
3.522200
  0
SEQEND
  8
0
  0
POLYLINE
  8
0
  6
CONTINUOUS
 66
     1
 40
0.000000
 41
0.000000
  0
VERTEX
  8
0
  6
CONTINUOUS
 10
3.612840
 20
4.692160
  0
VERTEX
  8
0
  6
CONTINUOUS
 10
3.331240
 20
4.692160
  0
VERTEX
  8
0
  6
CONTINUOUS
 10
2.812920
 20
4.692160
  0
VERTEX
  8
0
  6
CONTINUOUS
 10
2.696320
 20
4.814920
  0
VERTEX
  8
0
  6
CONTINUOUS
 10
1.221000
 20
4.814920
  0
VERTEX
  8
0
  6
CONTINUOUS
 10
1.221000
 20
4.065600
  0
VERTEX
  8
0
  6
CONTINUOUS
 10
1.221000
 20
4.064720
  0
VERTEX
  8
0
  6
CONTINUOUS
 10
3.265680
 20
4.064720
  0
VERTEX
  8
0
  6
CONTINUOUS
 10
3.588200
 20
4.064720
  0
VERTEX
  8
0
  6
CONTINUOUS
 10
7.220400
 20
4.064720
  0
VERTEX
  8
0
  6
CONTINUOUS
 10
7.220400
 20
4.507800
  0
VERTEX
  8
0
  6
CONTINUOUS
 10
7.219960
 20
4.520120
  0
VERTEX
  8
0
  6
CONTINUOUS
 10
7.219520
 20
4.531560
  0
VERTEX
  8
0
  6
CONTINUOUS
 10
7.216440
 20
4.554000
  0
VERTEX
  8
0
  6
CONTINUOUS
 10
7.211600
 20
4.575120
  0
VERTEX
  8
0
  6
CONTINUOUS
 10
7.205000
 20
4.594480
  0
VERTEX
  8
0
  6
CONTINUOUS
 10
7.196640
 20
4.612080
  0
VERTEX
  8
0
  6
CONTINUOUS
 10
7.187400
 20
4.628360
  0
VERTEX
  8
0
  6
CONTINUOUS
 10
7.176400
 20
4.642880
  0
VERTEX
  8
0
  6
CONTINUOUS
 10
7.164520
 20
4.656080
  0
VERTEX
  8
0
  6
CONTINUOUS
 10
7.151320
 20
4.667520
  0
VERTEX
  8
0
  6
CONTINUOUS
 10
7.137240
 20
4.677640
  0
VERTEX
  8
0
  6
CONTINUOUS
 10
7.122280
 20
4.686000
  0
VERTEX
  8
0
  6
CONTINUOUS
 10
7.106880
 20
4.693040
  0
VERTEX
  8
0
  6
CONTINUOUS
 10
7.090600
 20
4.698760
  0
VERTEX
  8
0
  6
CONTINUOUS
 10
7.074320
 20
4.702280
  0
VERTEX
  8
0
  6
CONTINUOUS
 10
7.057600
 20
4.704920
  0
VERTEX
  8
0
  6
CONTINUOUS
 10
7.040880
 20
4.705360
  0
VERTEX
  8
0
  6
CONTINUOUS
 10
7.024160
 20
4.704920
  0
VERTEX
  8
0
  6
CONTINUOUS
 10
7.007440
 20
4.702280
  0
VERTEX
  8
0
  6
CONTINUOUS
 10
6.991160
 20
4.698760
  0
VERTEX
  8
0
  6
CONTINUOUS
 10
6.974880
 20
4.693040
  0
VERTEX
  8
0
  6
CONTINUOUS
 10
6.959480
 20
4.686440
  0
VERTEX
  8
0
  6
CONTINUOUS
 10
6.944960
 20
4.677640
  0
VERTEX
  8
0
  6
CONTINUOUS
 10
6.930880
 20
4.667960
  0
VERTEX
  8
0
  6
CONTINUOUS
 10
6.917680
 20
4.656080
  0
VERTEX
  8
0
  6
CONTINUOUS
 10
6.905800
 20
4.643320
  0
VERTEX
  8
0
  6
CONTINUOUS
 10
6.894800
 20
4.628360
  0
VERTEX
  8
0
  6
CONTINUOUS
 10
6.885120
 20
4.612520
  0
VERTEX
  8
0
  6
CONTINUOUS
 10
6.877200
 20
4.594480
  0
VERTEX
  8
0
  6
CONTINUOUS
 10
6.870600
 20
4.575120
  0
VERTEX
  8
0
  6
CONTINUOUS
 10
6.865760
 20
4.554440
  0
VERTEX
  8
0
  6
CONTINUOUS
 10
6.862680
 20
4.532000
  0
VERTEX
  8
0
  6
CONTINUOUS
 10
6.862240
 20
4.520560
  0
VERTEX
  8
0
  6
CONTINUOUS
 10
6.861800
 20
4.508240
  0
VERTEX
  8
0
  6
CONTINUOUS
 10
6.772920
 20
4.508240
  0
VERTEX
  8
0
  6
CONTINUOUS
 10
6.726280
 20
4.692160
  0
VERTEX
  8
0
  6
CONTINUOUS
 10
6.115560
 20
4.692160
  0
VERTEX
  8
0
  6
CONTINUOUS
 10
3.612840
 20
4.692160
  0
SEQEND
  8
0
  0
SOLID
  8
0
 62
    15
 10
6.757080
 20
5.903920
 11
6.758840
 21
6.648400
 12
6.846400
 22
5.903920
 13
6.848160
 23
6.648400
  0
POLYLINE
  8
0
  6
CONTINUOUS
 66
     1
 40
0.000000
 41
0.000000
  0
VERTEX
  8
0
  6
CONTINUOUS
 10
6.757080
 20
5.903920
  0
VERTEX
  8
0
  6
CONTINUOUS
 10
6.758840
 20
6.648400
  0
VERTEX
  8
0
  6
CONTINUOUS
 10
6.848160
 20
6.648400
  0
VERTEX
  8
0
  6
CONTINUOUS
 10
6.846400
 20
5.903920
  0
VERTEX
  8
0
  6
CONTINUOUS
 10
6.757080
 20
5.903920
  0
SEQEND
  8
0
  0
SOLID
  8
0
 62
    15
 10
6.710440
 20
6.087400
 11
6.712200
 21
6.832320
 12
6.757080
 22
5.903920
 13
6.758840
 23
6.648400
  0
POLYLINE
  8
0
  6
CONTINUOUS
 66
     1
 40
0.000000
 41
0.000000
  0
VERTEX
  8
0
  6
CONTINUOUS
 10
6.710440
 20
6.087400
  0
VERTEX
  8
0
  6
CONTINUOUS
 10
6.712200
 20
6.832320
  0
VERTEX
  8
0
  6
CONTINUOUS
 10
6.758840
 20
6.648400
  0
VERTEX
  8
0
  6
CONTINUOUS
 10
6.757080
 20
5.903920
  0
VERTEX
  8
0
  6
CONTINUOUS
 10
6.710440
 20
6.087400
  0
SEQEND
  8
0
  0
SOLID
  8
0
 62
    15
 10
6.100160
 20
6.087400
 11
6.101920
 21
6.832320
 12
6.710440
 22
6.087400
 13
6.712200
 23
6.832320
  0
POLYLINE
  8
0
  6
CONTINUOUS
 66
     1
 40
0.000000
 41
0.000000
  0
VERTEX
  8
0
  6
CONTINUOUS
 10
6.100160
 20
6.087400
  0
VERTEX
  8
0
  6
CONTINUOUS
 10
6.101920
 20
6.832320
  0
VERTEX
  8
0
  6
CONTINUOUS
 10
6.712200
 20
6.832320
  0
VERTEX
  8
0
  6
CONTINUOUS
 10
6.710440
 20
6.087400
  0
VERTEX
  8
0
  6
CONTINUOUS
 10
6.100160
 20
6.087400
  0
SEQEND
  8
0
  0
SOLID
  8
0
 62
    15
 10
6.846400
 20
5.903920
 11
6.848160
 21
6.648400
 12
6.850360
 22
5.950120
 13
6.852120
 23
6.694600
  0
POLYLINE
  8
0
  6
CONTINUOUS
 66
     1
 40
0.000000
 41
0.000000
  0
VERTEX
  8
0
  6
CONTINUOUS
 10
6.846400
 20
5.903920
  0
VERTEX
  8
0
  6
CONTINUOUS
 10
6.848160
 20
6.648400
  0
VERTEX
  8
0
  6
CONTINUOUS
 10
6.852120
 20
6.694600
  0
VERTEX
  8
0
  6
CONTINUOUS
 10
6.850360
 20
5.950120
  0
VERTEX
  8
0
  6
CONTINUOUS
 10
6.846400
 20
5.903920
  0
SEQEND
  8
0
  0
SOLID
  8
0
 62
    15
 10
6.850360
 20
5.950120
 11
6.852120
 21
6.694600
 12
6.861800
 22
5.990160
 13
6.863560
 23
6.734640
  0
POLYLINE
  8
0
  6
CONTINUOUS
 66
     1
 40
0.000000
 41
0.000000
  0
VERTEX
  8
0
  6
CONTINUOUS
 10
6.850360
 20
5.950120
  0
VERTEX
  8
0
  6
CONTINUOUS
 10
6.852120
 20
6.694600
  0
VERTEX
  8
0
  6
CONTINUOUS
 10
6.863560
 20
6.734640
  0
VERTEX
  8
0
  6
CONTINUOUS
 10
6.861800
 20
5.990160
  0
VERTEX
  8
0
  6
CONTINUOUS
 10
6.850360
 20
5.950120
  0
SEQEND
  8
0
  0
SOLID
  8
0
 62
    15
 10
6.861800
 20
5.990160
 11
6.863560
 21
6.734640
 12
6.879400
 22
6.024040
 13
6.881160
 23
6.768520
  0
POLYLINE
  8
0
  6
CONTINUOUS
 66
     1
 40
0.000000
 41
0.000000
  0
VERTEX
  8
0
  6
CONTINUOUS
 10
6.861800
 20
5.990160
  0
VERTEX
  8
0
  6
CONTINUOUS
 10
6.863560
 20
6.734640
  0
VERTEX
  8
0
  6
CONTINUOUS
 10
6.881160
 20
6.768520
  0
VERTEX
  8
0
  6
CONTINUOUS
 10
6.879400
 20
6.024040
  0
VERTEX
  8
0
  6
CONTINUOUS
 10
6.861800
 20
5.990160
  0
SEQEND
  8
0
  0
SOLID
  8
0
 62
    15
 10
6.879400
 20
6.024040
 11
6.881160
 21
6.768520
 12
6.902280
 22
6.051760
 13
6.904040
 23
6.796240
  0
POLYLINE
  8
0
  6
CONTINUOUS
 66
     1
 40
0.000000
 41
0.000000
  0
VERTEX
  8
0
  6
CONTINUOUS
 10
6.879400
 20
6.024040
  0
VERTEX
  8
0
  6
CONTINUOUS
 10
6.881160
 20
6.768520
  0
VERTEX
  8
0
  6
CONTINUOUS
 10
6.904040
 20
6.796240
  0
VERTEX
  8
0
  6
CONTINUOUS
 10
6.902280
 20
6.051760
  0
VERTEX
  8
0
  6
CONTINUOUS
 10
6.879400
 20
6.024040
  0
SEQEND
  8
0
  0
SOLID
  8
0
 62
    15
 10
6.902280
 20
6.051760
 11
6.904040
 21
6.796240
 12
6.929120
 22
6.073320
 13
6.930880
 23
6.817800
  0
POLYLINE
  8
0
  6
CONTINUOUS
 66
     1
 40
0.000000
 41
0.000000
  0
VERTEX
  8
0
  6
CONTINUOUS
 10
6.902280
 20
6.051760
  0
VERTEX
  8
0
  6
CONTINUOUS
 10
6.904040
 20
6.796240
  0
VERTEX
  8
0
  6
CONTINUOUS
 10
6.930880
 20
6.817800
  0
VERTEX
  8
0
  6
CONTINUOUS
 10
6.929120
 20
6.073320
  0
VERTEX
  8
0
  6
CONTINUOUS
 10
6.902280
 20
6.051760
  0
SEQEND
  8
0
  0
SOLID
  8
0
 62
    15
 10
6.929120
 20
6.073320
 11
6.930880
 21
6.817800
 12
6.959480
 22
6.088720
 13
6.961240
 23
6.833200
  0
POLYLINE
  8
0
  6
CONTINUOUS
 66
     1
 40
0.000000
 41
0.000000
  0
VERTEX
  8
0
  6
CONTINUOUS
 10
6.929120
 20
6.073320
  0
VERTEX
  8
0
  6
CONTINUOUS
 10
6.930880
 20
6.817800
  0
VERTEX
  8
0
  6
CONTINUOUS
 10
6.961240
 20
6.833200
  0
VERTEX
  8
0
  6
CONTINUOUS
 10
6.959480
 20
6.088720
  0
VERTEX
  8
0
  6
CONTINUOUS
 10
6.929120
 20
6.073320
  0
SEQEND
  8
0
  0
SOLID
  8
0
 62
    15
 10
6.959480
 20
6.088720
 11
6.961240
 21
6.833200
 12
6.992040
 22
6.097960
 13
6.993800
 23
6.842440
  0
POLYLINE
  8
0
  6
CONTINUOUS
 66
     1
 40
0.000000
 41
0.000000
  0
VERTEX
  8
0
  6
CONTINUOUS
 10
6.959480
 20
6.088720
  0
VERTEX
  8
0
  6
CONTINUOUS
 10
6.961240
 20
6.833200
  0
VERTEX
  8
0
  6
CONTINUOUS
 10
6.993800
 20
6.842440
  0
VERTEX
  8
0
  6
CONTINUOUS
 10
6.992040
 20
6.097960
  0
VERTEX
  8
0
  6
CONTINUOUS
 10
6.959480
 20
6.088720
  0
SEQEND
  8
0
  0
SOLID
  8
0
 62
    15
 10
6.992040
 20
6.097960
 11
6.993800
 21
6.842440
 12
7.025480
 22
6.101040
 13
7.027240
 23
6.845520
  0
POLYLINE
  8
0
  6
CONTINUOUS
 66
     1
 40
0.000000
 41
0.000000
  0
VERTEX
  8
0
  6
CONTINUOUS
 10
6.992040
 20
6.097960
  0
VERTEX
  8
0
  6
CONTINUOUS
 10
6.993800
 20
6.842440
  0
VERTEX
  8
0
  6
CONTINUOUS
 10
7.027240
 20
6.845520
  0
VERTEX
  8
0
  6
CONTINUOUS
 10
7.025480
 20
6.101040
  0
VERTEX
  8
0
  6
CONTINUOUS
 10
6.992040
 20
6.097960
  0
SEQEND
  8
0
  0
SOLID
  8
0
 62
    15
 10
7.025480
 20
6.101040
 11
7.027240
 21
6.845520
 12
7.058920
 22
6.097960
 13
7.060680
 23
6.842440
  0
POLYLINE
  8
0
  6
CONTINUOUS
 66
     1
 40
0.000000
 41
0.000000
  0
VERTEX
  8
0
  6
CONTINUOUS
 10
7.025480
 20
6.101040
  0
VERTEX
  8
0
  6
CONTINUOUS
 10
7.027240
 20
6.845520
  0
VERTEX
  8
0
  6
CONTINUOUS
 10
7.060680
 20
6.842440
  0
VERTEX
  8
0
  6
CONTINUOUS
 10
7.058920
 20
6.097960
  0
VERTEX
  8
0
  6
CONTINUOUS
 10
7.025480
 20
6.101040
  0
SEQEND
  8
0
  0
SOLID
  8
0
 62
    15
 10
7.058920
 20
6.097960
 11
7.060680
 21
6.842440
 12
7.091480
 22
6.088720
 13
7.093240
 23
6.833200
  0
POLYLINE
  8
0
  6
CONTINUOUS
 66
     1
 40
0.000000
 41
0.000000
  0
VERTEX
  8
0
  6
CONTINUOUS
 10
7.058920
 20
6.097960
  0
VERTEX
  8
0
  6
CONTINUOUS
 10
7.060680
 20
6.842440
  0
VERTEX
  8
0
  6
CONTINUOUS
 10
7.093240
 20
6.833200
  0
VERTEX
  8
0
  6
CONTINUOUS
 10
7.091480
 20
6.088720
  0
VERTEX
  8
0
  6
CONTINUOUS
 10
7.058920
 20
6.097960
  0
SEQEND
  8
0
  0
SOLID
  8
0
 62
    15
 10
7.091480
 20
6.088720
 11
7.093240
 21
6.833200
 12
7.121840
 22
6.073320
 13
7.123600
 23
6.817800
  0
POLYLINE
  8
0
  6
CONTINUOUS
 66
     1
 40
0.000000
 41
0.000000
  0
VERTEX
  8
0
  6
CONTINUOUS
 10
7.091480
 20
6.088720
  0
VERTEX
  8
0
  6
CONTINUOUS
 10
7.093240
 20
6.833200
  0
VERTEX
  8
0
  6
CONTINUOUS
 10
7.123600
 20
6.817800
  0
VERTEX
  8
0
  6
CONTINUOUS
 10
7.121840
 20
6.073320
  0
VERTEX
  8
0
  6
CONTINUOUS
 10
7.091480
 20
6.088720
  0
SEQEND
  8
0
  0
SOLID
  8
0
 62
    15
 10
7.121840
 20
6.073320
 11
7.123600
 21
6.817800
 12
7.148680
 22
6.051320
 13
7.150440
 23
6.796240
  0
POLYLINE
  8
0
  6
CONTINUOUS
 66
     1
 40
0.000000
 41
0.000000
  0
VERTEX
  8
0
  6
CONTINUOUS
 10
7.121840
 20
6.073320
  0
VERTEX
  8
0
  6
CONTINUOUS
 10
7.123600
 20
6.817800
  0
VERTEX
  8
0
  6
CONTINUOUS
 10
7.150440
 20
6.796240
  0
VERTEX
  8
0
  6
CONTINUOUS
 10
7.148680
 20
6.051320
  0
VERTEX
  8
0
  6
CONTINUOUS
 10
7.121840
 20
6.073320
  0
SEQEND
  8
0
  0
SOLID
  8
0
 62
    15
 10
7.172000
 20
6.023600
 11
7.173760
 21
6.768080
 12
7.189600
 22
5.989720
 13
7.191360
 23
6.734200
  0
POLYLINE
  8
0
  6
CONTINUOUS
 66
     1
 40
0.000000
 41
0.000000
  0
VERTEX
  8
0
  6
CONTINUOUS
 10
7.172000
 20
6.023600
  0
VERTEX
  8
0
  6
CONTINUOUS
 10
7.173760
 20
6.768080
  0
VERTEX
  8
0
  6
CONTINUOUS
 10
7.191360
 20
6.734200
  0
VERTEX
  8
0
  6
CONTINUOUS
 10
7.189600
 20
5.989720
  0
VERTEX
  8
0
  6
CONTINUOUS
 10
7.172000
 20
6.023600
  0
SEQEND
  8
0
  0
SOLID
  8
0
 62
    15
 10
7.148680
 20
6.051320
 11
7.150440
 21
6.796240
 12
7.172000
 22
6.023600
 13
7.173760
 23
6.768080
  0
POLYLINE
  8
0
  6
CONTINUOUS
 66
     1
 40
0.000000
 41
0.000000
  0
VERTEX
  8
0
  6
CONTINUOUS
 10
7.148680
 20
6.051320
  0
VERTEX
  8
0
  6
CONTINUOUS
 10
7.150440
 20
6.796240
  0
VERTEX
  8
0
  6
CONTINUOUS
 10
7.173760
 20
6.768080
  0
VERTEX
  8
0
  6
CONTINUOUS
 10
7.172000
 20
6.023600
  0
VERTEX
  8
0
  6
CONTINUOUS
 10
7.148680
 20
6.051320
  0
SEQEND
  8
0
  0
SOLID
  8
0
 62
    15
 10
7.189600
 20
5.989720
 11
7.191360
 21
6.734200
 12
7.201040
 22
5.949240
 13
7.202800
 23
6.694160
  0
POLYLINE
  8
0
  6
CONTINUOUS
 66
     1
 40
0.000000
 41
0.000000
  0
VERTEX
  8
0
  6
CONTINUOUS
 10
7.189600
 20
5.989720
  0
VERTEX
  8
0
  6
CONTINUOUS
 10
7.191360
 20
6.734200
  0
VERTEX
  8
0
  6
CONTINUOUS
 10
7.202800
 20
6.694160
  0
VERTEX
  8
0
  6
CONTINUOUS
 10
7.201040
 20
5.949240
  0
VERTEX
  8
0
  6
CONTINUOUS
 10
7.189600
 20
5.989720
  0
SEQEND
  8
0
  0
SOLID
  8
0
 62
    15
 10
7.201040
 20
5.949240
 11
7.202800
 21
6.694160
 12
7.205000
 22
5.903040
 13
7.206760
 23
6.647520
  0
POLYLINE
  8
0
  6
CONTINUOUS
 66
     1
 40
0.000000
 41
0.000000
  0
VERTEX
  8
0
  6
CONTINUOUS
 10
7.201040
 20
5.949240
  0
VERTEX
  8
0
  6
CONTINUOUS
 10
7.202800
 20
6.694160
  0
VERTEX
  8
0
  6
CONTINUOUS
 10
7.206760
 20
6.647520
  0
VERTEX
  8
0
  6
CONTINUOUS
 10
7.205000
 20
5.903040
  0
VERTEX
  8
0
  6
CONTINUOUS
 10
7.201040
 20
5.949240
  0
SEQEND
  8
0
  0
SOLID
  8
0
 62
    15
 10
7.205000
 20
5.903040
 11
7.206760
 21
6.647520
 12
7.205000
 22
5.459960
 13
7.206760
 23
6.204880
  0
POLYLINE
  8
0
  6
CONTINUOUS
 66
     1
 40
0.000000
 41
0.000000
  0
VERTEX
  8
0
  6
CONTINUOUS
 10
7.205000
 20
5.903040
  0
VERTEX
  8
0
  6
CONTINUOUS
 10
7.206760
 20
6.647520
  0
VERTEX
  8
0
  6
CONTINUOUS
 10
7.206760
 20
6.204880
  0
VERTEX
  8
0
  6
CONTINUOUS
 10
7.205000
 20
5.459960
  0
VERTEX
  8
0
  6
CONTINUOUS
 10
7.205000
 20
5.903040
  0
SEQEND
  8
0
  0
SOLID
  8
0
 62
    15
 10
1.205160
 20
6.210160
 11
1.206920
 21
6.954640
 12
2.680920
 22
6.210160
 13
2.682680
 23
6.954640
  0
POLYLINE
  8
0
  6
CONTINUOUS
 66
     1
 40
0.000000
 41
0.000000
  0
VERTEX
  8
0
  6
CONTINUOUS
 10
1.205160
 20
6.210160
  0
VERTEX
  8
0
  6
CONTINUOUS
 10
1.206920
 20
6.954640
  0
VERTEX
  8
0
  6
CONTINUOUS
 10
2.682680
 20
6.954640
  0
VERTEX
  8
0
  6
CONTINUOUS
 10
2.680920
 20
6.210160
  0
VERTEX
  8
0
  6
CONTINUOUS
 10
1.205160
 20
6.210160
  0
SEQEND
  8
0
  0
SOLID
  8
0
 62
    15
 10
2.680920
 20
6.210160
 11
2.682680
 21
6.954640
 12
2.797520
 22
6.087400
 13
2.799280
 23
6.832320
  0
POLYLINE
  8
0
  6
CONTINUOUS
 66
     1
 40
0.000000
 41
0.000000
  0
VERTEX
  8
0
  6
CONTINUOUS
 10
2.680920
 20
6.210160
  0
VERTEX
  8
0
  6
CONTINUOUS
 10
2.682680
 20
6.954640
  0
VERTEX
  8
0
  6
CONTINUOUS
 10
2.799280
 20
6.832320
  0
VERTEX
  8
0
  6
CONTINUOUS
 10
2.797520
 20
6.087400
  0
VERTEX
  8
0
  6
CONTINUOUS
 10
2.680920
 20
6.210160
  0
SEQEND
  8
0
  0
SOLID
  8
0
 62
    15
 10
2.797520
 20
6.087400
 11
2.799280
 21
6.832320
 12
3.597000
 22
6.087400
 13
3.598760
 23
6.832320
  0
POLYLINE
  8
0
  6
CONTINUOUS
 66
     1
 40
0.000000
 41
0.000000
  0
VERTEX
  8
0
  6
CONTINUOUS
 10
2.797520
 20
6.087400
  0
VERTEX
  8
0
  6
CONTINUOUS
 10
2.799280
 20
6.832320
  0
VERTEX
  8
0
  6
CONTINUOUS
 10
3.598760
 20
6.832320
  0
VERTEX
  8
0
  6
CONTINUOUS
 10
3.597000
 20
6.087400
  0
VERTEX
  8
0
  6
CONTINUOUS
 10
2.797520
 20
6.087400
  0
SEQEND
  8
0
  0
SOLID
  8
0
 62
    15
 10
3.597000
 20
6.087400
 11
3.598760
 21
6.832320
 12
6.100160
 22
6.087400
 13
6.101920
 23
6.832320
  0
POLYLINE
  8
0
  6
CONTINUOUS
 66
     1
 40
0.000000
 41
0.000000
  0
VERTEX
  8
0
  6
CONTINUOUS
 10
3.597000
 20
6.087400
  0
VERTEX
  8
0
  6
CONTINUOUS
 10
3.598760
 20
6.832320
  0
VERTEX
  8
0
  6
CONTINUOUS
 10
6.101920
 20
6.832320
  0
VERTEX
  8
0
  6
CONTINUOUS
 10
6.100160
 20
6.087400
  0
VERTEX
  8
0
  6
CONTINUOUS
 10
3.597000
 20
6.087400
  0
SEQEND
  8
0
  0
POLYLINE
  8
0
  6
CONTINUOUS
 66
     1
 40
0.000000
 41
0.000000
  0
VERTEX
  8
0
  6
CONTINUOUS
 10
6.100160
 20
6.087400
  0
VERTEX
  8
0
  6
CONTINUOUS
 10
6.710440
 20
6.087400
  0
VERTEX
  8
0
  6
CONTINUOUS
 10
6.757080
 20
5.903920
  0
VERTEX
  8
0
  6
CONTINUOUS
 10
6.846400
 20
5.903920
  0
VERTEX
  8
0
  6
CONTINUOUS
 10
6.850360
 20
5.950120
  0
VERTEX
  8
0
  6
CONTINUOUS
 10
6.861800
 20
5.990160
  0
VERTEX
  8
0
  6
CONTINUOUS
 10
6.879400
 20
6.024040
  0
VERTEX
  8
0
  6
CONTINUOUS
 10
6.902280
 20
6.051760
  0
VERTEX
  8
0
  6
CONTINUOUS
 10
6.929120
 20
6.073320
  0
VERTEX
  8
0
  6
CONTINUOUS
 10
6.959480
 20
6.088720
  0
VERTEX
  8
0
  6
CONTINUOUS
 10
6.992040
 20
6.097960
  0
VERTEX
  8
0
  6
CONTINUOUS
 10
7.025480
 20
6.101040
  0
VERTEX
  8
0
  6
CONTINUOUS
 10
7.058920
 20
6.097960
  0
VERTEX
  8
0
  6
CONTINUOUS
 10
7.091480
 20
6.088720
  0
VERTEX
  8
0
  6
CONTINUOUS
 10
7.121840
 20
6.073320
  0
VERTEX
  8
0
  6
CONTINUOUS
 10
7.148680
 20
6.051320
  0
VERTEX
  8
0
  6
CONTINUOUS
 10
7.172000
 20
6.023600
  0
VERTEX
  8
0
  6
CONTINUOUS
 10
7.189600
 20
5.989720
  0
VERTEX
  8
0
  6
CONTINUOUS
 10
7.201040
 20
5.949240
  0
VERTEX
  8
0
  6
CONTINUOUS
 10
7.205000
 20
5.903040
  0
VERTEX
  8
0
  6
CONTINUOUS
 10
7.205000
 20
5.459960
  0
VERTEX
  8
0
  6
CONTINUOUS
 10
1.205160
 20
5.459960
  0
VERTEX
  8
0
  6
CONTINUOUS
 10
1.205160
 20
6.210160
  0
VERTEX
  8
0
  6
CONTINUOUS
 10
2.680920
 20
6.210160
  0
VERTEX
  8
0
  6
CONTINUOUS
 10
2.797520
 20
6.087400
  0
VERTEX
  8
0
  6
CONTINUOUS
 10
3.597000
 20
6.087400
  0
VERTEX
  8
0
  6
CONTINUOUS
 10
6.100160
 20
6.087400
  0
SEQEND
  8
0
  0
TEXT
  8
0
 10
3.864080
 20
5.247440
 40
0.138082
  1
BA  1341
 41
1.000000
  7
SN0
 71
     0
 72
     5
 11
4.546214
 21
5.247440
  0
TEXT
  8
0
 10
3.897520
 20
5.056040
 40
0.138082
  1
3/4" x 6"
 41
1.000000
  7
SN0
 71
     0
 72
     5
 11
4.512332
 21
5.056040
  0
TEXT
  8
0
 10
3.882120
 20
7.770840
 40
0.138082
  1
BA  1341
 41
1.000000
  7
SN0
 71
     0
 72
     5
 11
4.564254
 21
7.770840
  0
TEXT
  8
0
 10
3.915560
 20
7.579440
 40
0.138082
  1
3/4" x 6"
 41
1.000000
  7
SN0
 71
     0
 72
     5
 11
4.530372
 21
7.579440
  0
ENDSEC
  0
EOF
