  0
SECTION
  2
HEADER
  9
$ACADVER
  1
AC1006
  9
$EXTMIN
 10
1.490280
 20
1.514480
  9
$EXTMAX
 10
7.277160
 20
9.587160
  9
$LTSCALE
 40
0.044000
  9
$PDMODE
 70
    35
  9
$PDSIZE
 40
0.035200
  0
ENDSEC
  0
SECTION
  2
TABLES
  0
TABLE
  2
LTYPE
 70
     9
  0
LTYPE
  2
CONTINUOUS
 70
    64
  3
Solid line
 72
    65
 73
     0
 40
0.000000
  0
LTYPE
  2
DASHED
 70
    64
  3
__ __ __ __ __ __ __ __ __ __ __ __ __ __ __
 72
    65
 73
     2
 40
0.000330
 49
0.000220
 49
-0.000110
  0
LTYPE
  2
HIDDEN
 70
    64
  3
 _ _ _ _ _ _ _ _ _ _ _ _ _ _ _ _ _ _ _ _ _ _
 72
    65
 73
     2
 40
0.000165
 49
0.000110
 49
-0.000055
  0
LTYPE
  2
CENTER
 70
    64
  3
____ _ ____ _ ____ _ ____ _ ____ _ ____ _ ____
 72
    65
 73
     4
 40
0.000880
 49
0.000550
 49
-0.000110
 49
0.000110
 49
-0.000110
  0
LTYPE
  2
PHANTOM
 70
    64
  3
_____ _ _ _____ _ _ _____ _ _ _____ _ _ ____
 72
    65
 73
     6
 40
0.001100
 49
0.000550
 49
-0.000110
 49
0.000110
 49
-0.000110
 49
0.000110
 49
-0.000110
  0
LTYPE
  2
DOT
 70
    64
  3
...............................................
 72
    65
 73
     2
 40
0.000110
 49
0.000000
 49
-0.000110
  0
LTYPE
  2
DASHDOT
 70
    64
  3
__ . __ . __ . __ . __ . __ . __ . __ . __ . __
 72
    65
 73
     4
 40
0.000440
 49
0.000220
 49
-0.000110
 49
0.000000
 49
-0.000110
  0
LTYPE
  2
BORDER
 70
    64
  3
__ __ . __ __ . __ __ . __ __ . __ __ . __ __
 72
    65
 73
     6
 40
0.000770
 49
0.000220
 49
-0.000110
 49
0.000220
 49
-0.000110
 49
0.000000
 49
-0.000110
  0
LTYPE
  2
DIVIDE
 70
    64
  3
__ . . __ . . __ . . __ . . __ . . __ . . __
 72
    65
 73
     6
 40
0.000550
 49
0.000220
 49
-0.000110
 49
0.000000
 49
-0.000110
 49
0.000000
 49
-0.000110
  0
LTYPE
  2
DOTDOT
 70
    64
  3
 . .  . .  . .  . .  . .  . . 
 72
    65
 73
     5
 40
0.000242
 49
-0.000110
 49
0.000000
 49
-0.000110
 49
0.000000
 49
-0.000110
  0
ENDTAB
  0
TABLE
  2
STYLE
 70
     2
  0
STYLE
 70
     0
  2
SN0
 40
0.000000
 41
0.000440
 50
0.000000
 71
     0
 42
0.000000
  3
ROMAND
  0
STYLE
 70
    68
  2
SV0
 40
0.000000
 41
0.000440
 50
0.000000
 71
     0
 42
0.000000
  3
ROMAND
  0
ENDTAB
  0
TABLE
  2
LAYER
 70
     3
  0
LAYER
  2
FOREGROUND
 70
    64
 62
     7
  6
CONTINUOUS
  0
LAYER
  2
BACKGROUND
 70
    65
 62
    -7
  6
CONTINUOUS
  0
LAYER
  2
0
 70
    64
 62
     7
  6
CONTINUOUS
  0
ENDTAB
  0
ENDSEC
  0
SECTION
  2
ENTITIES
  0
POLYLINE
  8
FOREGROUND
  6
CONTINUOUS
 66
     1
 40
0.000000
 41
0.000000
  0
VERTEX
  8
FOREGROUND
  6
CONTINUOUS
 10
0.000000
 20
11.101640
  0
VERTEX
  8
FOREGROUND
  6
CONTINUOUS
 10
8.499920
 20
11.101640
  0
VERTEX
  8
FOREGROUND
  6
CONTINUOUS
 10
8.499920
 20
0.101640
  0
VERTEX
  8
FOREGROUND
  6
CONTINUOUS
 10
0.000000
 20
0.101640
  0
VERTEX
  8
FOREGROUND
  6
CONTINUOUS
 10
0.000000
 20
11.101640
  0
SEQEND
  8
0
  0
POLYLINE
  8
FOREGROUND
  6
CONTINUOUS
 66
     1
 40
0.000000
 41
0.000000
  0
VERTEX
  8
FOREGROUND
  6
CONTINUOUS
 10
0.000000
 20
11.101640
  0
VERTEX
  8
FOREGROUND
  6
CONTINUOUS
 10
8.499920
 20
11.101640
  0
VERTEX
  8
FOREGROUND
  6
CONTINUOUS
 10
8.499920
 20
0.101640
  0
VERTEX
  8
FOREGROUND
  6
CONTINUOUS
 10
0.000000
 20
0.101640
  0
VERTEX
  8
FOREGROUND
  6
CONTINUOUS
 10
0.000000
 20
11.101640
  0
SEQEND
  8
0
  0
POLYLINE
  8
0
  6
CONTINUOUS
 66
     1
 40
0.000000
 41
0.000000
  0
VERTEX
  8
0
  6
CONTINUOUS
 10
3.293840
 20
3.956920
  0
VERTEX
  8
0
  6
CONTINUOUS
 10
3.293840
 20
9.586280
  0
VERTEX
  8
0
  6
CONTINUOUS
 10
2.838880
 20
9.585840
  0
VERTEX
  8
0
  6
CONTINUOUS
 10
2.827440
 20
9.585400
  0
VERTEX
  8
0
  6
CONTINUOUS
 10
2.805000
 20
9.582320
  0
VERTEX
  8
0
  6
CONTINUOUS
 10
2.783880
 20
9.577480
  0
VERTEX
  8
0
  6
CONTINUOUS
 10
2.764520
 20
9.570880
  0
VERTEX
  8
0
  6
CONTINUOUS
 10
2.730640
 20
9.553280
  0
VERTEX
  8
0
  6
CONTINUOUS
 10
2.702480
 20
9.530400
  0
VERTEX
  8
0
  6
CONTINUOUS
 10
2.680920
 20
9.503120
  0
VERTEX
  8
0
  6
CONTINUOUS
 10
2.665520
 20
9.472760
  0
VERTEX
  8
0
  6
CONTINUOUS
 10
2.656280
 20
9.440200
  0
VERTEX
  8
0
  6
CONTINUOUS
 10
2.653200
 20
9.406760
  0
VERTEX
  8
0
  6
CONTINUOUS
 10
2.653640
 20
9.390040
  0
VERTEX
  8
0
  6
CONTINUOUS
 10
2.659800
 20
9.357040
  0
VERTEX
  8
0
  6
CONTINUOUS
 10
2.672120
 20
9.325360
  0
VERTEX
  8
0
  6
CONTINUOUS
 10
2.690600
 20
9.296760
  0
VERTEX
  8
0
  6
CONTINUOUS
 10
2.715240
 20
9.271680
  0
VERTEX
  8
0
  6
CONTINUOUS
 10
2.746040
 20
9.251000
  0
VERTEX
  8
0
  6
CONTINUOUS
 10
2.783440
 20
9.236480
  0
VERTEX
  8
0
  6
CONTINUOUS
 10
2.804120
 20
9.231640
  0
VERTEX
  8
0
  6
CONTINUOUS
 10
2.826560
 20
9.228560
  0
VERTEX
  8
0
  6
CONTINUOUS
 10
2.850320
 20
9.227680
  0
VERTEX
  8
0
  6
CONTINUOUS
 10
2.850320
 20
9.138800
  0
VERTEX
  8
0
  6
CONTINUOUS
 10
2.666400
 20
9.091720
  0
VERTEX
  8
0
  6
CONTINUOUS
 10
2.666400
 20
3.179880
  0
VERTEX
  8
0
  6
CONTINUOUS
 10
2.544080
 20
3.063280
  0
VERTEX
  8
0
  6
CONTINUOUS
 10
2.544080
 20
1.587520
  0
VERTEX
  8
0
  6
CONTINUOUS
 10
3.293840
 20
1.587520
  0
VERTEX
  8
0
  6
CONTINUOUS
 10
3.293840
 20
3.956920
  0
SEQEND
  8
0
  0
POLYLINE
  8
0
  6
CONTINUOUS
 66
     1
 40
0.014080
 41
0.014080
  0
VERTEX
  8
0
  6
CONTINUOUS
 10
3.553440
 20
3.912920
  0
VERTEX
  8
0
  6
CONTINUOUS
 10
3.553440
 20
9.542720
  0
VERTEX
  8
0
  6
CONTINUOUS
 10
4.008400
 20
9.542280
  0
VERTEX
  8
0
  6
CONTINUOUS
 10
4.019840
 20
9.541840
  0
VERTEX
  8
0
  6
CONTINUOUS
 10
4.042280
 20
9.538760
  0
VERTEX
  8
0
  6
CONTINUOUS
 10
4.063400
 20
9.533920
  0
VERTEX
  8
0
  6
CONTINUOUS
 10
4.082760
 20
9.527320
  0
VERTEX
  8
0
  6
CONTINUOUS
 10
4.116640
 20
9.509720
  0
VERTEX
  8
0
  6
CONTINUOUS
 10
4.144800
 20
9.486840
  0
VERTEX
  8
0
  6
CONTINUOUS
 10
4.166360
 20
9.459560
  0
VERTEX
  8
0
  6
CONTINUOUS
 10
4.181760
 20
9.429200
  0
VERTEX
  8
0
  6
CONTINUOUS
 10
4.191000
 20
9.396640
  0
VERTEX
  8
0
  6
CONTINUOUS
 10
4.194080
 20
9.363200
  0
VERTEX
  8
0
  6
CONTINUOUS
 10
4.193640
 20
9.346480
  0
VERTEX
  8
0
  6
CONTINUOUS
 10
4.187480
 20
9.313480
  0
VERTEX
  8
0
  6
CONTINUOUS
 10
4.175160
 20
9.281800
  0
VERTEX
  8
0
  6
CONTINUOUS
 10
4.156680
 20
9.253200
  0
VERTEX
  8
0
  6
CONTINUOUS
 10
4.132040
 20
9.228120
  0
VERTEX
  8
0
  6
CONTINUOUS
 10
4.101240
 20
9.207440
  0
VERTEX
  8
0
  6
CONTINUOUS
 10
4.083200
 20
9.199520
  0
VERTEX
  8
0
  6
CONTINUOUS
 10
4.063840
 20
9.192920
  0
VERTEX
  8
0
  6
CONTINUOUS
 10
4.043160
 20
9.188080
  0
VERTEX
  8
0
  6
CONTINUOUS
 10
4.020720
 20
9.185000
  0
VERTEX
  8
0
  6
CONTINUOUS
 10
3.996960
 20
9.184120
  0
VERTEX
  8
0
  6
CONTINUOUS
 10
3.996960
 20
9.094800
  0
VERTEX
  8
0
  6
CONTINUOUS
 10
4.180880
 20
9.048160
  0
VERTEX
  8
0
  6
CONTINUOUS
 10
4.180880
 20
3.135880
  0
VERTEX
  8
0
  6
CONTINUOUS
 10
4.303200
 20
3.019280
  0
VERTEX
  8
0
  6
CONTINUOUS
 10
4.303200
 20
1.543520
  0
VERTEX
  8
0
  6
CONTINUOUS
 10
3.553440
 20
1.543520
  0
VERTEX
  8
0
  6
CONTINUOUS
 10
3.553440
 20
3.912920
  0
SEQEND
  8
0
  0
SOLID
  8
0
 62
    15
 10
5.588000
 20
1.543520
 11
4.843080
 21
1.543520
 12
5.588000
 22
3.019280
 13
4.843080
 23
3.019280
  0
POLYLINE
  8
0
  6
CONTINUOUS
 66
     1
 40
0.000000
 41
0.000000
  0
VERTEX
  8
0
  6
CONTINUOUS
 10
5.588000
 20
1.543520
  0
VERTEX
  8
0
  6
CONTINUOUS
 10
4.843080
 20
1.543520
  0
VERTEX
  8
0
  6
CONTINUOUS
 10
4.843080
 20
3.019280
  0
VERTEX
  8
0
  6
CONTINUOUS
 10
5.588000
 20
3.019280
  0
VERTEX
  8
0
  6
CONTINUOUS
 10
5.588000
 20
1.543520
  0
SEQEND
  8
0
  0
SOLID
  8
0
 62
    15
 10
5.588000
 20
3.019280
 11
4.843080
 21
3.019280
 12
5.710760
 22
3.135440
 13
4.965840
 23
3.135440
  0
POLYLINE
  8
0
  6
CONTINUOUS
 66
     1
 40
0.000000
 41
0.000000
  0
VERTEX
  8
0
  6
CONTINUOUS
 10
5.588000
 20
3.019280
  0
VERTEX
  8
0
  6
CONTINUOUS
 10
4.843080
 20
3.019280
  0
VERTEX
  8
0
  6
CONTINUOUS
 10
4.965840
 20
3.135440
  0
VERTEX
  8
0
  6
CONTINUOUS
 10
5.710760
 20
3.135440
  0
VERTEX
  8
0
  6
CONTINUOUS
 10
5.588000
 20
3.019280
  0
SEQEND
  8
0
  0
SOLID
  8
0
 62
    15
 10
5.710760
 20
3.135440
 11
4.965840
 21
3.135440
 12
5.710760
 22
3.935360
 13
4.965840
 23
3.935360
  0
POLYLINE
  8
0
  6
CONTINUOUS
 66
     1
 40
0.000000
 41
0.000000
  0
VERTEX
  8
0
  6
CONTINUOUS
 10
5.710760
 20
3.135440
  0
VERTEX
  8
0
  6
CONTINUOUS
 10
4.965840
 20
3.135440
  0
VERTEX
  8
0
  6
CONTINUOUS
 10
4.965840
 20
3.935360
  0
VERTEX
  8
0
  6
CONTINUOUS
 10
5.710760
 20
3.935360
  0
VERTEX
  8
0
  6
CONTINUOUS
 10
5.710760
 20
3.135440
  0
SEQEND
  8
0
  0
SOLID
  8
0
 62
    15
 10
5.710760
 20
3.935360
 11
4.965840
 21
3.935360
 12
5.710320
 22
3.937120
 13
4.965400
 23
3.937120
  0
POLYLINE
  8
0
  6
CONTINUOUS
 66
     1
 40
0.000000
 41
0.000000
  0
VERTEX
  8
0
  6
CONTINUOUS
 10
5.710760
 20
3.935360
  0
VERTEX
  8
0
  6
CONTINUOUS
 10
4.965840
 20
3.935360
  0
VERTEX
  8
0
  6
CONTINUOUS
 10
4.965400
 20
3.937120
  0
VERTEX
  8
0
  6
CONTINUOUS
 10
5.710320
 20
3.937120
  0
VERTEX
  8
0
  6
CONTINUOUS
 10
5.710760
 20
3.935360
  0
SEQEND
  8
0
  0
SOLID
  8
0
 62
    15
 10
5.710320
 20
3.937120
 11
4.965400
 21
3.937120
 12
5.710320
 22
9.047720
 13
4.965400
 23
9.047720
  0
POLYLINE
  8
0
  6
CONTINUOUS
 66
     1
 40
0.000000
 41
0.000000
  0
VERTEX
  8
0
  6
CONTINUOUS
 10
5.710320
 20
3.937120
  0
VERTEX
  8
0
  6
CONTINUOUS
 10
4.965400
 20
3.937120
  0
VERTEX
  8
0
  6
CONTINUOUS
 10
4.965400
 20
9.047720
  0
VERTEX
  8
0
  6
CONTINUOUS
 10
5.710320
 20
9.047720
  0
VERTEX
  8
0
  6
CONTINUOUS
 10
5.710320
 20
3.937120
  0
SEQEND
  8
0
  0
SOLID
  8
0
 62
    15
 10
5.710320
 20
9.047720
 11
4.965400
 21
9.047720
 12
5.894240
 22
9.094800
 13
5.149320
 23
9.094800
  0
POLYLINE
  8
0
  6
CONTINUOUS
 66
     1
 40
0.000000
 41
0.000000
  0
VERTEX
  8
0
  6
CONTINUOUS
 10
5.710320
 20
9.047720
  0
VERTEX
  8
0
  6
CONTINUOUS
 10
4.965400
 20
9.047720
  0
VERTEX
  8
0
  6
CONTINUOUS
 10
5.149320
 20
9.094800
  0
VERTEX
  8
0
  6
CONTINUOUS
 10
5.894240
 20
9.094800
  0
VERTEX
  8
0
  6
CONTINUOUS
 10
5.710320
 20
9.047720
  0
SEQEND
  8
0
  0
SOLID
  8
0
 62
    15
 10
5.894240
 20
9.094800
 11
5.149320
 21
9.094800
 12
5.894240
 22
9.183680
 13
5.149320
 23
9.183680
  0
POLYLINE
  8
0
  6
CONTINUOUS
 66
     1
 40
0.000000
 41
0.000000
  0
VERTEX
  8
0
  6
CONTINUOUS
 10
5.894240
 20
9.094800
  0
VERTEX
  8
0
  6
CONTINUOUS
 10
5.149320
 20
9.094800
  0
VERTEX
  8
0
  6
CONTINUOUS
 10
5.149320
 20
9.183680
  0
VERTEX
  8
0
  6
CONTINUOUS
 10
5.894240
 20
9.183680
  0
VERTEX
  8
0
  6
CONTINUOUS
 10
5.894240
 20
9.094800
  0
SEQEND
  8
0
  0
SOLID
  8
0
 62
    15
 10
5.894240
 20
9.183680
 11
5.149320
 21
9.183680
 12
5.848040
 22
9.187640
 13
5.103120
 23
9.187640
  0
POLYLINE
  8
0
  6
CONTINUOUS
 66
     1
 40
0.000000
 41
0.000000
  0
VERTEX
  8
0
  6
CONTINUOUS
 10
5.894240
 20
9.183680
  0
VERTEX
  8
0
  6
CONTINUOUS
 10
5.149320
 20
9.183680
  0
VERTEX
  8
0
  6
CONTINUOUS
 10
5.103120
 20
9.187640
  0
VERTEX
  8
0
  6
CONTINUOUS
 10
5.848040
 20
9.187640
  0
VERTEX
  8
0
  6
CONTINUOUS
 10
5.894240
 20
9.183680
  0
SEQEND
  8
0
  0
SOLID
  8
0
 62
    15
 10
5.848040
 20
9.187640
 11
5.103120
 21
9.187640
 12
5.808000
 22
9.199080
 13
5.063080
 23
9.199080
  0
POLYLINE
  8
0
  6
CONTINUOUS
 66
     1
 40
0.000000
 41
0.000000
  0
VERTEX
  8
0
  6
CONTINUOUS
 10
5.848040
 20
9.187640
  0
VERTEX
  8
0
  6
CONTINUOUS
 10
5.103120
 20
9.187640
  0
VERTEX
  8
0
  6
CONTINUOUS
 10
5.063080
 20
9.199080
  0
VERTEX
  8
0
  6
CONTINUOUS
 10
5.808000
 20
9.199080
  0
VERTEX
  8
0
  6
CONTINUOUS
 10
5.848040
 20
9.187640
  0
SEQEND
  8
0
  0
SOLID
  8
0
 62
    15
 10
5.808000
 20
9.199080
 11
5.063080
 21
9.199080
 12
5.774120
 22
9.216680
 13
5.029200
 23
9.216680
  0
POLYLINE
  8
0
  6
CONTINUOUS
 66
     1
 40
0.000000
 41
0.000000
  0
VERTEX
  8
0
  6
CONTINUOUS
 10
5.808000
 20
9.199080
  0
VERTEX
  8
0
  6
CONTINUOUS
 10
5.063080
 20
9.199080
  0
VERTEX
  8
0
  6
CONTINUOUS
 10
5.029200
 20
9.216680
  0
VERTEX
  8
0
  6
CONTINUOUS
 10
5.774120
 20
9.216680
  0
VERTEX
  8
0
  6
CONTINUOUS
 10
5.808000
 20
9.199080
  0
SEQEND
  8
0
  0
SOLID
  8
0
 62
    15
 10
5.774120
 20
9.216680
 11
5.029200
 21
9.216680
 12
5.746400
 22
9.239560
 13
5.001480
 23
9.239560
  0
POLYLINE
  8
0
  6
CONTINUOUS
 66
     1
 40
0.000000
 41
0.000000
  0
VERTEX
  8
0
  6
CONTINUOUS
 10
5.774120
 20
9.216680
  0
VERTEX
  8
0
  6
CONTINUOUS
 10
5.029200
 20
9.216680
  0
VERTEX
  8
0
  6
CONTINUOUS
 10
5.001480
 20
9.239560
  0
VERTEX
  8
0
  6
CONTINUOUS
 10
5.746400
 20
9.239560
  0
VERTEX
  8
0
  6
CONTINUOUS
 10
5.774120
 20
9.216680
  0
SEQEND
  8
0
  0
SOLID
  8
0
 62
    15
 10
5.746400
 20
9.239560
 11
5.001480
 21
9.239560
 12
5.724840
 22
9.266840
 13
4.979920
 23
9.266840
  0
POLYLINE
  8
0
  6
CONTINUOUS
 66
     1
 40
0.000000
 41
0.000000
  0
VERTEX
  8
0
  6
CONTINUOUS
 10
5.746400
 20
9.239560
  0
VERTEX
  8
0
  6
CONTINUOUS
 10
5.001480
 20
9.239560
  0
VERTEX
  8
0
  6
CONTINUOUS
 10
4.979920
 20
9.266840
  0
VERTEX
  8
0
  6
CONTINUOUS
 10
5.724840
 20
9.266840
  0
VERTEX
  8
0
  6
CONTINUOUS
 10
5.746400
 20
9.239560
  0
SEQEND
  8
0
  0
SOLID
  8
0
 62
    15
 10
5.724840
 20
9.266840
 11
4.979920
 21
9.266840
 12
5.709440
 22
9.296760
 13
4.964520
 23
9.296760
  0
POLYLINE
  8
0
  6
CONTINUOUS
 66
     1
 40
0.000000
 41
0.000000
  0
VERTEX
  8
0
  6
CONTINUOUS
 10
5.724840
 20
9.266840
  0
VERTEX
  8
0
  6
CONTINUOUS
 10
4.979920
 20
9.266840
  0
VERTEX
  8
0
  6
CONTINUOUS
 10
4.964520
 20
9.296760
  0
VERTEX
  8
0
  6
CONTINUOUS
 10
5.709440
 20
9.296760
  0
VERTEX
  8
0
  6
CONTINUOUS
 10
5.724840
 20
9.266840
  0
SEQEND
  8
0
  0
SOLID
  8
0
 62
    15
 10
5.709440
 20
9.296760
 11
4.964520
 21
9.296760
 12
5.700200
 22
9.329320
 13
4.955280
 23
9.329320
  0
POLYLINE
  8
0
  6
CONTINUOUS
 66
     1
 40
0.000000
 41
0.000000
  0
VERTEX
  8
0
  6
CONTINUOUS
 10
5.709440
 20
9.296760
  0
VERTEX
  8
0
  6
CONTINUOUS
 10
4.964520
 20
9.296760
  0
VERTEX
  8
0
  6
CONTINUOUS
 10
4.955280
 20
9.329320
  0
VERTEX
  8
0
  6
CONTINUOUS
 10
5.700200
 20
9.329320
  0
VERTEX
  8
0
  6
CONTINUOUS
 10
5.709440
 20
9.296760
  0
SEQEND
  8
0
  0
SOLID
  8
0
 62
    15
 10
5.700200
 20
9.329320
 11
4.955280
 21
9.329320
 12
5.697120
 22
9.362760
 13
4.952200
 23
9.362760
  0
POLYLINE
  8
0
  6
CONTINUOUS
 66
     1
 40
0.000000
 41
0.000000
  0
VERTEX
  8
0
  6
CONTINUOUS
 10
5.700200
 20
9.329320
  0
VERTEX
  8
0
  6
CONTINUOUS
 10
4.955280
 20
9.329320
  0
VERTEX
  8
0
  6
CONTINUOUS
 10
4.952200
 20
9.362760
  0
VERTEX
  8
0
  6
CONTINUOUS
 10
5.697120
 20
9.362760
  0
VERTEX
  8
0
  6
CONTINUOUS
 10
5.700200
 20
9.329320
  0
SEQEND
  8
0
  0
SOLID
  8
0
 62
    15
 10
5.697120
 20
9.362760
 11
4.952200
 21
9.362760
 12
5.700200
 22
9.396200
 13
4.955280
 23
9.396200
  0
POLYLINE
  8
0
  6
CONTINUOUS
 66
     1
 40
0.000000
 41
0.000000
  0
VERTEX
  8
0
  6
CONTINUOUS
 10
5.697120
 20
9.362760
  0
VERTEX
  8
0
  6
CONTINUOUS
 10
4.952200
 20
9.362760
  0
VERTEX
  8
0
  6
CONTINUOUS
 10
4.955280
 20
9.396200
  0
VERTEX
  8
0
  6
CONTINUOUS
 10
5.700200
 20
9.396200
  0
VERTEX
  8
0
  6
CONTINUOUS
 10
5.697120
 20
9.362760
  0
SEQEND
  8
0
  0
SOLID
  8
0
 62
    15
 10
5.700200
 20
9.396200
 11
4.955280
 21
9.396200
 12
5.709440
 22
9.428760
 13
4.964520
 23
9.428760
  0
POLYLINE
  8
0
  6
CONTINUOUS
 66
     1
 40
0.000000
 41
0.000000
  0
VERTEX
  8
0
  6
CONTINUOUS
 10
5.700200
 20
9.396200
  0
VERTEX
  8
0
  6
CONTINUOUS
 10
4.955280
 20
9.396200
  0
VERTEX
  8
0
  6
CONTINUOUS
 10
4.964520
 20
9.428760
  0
VERTEX
  8
0
  6
CONTINUOUS
 10
5.709440
 20
9.428760
  0
VERTEX
  8
0
  6
CONTINUOUS
 10
5.700200
 20
9.396200
  0
SEQEND
  8
0
  0
SOLID
  8
0
 62
    15
 10
5.709440
 20
9.428760
 11
4.964520
 21
9.428760
 12
5.724840
 22
9.459120
 13
4.979920
 23
9.459120
  0
POLYLINE
  8
0
  6
CONTINUOUS
 66
     1
 40
0.000000
 41
0.000000
  0
VERTEX
  8
0
  6
CONTINUOUS
 10
5.709440
 20
9.428760
  0
VERTEX
  8
0
  6
CONTINUOUS
 10
4.964520
 20
9.428760
  0
VERTEX
  8
0
  6
CONTINUOUS
 10
4.979920
 20
9.459120
  0
VERTEX
  8
0
  6
CONTINUOUS
 10
5.724840
 20
9.459120
  0
VERTEX
  8
0
  6
CONTINUOUS
 10
5.709440
 20
9.428760
  0
SEQEND
  8
0
  0
SOLID
  8
0
 62
    15
 10
5.724840
 20
9.459120
 11
4.979920
 21
9.459120
 12
5.746400
 22
9.486400
 13
5.001480
 23
9.486400
  0
POLYLINE
  8
0
  6
CONTINUOUS
 66
     1
 40
0.000000
 41
0.000000
  0
VERTEX
  8
0
  6
CONTINUOUS
 10
5.724840
 20
9.459120
  0
VERTEX
  8
0
  6
CONTINUOUS
 10
4.979920
 20
9.459120
  0
VERTEX
  8
0
  6
CONTINUOUS
 10
5.001480
 20
9.486400
  0
VERTEX
  8
0
  6
CONTINUOUS
 10
5.746400
 20
9.486400
  0
VERTEX
  8
0
  6
CONTINUOUS
 10
5.724840
 20
9.459120
  0
SEQEND
  8
0
  0
SOLID
  8
0
 62
    15
 10
5.746400
 20
9.486400
 11
5.001480
 21
9.486400
 12
5.774560
 22
9.509280
 13
5.029640
 23
9.509280
  0
POLYLINE
  8
0
  6
CONTINUOUS
 66
     1
 40
0.000000
 41
0.000000
  0
VERTEX
  8
0
  6
CONTINUOUS
 10
5.746400
 20
9.486400
  0
VERTEX
  8
0
  6
CONTINUOUS
 10
5.001480
 20
9.486400
  0
VERTEX
  8
0
  6
CONTINUOUS
 10
5.029640
 20
9.509280
  0
VERTEX
  8
0
  6
CONTINUOUS
 10
5.774560
 20
9.509280
  0
VERTEX
  8
0
  6
CONTINUOUS
 10
5.746400
 20
9.486400
  0
SEQEND
  8
0
  0
SOLID
  8
0
 62
    15
 10
5.774560
 20
9.509280
 11
5.029640
 21
9.509280
 12
5.808440
 22
9.526880
 13
5.063520
 23
9.526880
  0
POLYLINE
  8
0
  6
CONTINUOUS
 66
     1
 40
0.000000
 41
0.000000
  0
VERTEX
  8
0
  6
CONTINUOUS
 10
5.774560
 20
9.509280
  0
VERTEX
  8
0
  6
CONTINUOUS
 10
5.029640
 20
9.509280
  0
VERTEX
  8
0
  6
CONTINUOUS
 10
5.063520
 20
9.526880
  0
VERTEX
  8
0
  6
CONTINUOUS
 10
5.808440
 20
9.526880
  0
VERTEX
  8
0
  6
CONTINUOUS
 10
5.774560
 20
9.509280
  0
SEQEND
  8
0
  0
SOLID
  8
0
 62
    15
 10
5.808440
 20
9.526880
 11
5.063520
 21
9.526880
 12
5.848920
 22
9.538320
 13
5.103560
 23
9.538320
  0
POLYLINE
  8
0
  6
CONTINUOUS
 66
     1
 40
0.000000
 41
0.000000
  0
VERTEX
  8
0
  6
CONTINUOUS
 10
5.808440
 20
9.526880
  0
VERTEX
  8
0
  6
CONTINUOUS
 10
5.063520
 20
9.526880
  0
VERTEX
  8
0
  6
CONTINUOUS
 10
5.103560
 20
9.538320
  0
VERTEX
  8
0
  6
CONTINUOUS
 10
5.848920
 20
9.538320
  0
VERTEX
  8
0
  6
CONTINUOUS
 10
5.808440
 20
9.526880
  0
SEQEND
  8
0
  0
SOLID
  8
0
 62
    15
 10
5.848920
 20
9.538320
 11
5.103560
 21
9.538320
 12
5.895120
 22
9.542280
 13
5.150200
 23
9.542280
  0
POLYLINE
  8
0
  6
CONTINUOUS
 66
     1
 40
0.000000
 41
0.000000
  0
VERTEX
  8
0
  6
CONTINUOUS
 10
5.848920
 20
9.538320
  0
VERTEX
  8
0
  6
CONTINUOUS
 10
5.103560
 20
9.538320
  0
VERTEX
  8
0
  6
CONTINUOUS
 10
5.150200
 20
9.542280
  0
VERTEX
  8
0
  6
CONTINUOUS
 10
5.895120
 20
9.542280
  0
VERTEX
  8
0
  6
CONTINUOUS
 10
5.848920
 20
9.538320
  0
SEQEND
  8
0
  0
POLYLINE
  8
0
  6
CONTINUOUS
 66
     1
 40
0.000000
 41
0.000000
  0
VERTEX
  8
0
  6
CONTINUOUS
 10
6.338200
 20
3.911160
  0
VERTEX
  8
0
  6
CONTINUOUS
 10
6.338200
 20
1.543520
  0
VERTEX
  8
0
  6
CONTINUOUS
 10
5.588000
 20
1.543520
  0
VERTEX
  8
0
  6
CONTINUOUS
 10
5.588000
 20
3.019280
  0
VERTEX
  8
0
  6
CONTINUOUS
 10
5.710760
 20
3.135440
  0
VERTEX
  8
0
  6
CONTINUOUS
 10
5.710760
 20
3.935360
  0
VERTEX
  8
0
  6
CONTINUOUS
 10
5.710320
 20
3.937120
  0
VERTEX
  8
0
  6
CONTINUOUS
 10
5.710320
 20
9.047720
  0
VERTEX
  8
0
  6
CONTINUOUS
 10
5.894240
 20
9.094800
  0
VERTEX
  8
0
  6
CONTINUOUS
 10
5.894240
 20
9.183680
  0
VERTEX
  8
0
  6
CONTINUOUS
 10
5.848040
 20
9.187640
  0
VERTEX
  8
0
  6
CONTINUOUS
 10
5.808000
 20
9.199080
  0
VERTEX
  8
0
  6
CONTINUOUS
 10
5.774120
 20
9.216680
  0
VERTEX
  8
0
  6
CONTINUOUS
 10
5.746400
 20
9.239560
  0
VERTEX
  8
0
  6
CONTINUOUS
 10
5.724840
 20
9.266840
  0
VERTEX
  8
0
  6
CONTINUOUS
 10
5.709440
 20
9.296760
  0
VERTEX
  8
0
  6
CONTINUOUS
 10
5.700200
 20
9.329320
  0
VERTEX
  8
0
  6
CONTINUOUS
 10
5.697120
 20
9.362760
  0
VERTEX
  8
0
  6
CONTINUOUS
 10
5.700200
 20
9.396200
  0
VERTEX
  8
0
  6
CONTINUOUS
 10
5.709440
 20
9.428760
  0
VERTEX
  8
0
  6
CONTINUOUS
 10
5.724840
 20
9.459120
  0
VERTEX
  8
0
  6
CONTINUOUS
 10
5.746400
 20
9.486400
  0
VERTEX
  8
0
  6
CONTINUOUS
 10
5.774560
 20
9.509280
  0
VERTEX
  8
0
  6
CONTINUOUS
 10
5.808440
 20
9.526880
  0
VERTEX
  8
0
  6
CONTINUOUS
 10
5.848920
 20
9.538320
  0
VERTEX
  8
0
  6
CONTINUOUS
 10
5.895120
 20
9.542280
  0
VERTEX
  8
0
  6
CONTINUOUS
 10
6.338200
 20
9.542280
  0
VERTEX
  8
0
  6
CONTINUOUS
 10
6.338200
 20
3.912920
  0
VERTEX
  8
0
  6
CONTINUOUS
 10
6.338200
 20
3.911160
  0
SEQEND
  8
0
  0
TEXT
  8
0
 10
6.593400
 20
1.741960
 40
0.138014
  1
BA  1340
 41
1.000000
  7
SN0
 71
     0
 72
     5
 11
7.274331
 21
1.741960
  0
TEXT
  8
0
 10
6.626840
 20
1.550120
 40
0.138014
  1
3/4" x 8"
 41
1.000000
  7
SN0
 71
     0
 72
     5
 11
7.239960
 21
1.550120
  0
TEXT
  8
0
 10
3.586440
 20
2.363240
 40
0.138014
  1
BA  1340
 41
1.000000
  7
SN0
 71
     0
 72
     5
 11
4.267371
 21
2.363240
  0
TEXT
  8
0
 10
3.619880
 20
2.171840
 40
0.138014
  1
3/4" x 8"
 41
1.000000
  7
SN0
 71
     0
 72
     5
 11
4.233000
 21
2.171840
  0
POLYLINE
  8
0
  6
CONTINUOUS
 66
     1
 40
0.000000
 41
0.000000
  0
VERTEX
  8
0
  6
CONTINUOUS
 10
1.491160
 20
3.898400
  0
VERTEX
  8
0
  6
CONTINUOUS
 10
1.491160
 20
9.527760
  0
VERTEX
  8
0
  6
CONTINUOUS
 10
1.946120
 20
9.527320
  0
VERTEX
  8
0
  6
CONTINUOUS
 10
1.957560
 20
9.526880
  0
VERTEX
  8
0
  6
CONTINUOUS
 10
1.980000
 20
9.523800
  0
VERTEX
  8
0
  6
CONTINUOUS
 10
2.001120
 20
9.518960
  0
VERTEX
  8
0
  6
CONTINUOUS
 10
2.020480
 20
9.512360
  0
VERTEX
  8
0
  6
CONTINUOUS
 10
2.054360
 20
9.494760
  0
VERTEX
  8
0
  6
CONTINUOUS
 10
2.082520
 20
9.471880
  0
VERTEX
  8
0
  6
CONTINUOUS
 10
2.104080
 20
9.444600
  0
VERTEX
  8
0
  6
CONTINUOUS
 10
2.119480
 20
9.414240
  0
VERTEX
  8
0
  6
CONTINUOUS
 10
2.128720
 20
9.381680
  0
VERTEX
  8
0
  6
CONTINUOUS
 10
2.131800
 20
9.348240
  0
VERTEX
  8
0
  6
CONTINUOUS
 10
2.131360
 20
9.331520
  0
VERTEX
  8
0
  6
CONTINUOUS
 10
2.125200
 20
9.298520
  0
VERTEX
  8
0
  6
CONTINUOUS
 10
2.112880
 20
9.266840
  0
VERTEX
  8
0
  6
CONTINUOUS
 10
2.094400
 20
9.238240
  0
VERTEX
  8
0
  6
CONTINUOUS
 10
2.069760
 20
9.213160
  0
VERTEX
  8
0
  6
CONTINUOUS
 10
2.038960
 20
9.192480
  0
VERTEX
  8
0
  6
CONTINUOUS
 10
2.020920
 20
9.184560
  0
VERTEX
  8
0
  6
CONTINUOUS
 10
2.001560
 20
9.177960
  0
VERTEX
  8
0
  6
CONTINUOUS
 10
1.980880
 20
9.173120
  0
VERTEX
  8
0
  6
CONTINUOUS
 10
1.958440
 20
9.170040
  0
VERTEX
  8
0
  6
CONTINUOUS
 10
1.934680
 20
9.169160
  0
VERTEX
  8
0
  6
CONTINUOUS
 10
1.934680
 20
9.080280
  0
VERTEX
  8
0
  6
CONTINUOUS
 10
2.118600
 20
9.033200
  0
VERTEX
  8
0
  6
CONTINUOUS
 10
2.118600
 20
3.121360
  0
VERTEX
  8
0
  6
CONTINUOUS
 10
2.240920
 20
3.004760
  0
VERTEX
  8
0
  6
CONTINUOUS
 10
2.240920
 20
1.529000
  0
VERTEX
  8
0
  6
CONTINUOUS
 10
1.491160
 20
1.529000
  0
VERTEX
  8
0
  6
CONTINUOUS
 10
1.491160
 20
3.898400
  0
SEQEND
  8
0
  0
ENDSEC
  0
EOF
