  0
SECTION
  2
HEADER
  9
$ACADVER
  1
AC1006
  9
$EXTMIN
 10
2.184600
 20
0.986040
  9
$EXTMAX
 10
6.360200
 20
9.743360
  9
$LTSCALE
 40
0.044000
  9
$PDMODE
 70
    35
  9
$PDSIZE
 40
0.035200
  0
ENDSEC
  0
SECTION
  2
TABLES
  0
TABLE
  2
LTYPE
 70
     9
  0
LTYPE
  2
CONTINUOUS
 70
    64
  3
Solid line
 72
    65
 73
     0
 40
0.000000
  0
LTYPE
  2
DASHED
 70
    64
  3
__ __ __ __ __ __ __ __ __ __ __ __ __ __ __
 72
    65
 73
     2
 40
0.000330
 49
0.000220
 49
-0.000110
  0
LTYPE
  2
HIDDEN
 70
    64
  3
 _ _ _ _ _ _ _ _ _ _ _ _ _ _ _ _ _ _ _ _ _ _
 72
    65
 73
     2
 40
0.000165
 49
0.000110
 49
-0.000055
  0
LTYPE
  2
CENTER
 70
    64
  3
____ _ ____ _ ____ _ ____ _ ____ _ ____ _ ____
 72
    65
 73
     4
 40
0.000880
 49
0.000550
 49
-0.000110
 49
0.000110
 49
-0.000110
  0
LTYPE
  2
PHANTOM
 70
    64
  3
_____ _ _ _____ _ _ _____ _ _ _____ _ _ ____
 72
    65
 73
     6
 40
0.001100
 49
0.000550
 49
-0.000110
 49
0.000110
 49
-0.000110
 49
0.000110
 49
-0.000110
  0
LTYPE
  2
DOT
 70
    64
  3
...............................................
 72
    65
 73
     2
 40
0.000110
 49
0.000000
 49
-0.000110
  0
LTYPE
  2
DASHDOT
 70
    64
  3
__ . __ . __ . __ . __ . __ . __ . __ . __ . __
 72
    65
 73
     4
 40
0.000440
 49
0.000220
 49
-0.000110
 49
0.000000
 49
-0.000110
  0
LTYPE
  2
BORDER
 70
    64
  3
__ __ . __ __ . __ __ . __ __ . __ __ . __ __
 72
    65
 73
     6
 40
0.000770
 49
0.000220
 49
-0.000110
 49
0.000220
 49
-0.000110
 49
0.000000
 49
-0.000110
  0
LTYPE
  2
DIVIDE
 70
    64
  3
__ . . __ . . __ . . __ . . __ . . __ . . __
 72
    65
 73
     6
 40
0.000550
 49
0.000220
 49
-0.000110
 49
0.000000
 49
-0.000110
 49
0.000000
 49
-0.000110
  0
LTYPE
  2
DOTDOT
 70
    64
  3
 . .  . .  . .  . .  . .  . . 
 72
    65
 73
     5
 40
0.000242
 49
-0.000110
 49
0.000000
 49
-0.000110
 49
0.000000
 49
-0.000110
  0
ENDTAB
  0
TABLE
  2
STYLE
 70
     2
  0
STYLE
 70
     0
  2
SN0
 40
0.000000
 41
0.000440
 50
0.000000
 71
     0
 42
0.000000
  3
ROMAND
  0
STYLE
 70
    68
  2
SV0
 40
0.000000
 41
0.000440
 50
0.000000
 71
     0
 42
0.000000
  3
ROMAND
  0
ENDTAB
  0
TABLE
  2
LAYER
 70
     3
  0
LAYER
  2
FOREGROUND
 70
    64
 62
     7
  6
CONTINUOUS
  0
LAYER
  2
BACKGROUND
 70
    65
 62
    -7
  6
CONTINUOUS
  0
LAYER
  2
0
 70
    64
 62
     7
  6
CONTINUOUS
  0
ENDTAB
  0
ENDSEC
  0
SECTION
  2
ENTITIES
  0
POLYLINE
  8
FOREGROUND
  6
CONTINUOUS
 66
     1
 40
0.000000
 41
0.000000
  0
VERTEX
  8
FOREGROUND
  6
CONTINUOUS
 10
0.000000
 20
10.729400
  0
VERTEX
  8
FOREGROUND
  6
CONTINUOUS
 10
8.499920
 20
10.729400
  0
VERTEX
  8
FOREGROUND
  6
CONTINUOUS
 10
8.499920
 20
-0.270600
  0
VERTEX
  8
FOREGROUND
  6
CONTINUOUS
 10
0.000000
 20
-0.270600
  0
VERTEX
  8
FOREGROUND
  6
CONTINUOUS
 10
0.000000
 20
10.729400
  0
SEQEND
  8
0
  0
POLYLINE
  8
FOREGROUND
  6
CONTINUOUS
 66
     1
 40
0.000000
 41
0.000000
  0
VERTEX
  8
FOREGROUND
  6
CONTINUOUS
 10
0.000000
 20
10.729400
  0
VERTEX
  8
FOREGROUND
  6
CONTINUOUS
 10
8.499920
 20
10.729400
  0
VERTEX
  8
FOREGROUND
  6
CONTINUOUS
 10
8.499920
 20
-0.270600
  0
VERTEX
  8
FOREGROUND
  6
CONTINUOUS
 10
0.000000
 20
-0.270600
  0
VERTEX
  8
FOREGROUND
  6
CONTINUOUS
 10
0.000000
 20
10.729400
  0
SEQEND
  8
0
  0
POLYLINE
  8
0
  6
CONTINUOUS
 66
     1
 40
0.000000
 41
0.000000
  0
VERTEX
  8
0
  6
CONTINUOUS
 10
6.359760
 20
8.616960
  0
VERTEX
  8
0
  6
CONTINUOUS
 10
2.267320
 20
8.616960
  0
VERTEX
  8
0
  6
CONTINUOUS
 10
2.268640
 20
8.687360
  0
VERTEX
  8
0
  6
CONTINUOUS
 10
2.271280
 20
8.730920
  0
VERTEX
  8
0
  6
CONTINUOUS
 10
2.278760
 20
8.791640
  0
VERTEX
  8
0
  6
CONTINUOUS
 10
2.290200
 20
8.847520
  0
VERTEX
  8
0
  6
CONTINUOUS
 10
2.299880
 20
8.882280
  0
VERTEX
  8
0
  6
CONTINUOUS
 10
2.318360
 20
8.930680
  0
VERTEX
  8
0
  6
CONTINUOUS
 10
2.332880
 20
8.961480
  0
VERTEX
  8
0
  6
CONTINUOUS
 10
2.349600
 20
8.990520
  0
VERTEX
  8
0
  6
CONTINUOUS
 10
2.368520
 20
9.018680
  0
VERTEX
  8
0
  6
CONTINUOUS
 10
2.389640
 20
9.045960
  0
VERTEX
  8
0
  6
CONTINUOUS
 10
2.412520
 20
9.071920
  0
VERTEX
  8
0
  6
CONTINUOUS
 10
2.465760
 20
9.122520
  0
VERTEX
  8
0
  6
CONTINUOUS
 10
2.630760
 20
9.254080
  0
VERTEX
  8
0
  6
CONTINUOUS
 10
2.672120
 20
9.293240
  0
VERTEX
  8
0
  6
CONTINUOUS
 10
2.690160
 20
9.313480
  0
VERTEX
  8
0
  6
CONTINUOUS
 10
2.706000
 20
9.334160
  0
VERTEX
  8
0
  6
CONTINUOUS
 10
2.726240
 20
9.367600
  0
VERTEX
  8
0
  6
CONTINUOUS
 10
2.737240
 20
9.391360
  0
VERTEX
  8
0
  6
CONTINUOUS
 10
2.749560
 20
9.430960
  0
VERTEX
  8
0
  6
CONTINUOUS
 10
2.755280
 20
9.460000
  0
VERTEX
  8
0
  6
CONTINUOUS
 10
2.759240
 20
9.508840
  0
VERTEX
  8
0
  6
CONTINUOUS
 10
2.759680
 20
9.526440
  0
VERTEX
  8
0
  6
CONTINUOUS
 10
2.839760
 20
9.526440
  0
VERTEX
  8
0
  6
CONTINUOUS
 10
2.846360
 20
9.554600
  0
VERTEX
  8
0
  6
CONTINUOUS
 10
2.856040
 20
9.578360
  0
VERTEX
  8
0
  6
CONTINUOUS
 10
2.863520
 20
9.591560
  0
VERTEX
  8
0
  6
CONTINUOUS
 10
2.872320
 20
9.603000
  0
VERTEX
  8
0
  6
CONTINUOUS
 10
2.893000
 20
9.621480
  0
VERTEX
  8
0
  6
CONTINUOUS
 10
2.915880
 20
9.634240
  0
VERTEX
  8
0
  6
CONTINUOUS
 10
2.940960
 20
9.642160
  0
VERTEX
  8
0
  6
CONTINUOUS
 10
2.966480
 20
9.646560
  0
VERTEX
  8
0
  6
CONTINUOUS
 10
3.004760
 20
9.647880
  0
VERTEX
  8
0
  6
CONTINUOUS
 10
3.015320
 20
9.730600
  0
VERTEX
  8
0
  6
CONTINUOUS
 10
3.410440
 20
9.730600
  0
VERTEX
  8
0
  6
CONTINUOUS
 10
3.418800
 20
9.703760
  0
VERTEX
  8
0
  6
CONTINUOUS
 10
3.435080
 20
9.670320
  0
VERTEX
  8
0
  6
CONTINUOUS
 10
3.448280
 20
9.652720
  0
VERTEX
  8
0
  6
CONTINUOUS
 10
3.464120
 20
9.638640
  0
VERTEX
  8
0
  6
CONTINUOUS
 10
3.482600
 20
9.628080
  0
VERTEX
  8
0
  6
CONTINUOUS
 10
3.503720
 20
9.621480
  0
VERTEX
  8
0
  6
CONTINUOUS
 10
3.527920
 20
9.617960
  0
VERTEX
  8
0
  6
CONTINUOUS
 10
3.541120
 20
9.617520
  0
VERTEX
  8
0
  6
CONTINUOUS
 10
3.555200
 20
9.618400
  0
VERTEX
  8
0
  6
CONTINUOUS
 10
3.584240
 20
9.625880
  0
VERTEX
  8
0
  6
CONTINUOUS
 10
3.631320
 20
9.645680
  0
VERTEX
  8
0
  6
CONTINUOUS
 10
3.701720
 20
9.678680
  0
VERTEX
  8
0
  6
CONTINUOUS
 10
3.740880
 20
9.692760
  0
VERTEX
  8
0
  6
CONTINUOUS
 10
3.761120
 20
9.698480
  0
VERTEX
  8
0
  6
CONTINUOUS
 10
3.804680
 20
9.705960
  0
VERTEX
  8
0
  6
CONTINUOUS
 10
3.839000
 20
9.706400
  0
VERTEX
  8
0
  6
CONTINUOUS
 10
3.871560
 20
9.702000
  0
VERTEX
  8
0
  6
CONTINUOUS
 10
3.892240
 20
9.696280
  0
VERTEX
  8
0
  6
CONTINUOUS
 10
3.930520
 20
9.680000
  0
VERTEX
  8
0
  6
CONTINUOUS
 10
4.040960
 20
9.617520
  0
VERTEX
  8
0
  6
CONTINUOUS
 10
4.080560
 20
9.601240
  0
VERTEX
  8
0
  6
CONTINUOUS
 10
4.101680
 20
9.595520
  0
VERTEX
  8
0
  6
CONTINUOUS
 10
4.135560
 20
9.591120
  0
VERTEX
  8
0
  6
CONTINUOUS
 10
4.159320
 20
9.591120
  0
VERTEX
  8
0
  6
CONTINUOUS
 10
4.180880
 20
9.593320
  0
VERTEX
  8
0
  6
CONTINUOUS
 10
4.208600
 20
9.601240
  0
VERTEX
  8
0
  6
CONTINUOUS
 10
4.224440
 20
9.608720
  0
VERTEX
  8
0
  6
CONTINUOUS
 10
4.249960
 20
9.628080
  0
VERTEX
  8
0
  6
CONTINUOUS
 10
4.268880
 20
9.651840
  0
VERTEX
  8
0
  6
CONTINUOUS
 10
4.282080
 20
9.677360
  0
VERTEX
  8
0
  6
CONTINUOUS
 10
4.293960
 20
9.713880
  0
VERTEX
  8
0
  6
CONTINUOUS
 10
4.301000
 20
9.742920
  0
VERTEX
  8
0
  6
CONTINUOUS
 10
4.727360
 20
9.742920
  0
VERTEX
  8
0
  6
CONTINUOUS
 10
4.736600
 20
9.669440
  0
VERTEX
  8
0
  6
CONTINUOUS
 10
4.746280
 20
9.668560
  0
VERTEX
  8
0
  6
CONTINUOUS
 10
4.764320
 20
9.661960
  0
VERTEX
  8
0
  6
CONTINUOUS
 10
4.781040
 20
9.651400
  0
VERTEX
  8
0
  6
CONTINUOUS
 10
4.795560
 20
9.636880
  0
VERTEX
  8
0
  6
CONTINUOUS
 10
4.812720
 20
9.610920
  0
VERTEX
  8
0
  6
CONTINUOUS
 10
4.823720
 20
9.583200
  0
VERTEX
  8
0
  6
CONTINUOUS
 10
4.827240
 20
9.565160
  0
VERTEX
  8
0
  6
CONTINUOUS
 10
4.827680
 20
9.557240
  0
VERTEX
  8
0
  6
CONTINUOUS
 10
4.908640
 20
9.556800
  0
VERTEX
  8
0
  6
CONTINUOUS
 10
4.913920
 20
9.471440
  0
VERTEX
  8
0
  6
CONTINUOUS
 10
5.000160
 20
9.471440
  0
VERTEX
  8
0
  6
CONTINUOUS
 10
5.013800
 20
9.069280
  0
VERTEX
  8
0
  6
CONTINUOUS
 10
5.670720
 20
9.069280
  0
VERTEX
  8
0
  6
CONTINUOUS
 10
5.675120
 20
9.165640
  0
VERTEX
  8
0
  6
CONTINUOUS
 10
5.827360
 20
9.165640
  0
VERTEX
  8
0
  6
CONTINUOUS
 10
5.829560
 20
9.144520
  0
VERTEX
  8
0
  6
CONTINUOUS
 10
5.835720
 20
9.124280
  0
VERTEX
  8
0
  6
CONTINUOUS
 10
5.845840
 20
9.105800
  0
VERTEX
  8
0
  6
CONTINUOUS
 10
5.860360
 20
9.088640
  0
VERTEX
  8
0
  6
CONTINUOUS
 10
5.878840
 20
9.073240
  0
VERTEX
  8
0
  6
CONTINUOUS
 10
5.913600
 20
9.053880
  0
VERTEX
  8
0
  6
CONTINUOUS
 10
5.941760
 20
9.043320
  0
VERTEX
  8
0
  6
CONTINUOUS
 10
6.006440
 20
9.023960
  0
VERTEX
  8
0
  6
CONTINUOUS
 10
6.039440
 20
9.010760
  0
VERTEX
  8
0
  6
CONTINUOUS
 10
6.070680
 20
8.993600
  0
VERTEX
  8
0
  6
CONTINUOUS
 10
6.099280
 20
8.971600
  0
VERTEX
  8
0
  6
CONTINUOUS
 10
6.111600
 20
8.958400
  0
VERTEX
  8
0
  6
CONTINUOUS
 10
6.122600
 20
8.943880
  0
VERTEX
  8
0
  6
CONTINUOUS
 10
6.136680
 20
8.918800
  0
VERTEX
  8
0
  6
CONTINUOUS
 10
6.146360
 20
8.889760
  0
VERTEX
  8
0
  6
CONTINUOUS
 10
6.151200
 20
8.855880
  0
VERTEX
  8
0
  6
CONTINUOUS
 10
6.151640
 20
8.843560
  0
VERTEX
  8
0
  6
CONTINUOUS
 10
6.248880
 20
8.843560
  0
VERTEX
  8
0
  6
CONTINUOUS
 10
6.251080
 20
8.809680
  0
VERTEX
  8
0
  6
CONTINUOUS
 10
6.255920
 20
8.789880
  0
VERTEX
  8
0
  6
CONTINUOUS
 10
6.263840
 20
8.772280
  0
VERTEX
  8
0
  6
CONTINUOUS
 10
6.275280
 20
8.758200
  0
VERTEX
  8
0
  6
CONTINUOUS
 10
6.292000
 20
8.746760
  0
VERTEX
  8
0
  6
CONTINUOUS
 10
6.314440
 20
8.738840
  0
VERTEX
  8
0
  6
CONTINUOUS
 10
6.343040
 20
8.734880
  0
VERTEX
  8
0
  6
CONTINUOUS
 10
6.359760
 20
8.734440
  0
VERTEX
  8
0
  6
CONTINUOUS
 10
6.359760
 20
8.616960
  0
SEQEND
  8
0
  0
POLYLINE
  8
0
  6
CONTINUOUS
 66
     1
 40
0.000000
 41
0.000000
  0
VERTEX
  8
0
  6
CONTINUOUS
 10
6.277920
 20
2.359280
  0
VERTEX
  8
0
  6
CONTINUOUS
 10
2.185480
 20
2.359280
  0
VERTEX
  8
0
  6
CONTINUOUS
 10
2.186800
 20
2.429680
  0
VERTEX
  8
0
  6
CONTINUOUS
 10
2.189440
 20
2.473240
  0
VERTEX
  8
0
  6
CONTINUOUS
 10
2.196920
 20
2.534400
  0
VERTEX
  8
0
  6
CONTINUOUS
 10
2.203960
 20
2.571800
  0
VERTEX
  8
0
  6
CONTINUOUS
 10
2.218040
 20
2.624600
  0
VERTEX
  8
0
  6
CONTINUOUS
 10
2.236520
 20
2.673440
  0
VERTEX
  8
0
  6
CONTINUOUS
 10
2.251040
 20
2.704240
  0
VERTEX
  8
0
  6
CONTINUOUS
 10
2.267760
 20
2.733280
  0
VERTEX
  8
0
  6
CONTINUOUS
 10
2.286680
 20
2.761440
  0
VERTEX
  8
0
  6
CONTINUOUS
 10
2.307800
 20
2.788280
  0
VERTEX
  8
0
  6
CONTINUOUS
 10
2.330680
 20
2.814240
  0
VERTEX
  8
0
  6
CONTINUOUS
 10
2.383920
 20
2.864840
  0
VERTEX
  8
0
  6
CONTINUOUS
 10
2.548920
 20
2.996840
  0
VERTEX
  8
0
  6
CONTINUOUS
 10
2.590280
 20
3.036000
  0
VERTEX
  8
0
  6
CONTINUOUS
 10
2.608320
 20
3.055800
  0
VERTEX
  8
0
  6
CONTINUOUS
 10
2.638240
 20
3.098480
  0
VERTEX
  8
0
  6
CONTINUOUS
 10
2.655400
 20
3.134120
  0
VERTEX
  8
0
  6
CONTINUOUS
 10
2.667720
 20
3.173280
  0
VERTEX
  8
0
  6
CONTINUOUS
 10
2.673440
 20
3.202320
  0
VERTEX
  8
0
  6
CONTINUOUS
 10
2.677400
 20
3.251160
  0
VERTEX
  8
0
  6
CONTINUOUS
 10
2.677840
 20
3.268760
  0
VERTEX
  8
0
  6
CONTINUOUS
 10
2.757920
 20
3.268760
  0
VERTEX
  8
0
  6
CONTINUOUS
 10
2.764520
 20
3.296920
  0
VERTEX
  8
0
  6
CONTINUOUS
 10
2.774200
 20
3.320680
  0
VERTEX
  8
0
  6
CONTINUOUS
 10
2.781680
 20
3.333880
  0
VERTEX
  8
0
  6
CONTINUOUS
 10
2.790480
 20
3.345760
  0
VERTEX
  8
0
  6
CONTINUOUS
 10
2.811160
 20
3.363800
  0
VERTEX
  8
0
  6
CONTINUOUS
 10
2.834040
 20
3.376560
  0
VERTEX
  8
0
  6
CONTINUOUS
 10
2.859120
 20
3.384480
  0
VERTEX
  8
0
  6
CONTINUOUS
 10
2.897400
 20
3.390200
  0
VERTEX
  8
0
  6
CONTINUOUS
 10
2.922920
 20
3.390640
  0
VERTEX
  8
0
  6
CONTINUOUS
 10
2.933480
 20
3.473360
  0
VERTEX
  8
0
  6
CONTINUOUS
 10
3.328600
 20
3.473360
  0
VERTEX
  8
0
  6
CONTINUOUS
 10
3.341800
 20
3.434200
  0
VERTEX
  8
0
  6
CONTINUOUS
 10
3.353240
 20
3.413080
  0
VERTEX
  8
0
  6
CONTINUOUS
 10
3.366440
 20
3.395480
  0
VERTEX
  8
0
  6
CONTINUOUS
 10
3.382280
 20
3.381400
  0
VERTEX
  8
0
  6
CONTINUOUS
 10
3.400320
 20
3.370840
  0
VERTEX
  8
0
  6
CONTINUOUS
 10
3.421440
 20
3.364240
  0
VERTEX
  8
0
  6
CONTINUOUS
 10
3.445640
 20
3.360720
  0
VERTEX
  8
0
  6
CONTINUOUS
 10
3.458840
 20
3.360280
  0
VERTEX
  8
0
  6
CONTINUOUS
 10
3.472920
 20
3.361160
  0
VERTEX
  8
0
  6
CONTINUOUS
 10
3.501960
 20
3.368640
  0
VERTEX
  8
0
  6
CONTINUOUS
 10
3.549040
 20
3.388440
  0
VERTEX
  8
0
  6
CONTINUOUS
 10
3.619880
 20
3.421440
  0
VERTEX
  8
0
  6
CONTINUOUS
 10
3.659040
 20
3.435520
  0
VERTEX
  8
0
  6
CONTINUOUS
 10
3.679280
 20
3.441240
  0
VERTEX
  8
0
  6
CONTINUOUS
 10
3.722840
 20
3.448720
  0
VERTEX
  8
0
  6
CONTINUOUS
 10
3.757160
 20
3.449160
  0
VERTEX
  8
0
  6
CONTINUOUS
 10
3.789720
 20
3.444760
  0
VERTEX
  8
0
  6
CONTINUOUS
 10
3.810400
 20
3.439040
  0
VERTEX
  8
0
  6
CONTINUOUS
 10
3.848680
 20
3.422760
  0
VERTEX
  8
0
  6
CONTINUOUS
 10
3.959120
 20
3.360280
  0
VERTEX
  8
0
  6
CONTINUOUS
 10
3.998720
 20
3.344000
  0
VERTEX
  8
0
  6
CONTINUOUS
 10
4.019840
 20
3.338280
  0
VERTEX
  8
0
  6
CONTINUOUS
 10
4.053720
 20
3.333880
  0
VERTEX
  8
0
  6
CONTINUOUS
 10
4.077480
 20
3.333880
  0
VERTEX
  8
0
  6
CONTINUOUS
 10
4.099040
 20
3.336080
  0
VERTEX
  8
0
  6
CONTINUOUS
 10
4.126760
 20
3.344000
  0
VERTEX
  8
0
  6
CONTINUOUS
 10
4.142600
 20
3.351480
  0
VERTEX
  8
0
  6
CONTINUOUS
 10
4.168120
 20
3.370840
  0
VERTEX
  8
0
  6
CONTINUOUS
 10
4.187040
 20
3.394600
  0
VERTEX
  8
0
  6
CONTINUOUS
 10
4.200240
 20
3.420120
  0
VERTEX
  8
0
  6
CONTINUOUS
 10
4.212120
 20
3.456640
  0
VERTEX
  8
0
  6
CONTINUOUS
 10
4.219160
 20
3.485680
  0
VERTEX
  8
0
  6
CONTINUOUS
 10
4.645520
 20
3.485680
  0
VERTEX
  8
0
  6
CONTINUOUS
 10
4.654760
 20
3.412200
  0
VERTEX
  8
0
  6
CONTINUOUS
 10
4.664440
 20
3.411320
  0
VERTEX
  8
0
  6
CONTINUOUS
 10
4.682480
 20
3.404720
  0
VERTEX
  8
0
  6
CONTINUOUS
 10
4.699200
 20
3.393720
  0
VERTEX
  8
0
  6
CONTINUOUS
 10
4.713720
 20
3.379200
  0
VERTEX
  8
0
  6
CONTINUOUS
 10
4.730880
 20
3.353240
  0
VERTEX
  8
0
  6
CONTINUOUS
 10
4.741880
 20
3.325520
  0
VERTEX
  8
0
  6
CONTINUOUS
 10
4.745400
 20
3.307920
  0
VERTEX
  8
0
  6
CONTINUOUS
 10
4.745840
 20
3.299560
  0
VERTEX
  8
0
  6
CONTINUOUS
 10
4.826800
 20
3.299560
  0
VERTEX
  8
0
  6
CONTINUOUS
 10
4.832080
 20
3.214200
  0
VERTEX
  8
0
  6
CONTINUOUS
 10
4.918320
 20
3.214200
  0
VERTEX
  8
0
  6
CONTINUOUS
 10
4.931960
 20
2.812040
  0
VERTEX
  8
0
  6
CONTINUOUS
 10
5.588880
 20
2.812040
  0
VERTEX
  8
0
  6
CONTINUOUS
 10
5.593280
 20
2.908400
  0
VERTEX
  8
0
  6
CONTINUOUS
 10
5.745520
 20
2.908400
  0
VERTEX
  8
0
  6
CONTINUOUS
 10
5.747720
 20
2.887280
  0
VERTEX
  8
0
  6
CONTINUOUS
 10
5.753880
 20
2.867040
  0
VERTEX
  8
0
  6
CONTINUOUS
 10
5.764000
 20
2.848560
  0
VERTEX
  8
0
  6
CONTINUOUS
 10
5.778520
 20
2.831400
  0
VERTEX
  8
0
  6
CONTINUOUS
 10
5.807560
 20
2.808960
  0
VERTEX
  8
0
  6
CONTINUOUS
 10
5.831760
 20
2.796640
  0
VERTEX
  8
0
  6
CONTINUOUS
 10
5.859920
 20
2.785640
  0
VERTEX
  8
0
  6
CONTINUOUS
 10
5.924600
 20
2.766280
  0
VERTEX
  8
0
  6
CONTINUOUS
 10
5.957600
 20
2.753080
  0
VERTEX
  8
0
  6
CONTINUOUS
 10
5.988840
 20
2.735920
  0
VERTEX
  8
0
  6
CONTINUOUS
 10
6.003800
 20
2.725800
  0
VERTEX
  8
0
  6
CONTINUOUS
 10
6.029760
 20
2.701160
  0
VERTEX
  8
0
  6
CONTINUOUS
 10
6.040760
 20
2.686200
  0
VERTEX
  8
0
  6
CONTINUOUS
 10
6.054840
 20
2.661120
  0
VERTEX
  8
0
  6
CONTINUOUS
 10
6.064520
 20
2.632080
  0
VERTEX
  8
0
  6
CONTINUOUS
 10
6.069360
 20
2.598200
  0
VERTEX
  8
0
  6
CONTINUOUS
 10
6.069800
 20
2.585880
  0
VERTEX
  8
0
  6
CONTINUOUS
 10
6.167040
 20
2.585880
  0
VERTEX
  8
0
  6
CONTINUOUS
 10
6.169240
 20
2.552000
  0
VERTEX
  8
0
  6
CONTINUOUS
 10
6.174080
 20
2.532200
  0
VERTEX
  8
0
  6
CONTINUOUS
 10
6.182000
 20
2.515040
  0
VERTEX
  8
0
  6
CONTINUOUS
 10
6.193440
 20
2.500520
  0
VERTEX
  8
0
  6
CONTINUOUS
 10
6.210160
 20
2.489520
  0
VERTEX
  8
0
  6
CONTINUOUS
 10
6.232600
 20
2.481600
  0
VERTEX
  8
0
  6
CONTINUOUS
 10
6.261200
 20
2.477640
  0
VERTEX
  8
0
  6
CONTINUOUS
 10
6.277920
 20
2.477200
  0
VERTEX
  8
0
  6
CONTINUOUS
 10
6.277920
 20
2.359280
  0
SEQEND
  8
0
  0
POLYLINE
  8
0
  6
CONTINUOUS
 66
     1
 40
0.000000
 41
0.000000
  0
VERTEX
  8
0
  6
CONTINUOUS
 10
2.258520
 20
0.986040
  0
VERTEX
  8
0
  6
CONTINUOUS
 10
6.351400
 20
0.986040
  0
VERTEX
  8
0
  6
CONTINUOUS
 10
6.350080
 20
1.056440
  0
VERTEX
  8
0
  6
CONTINUOUS
 10
6.347440
 20
1.100000
  0
VERTEX
  8
0
  6
CONTINUOUS
 10
6.339960
 20
1.161160
  0
VERTEX
  8
0
  6
CONTINUOUS
 10
6.328520
 20
1.216600
  0
VERTEX
  8
0
  6
CONTINUOUS
 10
6.313120
 20
1.268080
  0
VERTEX
  8
0
  6
CONTINUOUS
 10
6.300360
 20
1.300200
  0
VERTEX
  8
0
  6
CONTINUOUS
 10
6.285400
 20
1.331000
  0
VERTEX
  8
0
  6
CONTINUOUS
 10
6.268680
 20
1.360040
  0
VERTEX
  8
0
  6
CONTINUOUS
 10
6.249760
 20
1.388200
  0
VERTEX
  8
0
  6
CONTINUOUS
 10
6.228640
 20
1.415040
  0
VERTEX
  8
0
  6
CONTINUOUS
 10
6.205760
 20
1.441000
  0
VERTEX
  8
0
  6
CONTINUOUS
 10
6.152520
 20
1.491600
  0
VERTEX
  8
0
  6
CONTINUOUS
 10
5.987520
 20
1.623600
  0
VERTEX
  8
0
  6
CONTINUOUS
 10
5.946160
 20
1.662760
  0
VERTEX
  8
0
  6
CONTINUOUS
 10
5.928120
 20
1.682560
  0
VERTEX
  8
0
  6
CONTINUOUS
 10
5.898200
 20
1.725240
  0
VERTEX
  8
0
  6
CONTINUOUS
 10
5.881040
 20
1.760880
  0
VERTEX
  8
0
  6
CONTINUOUS
 10
5.868720
 20
1.800040
  0
VERTEX
  8
0
  6
CONTINUOUS
 10
5.863000
 20
1.829080
  0
VERTEX
  8
0
  6
CONTINUOUS
 10
5.859040
 20
1.877920
  0
VERTEX
  8
0
  6
CONTINUOUS
 10
5.858600
 20
1.895520
  0
VERTEX
  8
0
  6
CONTINUOUS
 10
5.778960
 20
1.895520
  0
VERTEX
  8
0
  6
CONTINUOUS
 10
5.772360
 20
1.923680
  0
VERTEX
  8
0
  6
CONTINUOUS
 10
5.762680
 20
1.947440
  0
VERTEX
  8
0
  6
CONTINUOUS
 10
5.755200
 20
1.961080
  0
VERTEX
  8
0
  6
CONTINUOUS
 10
5.736280
 20
1.982640
  0
VERTEX
  8
0
  6
CONTINUOUS
 10
5.714720
 20
1.998040
  0
VERTEX
  8
0
  6
CONTINUOUS
 10
5.690520
 20
2.008160
  0
VERTEX
  8
0
  6
CONTINUOUS
 10
5.665000
 20
2.014320
  0
VERTEX
  8
0
  6
CONTINUOUS
 10
5.639040
 20
2.016960
  0
VERTEX
  8
0
  6
CONTINUOUS
 10
5.613520
 20
2.017400
  0
VERTEX
  8
0
  6
CONTINUOUS
 10
5.602960
 20
2.100120
  0
VERTEX
  8
0
  6
CONTINUOUS
 10
5.208280
 20
2.100120
  0
VERTEX
  8
0
  6
CONTINUOUS
 10
5.199920
 20
2.073280
  0
VERTEX
  8
0
  6
CONTINUOUS
 10
5.183640
 20
2.039840
  0
VERTEX
  8
0
  6
CONTINUOUS
 10
5.170440
 20
2.022240
  0
VERTEX
  8
0
  6
CONTINUOUS
 10
5.154600
 20
2.008160
  0
VERTEX
  8
0
  6
CONTINUOUS
 10
5.136120
 20
1.997600
  0
VERTEX
  8
0
  6
CONTINUOUS
 10
5.115000
 20
1.991000
  0
VERTEX
  8
0
  6
CONTINUOUS
 10
5.090800
 20
1.987480
  0
VERTEX
  8
0
  6
CONTINUOUS
 10
5.077600
 20
1.987040
  0
VERTEX
  8
0
  6
CONTINUOUS
 10
5.063520
 20
1.987920
  0
VERTEX
  8
0
  6
CONTINUOUS
 10
5.034480
 20
1.995400
  0
VERTEX
  8
0
  6
CONTINUOUS
 10
4.987400
 20
2.015200
  0
VERTEX
  8
0
  6
CONTINUOUS
 10
4.916560
 20
2.048200
  0
VERTEX
  8
0
  6
CONTINUOUS
 10
4.877400
 20
2.062280
  0
VERTEX
  8
0
  6
CONTINUOUS
 10
4.835600
 20
2.072400
  0
VERTEX
  8
0
  6
CONTINUOUS
 10
4.813600
 20
2.075480
  0
VERTEX
  8
0
  6
CONTINUOUS
 10
4.779280
 20
2.075920
  0
VERTEX
  8
0
  6
CONTINUOUS
 10
4.746720
 20
2.071520
  0
VERTEX
  8
0
  6
CONTINUOUS
 10
4.726480
 20
2.065800
  0
VERTEX
  8
0
  6
CONTINUOUS
 10
4.687760
 20
2.049520
  0
VERTEX
  8
0
  6
CONTINUOUS
 10
4.577320
 20
1.987040
  0
VERTEX
  8
0
  6
CONTINUOUS
 10
4.537720
 20
1.970760
  0
VERTEX
  8
0
  6
CONTINUOUS
 10
4.516600
 20
1.965040
  0
VERTEX
  8
0
  6
CONTINUOUS
 10
4.482720
 20
1.960640
  0
VERTEX
  8
0
  6
CONTINUOUS
 10
4.458960
 20
1.960640
  0
VERTEX
  8
0
  6
CONTINUOUS
 10
4.437400
 20
1.962840
  0
VERTEX
  8
0
  6
CONTINUOUS
 10
4.409680
 20
1.970760
  0
VERTEX
  8
0
  6
CONTINUOUS
 10
4.393840
 20
1.978240
  0
VERTEX
  8
0
  6
CONTINUOUS
 10
4.368320
 20
1.997600
  0
VERTEX
  8
0
  6
CONTINUOUS
 10
4.358200
 20
2.009040
  0
VERTEX
  8
0
  6
CONTINUOUS
 10
4.342800
 20
2.033680
  0
VERTEX
  8
0
  6
CONTINUOUS
 10
4.331800
 20
2.059200
  0
VERTEX
  8
0
  6
CONTINUOUS
 10
4.317720
 20
2.112440
  0
VERTEX
  8
0
  6
CONTINUOUS
 10
3.891360
 20
2.112440
  0
VERTEX
  8
0
  6
CONTINUOUS
 10
3.882120
 20
2.038960
  0
VERTEX
  8
0
  6
CONTINUOUS
 10
3.872440
 20
2.038080
  0
VERTEX
  8
0
  6
CONTINUOUS
 10
3.853960
 20
2.031480
  0
VERTEX
  8
0
  6
CONTINUOUS
 10
3.837680
 20
2.020480
  0
VERTEX
  8
0
  6
CONTINUOUS
 10
3.823160
 20
2.005960
  0
VERTEX
  8
0
  6
CONTINUOUS
 10
3.805560
 20
1.980000
  0
VERTEX
  8
0
  6
CONTINUOUS
 10
3.794560
 20
1.952280
  0
VERTEX
  8
0
  6
CONTINUOUS
 10
3.791040
 20
1.934680
  0
VERTEX
  8
0
  6
CONTINUOUS
 10
3.790600
 20
1.926320
  0
VERTEX
  8
0
  6
CONTINUOUS
 10
3.710080
 20
1.926320
  0
VERTEX
  8
0
  6
CONTINUOUS
 10
3.704360
 20
1.840960
  0
VERTEX
  8
0
  6
CONTINUOUS
 10
3.618120
 20
1.840960
  0
VERTEX
  8
0
  6
CONTINUOUS
 10
3.604920
 20
1.438800
  0
VERTEX
  8
0
  6
CONTINUOUS
 10
2.947560
 20
1.438800
  0
VERTEX
  8
0
  6
CONTINUOUS
 10
2.943600
 20
1.535160
  0
VERTEX
  8
0
  6
CONTINUOUS
 10
2.790920
 20
1.535160
  0
VERTEX
  8
0
  6
CONTINUOUS
 10
2.788720
 20
1.514040
  0
VERTEX
  8
0
  6
CONTINUOUS
 10
2.782560
 20
1.493800
  0
VERTEX
  8
0
  6
CONTINUOUS
 10
2.772440
 20
1.475320
  0
VERTEX
  8
0
  6
CONTINUOUS
 10
2.757920
 20
1.458160
  0
VERTEX
  8
0
  6
CONTINUOUS
 10
2.728880
 20
1.435720
  0
VERTEX
  8
0
  6
CONTINUOUS
 10
2.704680
 20
1.423400
  0
VERTEX
  8
0
  6
CONTINUOUS
 10
2.676960
 20
1.412400
  0
VERTEX
  8
0
  6
CONTINUOUS
 10
2.612280
 20
1.393040
  0
VERTEX
  8
0
  6
CONTINUOUS
 10
2.579280
 20
1.379840
  0
VERTEX
  8
0
  6
CONTINUOUS
 10
2.547600
 20
1.362680
  0
VERTEX
  8
0
  6
CONTINUOUS
 10
2.533080
 20
1.352560
  0
VERTEX
  8
0
  6
CONTINUOUS
 10
2.507120
 20
1.327920
  0
VERTEX
  8
0
  6
CONTINUOUS
 10
2.495680
 20
1.312960
  0
VERTEX
  8
0
  6
CONTINUOUS
 10
2.482040
 20
1.287880
  0
VERTEX
  8
0
  6
CONTINUOUS
 10
2.472360
 20
1.258840
  0
VERTEX
  8
0
  6
CONTINUOUS
 10
2.468400
 20
1.236840
  0
VERTEX
  8
0
  6
CONTINUOUS
 10
2.467080
 20
1.212640
  0
VERTEX
  8
0
  6
CONTINUOUS
 10
2.369400
 20
1.212640
  0
VERTEX
  8
0
  6
CONTINUOUS
 10
2.367200
 20
1.178760
  0
VERTEX
  8
0
  6
CONTINUOUS
 10
2.359280
 20
1.150160
  0
VERTEX
  8
0
  6
CONTINUOUS
 10
2.349600
 20
1.134320
  0
VERTEX
  8
0
  6
CONTINUOUS
 10
2.335520
 20
1.121560
  0
VERTEX
  8
0
  6
CONTINUOUS
 10
2.316160
 20
1.111880
  0
VERTEX
  8
0
  6
CONTINUOUS
 10
2.304280
 20
1.108360
  0
VERTEX
  8
0
  6
CONTINUOUS
 10
2.275680
 20
1.104400
  0
VERTEX
  8
0
  6
CONTINUOUS
 10
2.258520
 20
1.103960
  0
VERTEX
  8
0
  6
CONTINUOUS
 10
2.258520
 20
0.986040
  0
SEQEND
  8
0
  0
SOLID
  8
0
 62
    15
 10
4.148760
 20
6.673920
 11
4.895880
 21
6.674800
 12
4.108720
 22
6.599120
 13
4.855840
 23
6.599560
  0
POLYLINE
  8
0
  6
CONTINUOUS
 66
     1
 40
0.000000
 41
0.000000
  0
VERTEX
  8
0
  6
CONTINUOUS
 10
4.148760
 20
6.673920
  0
VERTEX
  8
0
  6
CONTINUOUS
 10
4.895880
 20
6.674800
  0
VERTEX
  8
0
  6
CONTINUOUS
 10
4.855840
 20
6.599560
  0
VERTEX
  8
0
  6
CONTINUOUS
 10
4.108720
 20
6.599120
  0
VERTEX
  8
0
  6
CONTINUOUS
 10
4.148760
 20
6.673920
  0
SEQEND
  8
0
  0
SOLID
  8
0
 62
    15
 10
3.209360
 20
8.390360
 11
3.956040
 21
8.390800
 12
3.291640
 22
8.381120
 13
4.038760
 23
8.381560
  0
POLYLINE
  8
0
  6
CONTINUOUS
 66
     1
 40
0.000000
 41
0.000000
  0
VERTEX
  8
0
  6
CONTINUOUS
 10
3.209360
 20
8.390360
  0
VERTEX
  8
0
  6
CONTINUOUS
 10
3.956040
 20
8.390800
  0
VERTEX
  8
0
  6
CONTINUOUS
 10
4.038760
 20
8.381560
  0
VERTEX
  8
0
  6
CONTINUOUS
 10
3.291640
 20
8.381120
  0
VERTEX
  8
0
  6
CONTINUOUS
 10
3.209360
 20
8.390360
  0
SEQEND
  8
0
  0
SOLID
  8
0
 62
    15
 10
3.291640
 20
8.381120
 11
4.038760
 21
8.381560
 12
3.364680
 22
8.365280
 13
4.111800
 23
8.365720
  0
POLYLINE
  8
0
  6
CONTINUOUS
 66
     1
 40
0.000000
 41
0.000000
  0
VERTEX
  8
0
  6
CONTINUOUS
 10
3.291640
 20
8.381120
  0
VERTEX
  8
0
  6
CONTINUOUS
 10
4.038760
 20
8.381560
  0
VERTEX
  8
0
  6
CONTINUOUS
 10
4.111800
 20
8.365720
  0
VERTEX
  8
0
  6
CONTINUOUS
 10
3.364680
 20
8.365280
  0
VERTEX
  8
0
  6
CONTINUOUS
 10
3.291640
 20
8.381120
  0
SEQEND
  8
0
  0
SOLID
  8
0
 62
    15
 10
3.364680
 20
8.365280
 11
4.111800
 21
8.365720
 12
3.430680
 22
8.341520
 13
4.177800
 23
8.341960
  0
POLYLINE
  8
0
  6
CONTINUOUS
 66
     1
 40
0.000000
 41
0.000000
  0
VERTEX
  8
0
  6
CONTINUOUS
 10
3.364680
 20
8.365280
  0
VERTEX
  8
0
  6
CONTINUOUS
 10
4.111800
 20
8.365720
  0
VERTEX
  8
0
  6
CONTINUOUS
 10
4.177800
 20
8.341960
  0
VERTEX
  8
0
  6
CONTINUOUS
 10
3.430680
 20
8.341520
  0
VERTEX
  8
0
  6
CONTINUOUS
 10
3.364680
 20
8.365280
  0
SEQEND
  8
0
  0
SOLID
  8
0
 62
    15
 10
3.430680
 20
8.341520
 11
4.177800
 21
8.341960
 12
3.490520
 22
8.309840
 13
4.237640
 23
8.310720
  0
POLYLINE
  8
0
  6
CONTINUOUS
 66
     1
 40
0.000000
 41
0.000000
  0
VERTEX
  8
0
  6
CONTINUOUS
 10
3.430680
 20
8.341520
  0
VERTEX
  8
0
  6
CONTINUOUS
 10
4.177800
 20
8.341960
  0
VERTEX
  8
0
  6
CONTINUOUS
 10
4.237640
 20
8.310720
  0
VERTEX
  8
0
  6
CONTINUOUS
 10
3.490520
 20
8.309840
  0
VERTEX
  8
0
  6
CONTINUOUS
 10
3.430680
 20
8.341520
  0
SEQEND
  8
0
  0
SOLID
  8
0
 62
    15
 10
3.490520
 20
8.309840
 11
4.237640
 21
8.310720
 12
3.545520
 22
8.270240
 13
4.292640
 23
8.270680
  0
POLYLINE
  8
0
  6
CONTINUOUS
 66
     1
 40
0.000000
 41
0.000000
  0
VERTEX
  8
0
  6
CONTINUOUS
 10
3.490520
 20
8.309840
  0
VERTEX
  8
0
  6
CONTINUOUS
 10
4.237640
 20
8.310720
  0
VERTEX
  8
0
  6
CONTINUOUS
 10
4.292640
 20
8.270680
  0
VERTEX
  8
0
  6
CONTINUOUS
 10
3.545520
 20
8.270240
  0
VERTEX
  8
0
  6
CONTINUOUS
 10
3.490520
 20
8.309840
  0
SEQEND
  8
0
  0
SOLID
  8
0
 62
    15
 10
3.545520
 20
8.270240
 11
4.292640
 21
8.270680
 12
3.597000
 22
8.221840
 13
4.344120
 23
8.222280
  0
POLYLINE
  8
0
  6
CONTINUOUS
 66
     1
 40
0.000000
 41
0.000000
  0
VERTEX
  8
0
  6
CONTINUOUS
 10
3.545520
 20
8.270240
  0
VERTEX
  8
0
  6
CONTINUOUS
 10
4.292640
 20
8.270680
  0
VERTEX
  8
0
  6
CONTINUOUS
 10
4.344120
 20
8.222280
  0
VERTEX
  8
0
  6
CONTINUOUS
 10
3.597000
 20
8.221840
  0
VERTEX
  8
0
  6
CONTINUOUS
 10
3.545520
 20
8.270240
  0
SEQEND
  8
0
  0
SOLID
  8
0
 62
    15
 10
3.597000
 20
8.221840
 11
4.344120
 21
8.222280
 12
3.646720
 22
8.163760
 13
4.393840
 23
8.164640
  0
POLYLINE
  8
0
  6
CONTINUOUS
 66
     1
 40
0.000000
 41
0.000000
  0
VERTEX
  8
0
  6
CONTINUOUS
 10
3.597000
 20
8.221840
  0
VERTEX
  8
0
  6
CONTINUOUS
 10
4.344120
 20
8.222280
  0
VERTEX
  8
0
  6
CONTINUOUS
 10
4.393840
 20
8.164640
  0
VERTEX
  8
0
  6
CONTINUOUS
 10
3.646720
 20
8.163760
  0
VERTEX
  8
0
  6
CONTINUOUS
 10
3.597000
 20
8.221840
  0
SEQEND
  8
0
  0
SOLID
  8
0
 62
    15
 10
3.646720
 20
8.163760
 11
4.393840
 21
8.164640
 12
3.692920
 22
8.104800
 13
4.440040
 23
8.105240
  0
POLYLINE
  8
0
  6
CONTINUOUS
 66
     1
 40
0.000000
 41
0.000000
  0
VERTEX
  8
0
  6
CONTINUOUS
 10
3.646720
 20
8.163760
  0
VERTEX
  8
0
  6
CONTINUOUS
 10
4.393840
 20
8.164640
  0
VERTEX
  8
0
  6
CONTINUOUS
 10
4.440040
 20
8.105240
  0
VERTEX
  8
0
  6
CONTINUOUS
 10
3.692920
 20
8.104800
  0
VERTEX
  8
0
  6
CONTINUOUS
 10
3.646720
 20
8.163760
  0
SEQEND
  8
0
  0
SOLID
  8
0
 62
    15
 10
3.692920
 20
8.104800
 11
4.440040
 21
8.105240
 12
3.734280
 22
8.052440
 13
4.481400
 23
8.052880
  0
POLYLINE
  8
0
  6
CONTINUOUS
 66
     1
 40
0.000000
 41
0.000000
  0
VERTEX
  8
0
  6
CONTINUOUS
 10
3.692920
 20
8.104800
  0
VERTEX
  8
0
  6
CONTINUOUS
 10
4.440040
 20
8.105240
  0
VERTEX
  8
0
  6
CONTINUOUS
 10
4.481400
 20
8.052880
  0
VERTEX
  8
0
  6
CONTINUOUS
 10
3.734280
 20
8.052440
  0
VERTEX
  8
0
  6
CONTINUOUS
 10
3.692920
 20
8.104800
  0
SEQEND
  8
0
  0
SOLID
  8
0
 62
    15
 10
3.734280
 20
8.052440
 11
4.481400
 21
8.052880
 12
3.773440
 22
8.007560
 13
4.520560
 23
8.008000
  0
POLYLINE
  8
0
  6
CONTINUOUS
 66
     1
 40
0.000000
 41
0.000000
  0
VERTEX
  8
0
  6
CONTINUOUS
 10
3.734280
 20
8.052440
  0
VERTEX
  8
0
  6
CONTINUOUS
 10
4.481400
 20
8.052880
  0
VERTEX
  8
0
  6
CONTINUOUS
 10
4.520560
 20
8.008000
  0
VERTEX
  8
0
  6
CONTINUOUS
 10
3.773440
 20
8.007560
  0
VERTEX
  8
0
  6
CONTINUOUS
 10
3.734280
 20
8.052440
  0
SEQEND
  8
0
  0
SOLID
  8
0
 62
    15
 10
3.773440
 20
8.007560
 11
4.520560
 21
8.008000
 12
3.813040
 22
7.969720
 13
4.560160
 23
7.970160
  0
POLYLINE
  8
0
  6
CONTINUOUS
 66
     1
 40
0.000000
 41
0.000000
  0
VERTEX
  8
0
  6
CONTINUOUS
 10
3.773440
 20
8.007560
  0
VERTEX
  8
0
  6
CONTINUOUS
 10
4.520560
 20
8.008000
  0
VERTEX
  8
0
  6
CONTINUOUS
 10
4.560160
 20
7.970160
  0
VERTEX
  8
0
  6
CONTINUOUS
 10
3.813040
 20
7.969720
  0
VERTEX
  8
0
  6
CONTINUOUS
 10
3.773440
 20
8.007560
  0
SEQEND
  8
0
  0
SOLID
  8
0
 62
    15
 10
3.813040
 20
7.969720
 11
4.560160
 21
7.970160
 12
3.855720
 22
7.939800
 13
4.602840
 23
7.940240
  0
POLYLINE
  8
0
  6
CONTINUOUS
 66
     1
 40
0.000000
 41
0.000000
  0
VERTEX
  8
0
  6
CONTINUOUS
 10
3.813040
 20
7.969720
  0
VERTEX
  8
0
  6
CONTINUOUS
 10
4.560160
 20
7.970160
  0
VERTEX
  8
0
  6
CONTINUOUS
 10
4.602840
 20
7.940240
  0
VERTEX
  8
0
  6
CONTINUOUS
 10
3.855720
 20
7.939800
  0
VERTEX
  8
0
  6
CONTINUOUS
 10
3.813040
 20
7.969720
  0
SEQEND
  8
0
  0
SOLID
  8
0
 62
    15
 10
3.855720
 20
7.939800
 11
4.602840
 21
7.940240
 12
3.903680
 22
7.917800
 13
4.650800
 23
7.918240
  0
POLYLINE
  8
0
  6
CONTINUOUS
 66
     1
 40
0.000000
 41
0.000000
  0
VERTEX
  8
0
  6
CONTINUOUS
 10
3.855720
 20
7.939800
  0
VERTEX
  8
0
  6
CONTINUOUS
 10
4.602840
 20
7.940240
  0
VERTEX
  8
0
  6
CONTINUOUS
 10
4.650800
 20
7.918240
  0
VERTEX
  8
0
  6
CONTINUOUS
 10
3.903680
 20
7.917800
  0
VERTEX
  8
0
  6
CONTINUOUS
 10
3.855720
 20
7.939800
  0
SEQEND
  8
0
  0
SOLID
  8
0
 62
    15
 10
3.903680
 20
7.917800
 11
4.650800
 21
7.918240
 12
3.960000
 22
7.904600
 13
4.707120
 23
7.905040
  0
POLYLINE
  8
0
  6
CONTINUOUS
 66
     1
 40
0.000000
 41
0.000000
  0
VERTEX
  8
0
  6
CONTINUOUS
 10
3.903680
 20
7.917800
  0
VERTEX
  8
0
  6
CONTINUOUS
 10
4.650800
 20
7.918240
  0
VERTEX
  8
0
  6
CONTINUOUS
 10
4.707120
 20
7.905040
  0
VERTEX
  8
0
  6
CONTINUOUS
 10
3.960000
 20
7.904600
  0
VERTEX
  8
0
  6
CONTINUOUS
 10
3.903680
 20
7.917800
  0
SEQEND
  8
0
  0
SOLID
  8
0
 62
    15
 10
3.960000
 20
7.904600
 11
4.707120
 21
7.905040
 12
4.026440
 22
7.900200
 13
4.773120
 23
7.900640
  0
POLYLINE
  8
0
  6
CONTINUOUS
 66
     1
 40
0.000000
 41
0.000000
  0
VERTEX
  8
0
  6
CONTINUOUS
 10
3.960000
 20
7.904600
  0
VERTEX
  8
0
  6
CONTINUOUS
 10
4.707120
 20
7.905040
  0
VERTEX
  8
0
  6
CONTINUOUS
 10
4.773120
 20
7.900640
  0
VERTEX
  8
0
  6
CONTINUOUS
 10
4.026440
 20
7.900200
  0
VERTEX
  8
0
  6
CONTINUOUS
 10
3.960000
 20
7.904600
  0
SEQEND
  8
0
  0
SOLID
  8
0
 62
    15
 10
4.026440
 20
7.900200
 11
4.773120
 21
7.900640
 12
4.026440
 22
7.820120
 13
4.773120
 23
7.820560
  0
POLYLINE
  8
0
  6
CONTINUOUS
 66
     1
 40
0.000000
 41
0.000000
  0
VERTEX
  8
0
  6
CONTINUOUS
 10
4.026440
 20
7.900200
  0
VERTEX
  8
0
  6
CONTINUOUS
 10
4.773120
 20
7.900640
  0
VERTEX
  8
0
  6
CONTINUOUS
 10
4.773120
 20
7.820560
  0
VERTEX
  8
0
  6
CONTINUOUS
 10
4.026440
 20
7.820120
  0
VERTEX
  8
0
  6
CONTINUOUS
 10
4.026440
 20
7.900200
  0
SEQEND
  8
0
  0
SOLID
  8
0
 62
    15
 10
4.026440
 20
7.820120
 11
4.773120
 21
7.820560
 12
4.062960
 22
7.810880
 13
4.809640
 23
7.811320
  0
POLYLINE
  8
0
  6
CONTINUOUS
 66
     1
 40
0.000000
 41
0.000000
  0
VERTEX
  8
0
  6
CONTINUOUS
 10
4.026440
 20
7.820120
  0
VERTEX
  8
0
  6
CONTINUOUS
 10
4.773120
 20
7.820560
  0
VERTEX
  8
0
  6
CONTINUOUS
 10
4.809640
 20
7.811320
  0
VERTEX
  8
0
  6
CONTINUOUS
 10
4.062960
 20
7.810880
  0
VERTEX
  8
0
  6
CONTINUOUS
 10
4.026440
 20
7.820120
  0
SEQEND
  8
0
  0
SOLID
  8
0
 62
    15
 10
4.062960
 20
7.810880
 11
4.809640
 21
7.811320
 12
4.091560
 22
7.796360
 13
4.838680
 23
7.796800
  0
POLYLINE
  8
0
  6
CONTINUOUS
 66
     1
 40
0.000000
 41
0.000000
  0
VERTEX
  8
0
  6
CONTINUOUS
 10
4.062960
 20
7.810880
  0
VERTEX
  8
0
  6
CONTINUOUS
 10
4.809640
 20
7.811320
  0
VERTEX
  8
0
  6
CONTINUOUS
 10
4.838680
 20
7.796800
  0
VERTEX
  8
0
  6
CONTINUOUS
 10
4.091560
 20
7.796360
  0
VERTEX
  8
0
  6
CONTINUOUS
 10
4.062960
 20
7.810880
  0
SEQEND
  8
0
  0
SOLID
  8
0
 62
    15
 10
4.091560
 20
7.796360
 11
4.838680
 21
7.796800
 12
4.112680
 22
7.777440
 13
4.859800
 23
7.778320
  0
POLYLINE
  8
0
  6
CONTINUOUS
 66
     1
 40
0.000000
 41
0.000000
  0
VERTEX
  8
0
  6
CONTINUOUS
 10
4.091560
 20
7.796360
  0
VERTEX
  8
0
  6
CONTINUOUS
 10
4.838680
 20
7.796800
  0
VERTEX
  8
0
  6
CONTINUOUS
 10
4.859800
 20
7.778320
  0
VERTEX
  8
0
  6
CONTINUOUS
 10
4.112680
 20
7.777440
  0
VERTEX
  8
0
  6
CONTINUOUS
 10
4.091560
 20
7.796360
  0
SEQEND
  8
0
  0
SOLID
  8
0
 62
    15
 10
4.112680
 20
7.777440
 11
4.859800
 21
7.778320
 12
4.128080
 22
7.755880
 13
4.875200
 23
7.756320
  0
POLYLINE
  8
0
  6
CONTINUOUS
 66
     1
 40
0.000000
 41
0.000000
  0
VERTEX
  8
0
  6
CONTINUOUS
 10
4.112680
 20
7.777440
  0
VERTEX
  8
0
  6
CONTINUOUS
 10
4.859800
 20
7.778320
  0
VERTEX
  8
0
  6
CONTINUOUS
 10
4.875200
 20
7.756320
  0
VERTEX
  8
0
  6
CONTINUOUS
 10
4.128080
 20
7.755880
  0
VERTEX
  8
0
  6
CONTINUOUS
 10
4.112680
 20
7.777440
  0
SEQEND
  8
0
  0
SOLID
  8
0
 62
    15
 10
4.128080
 20
7.755880
 11
4.875200
 21
7.756320
 12
4.144360
 22
7.706160
 13
4.891480
 23
7.706600
  0
POLYLINE
  8
0
  6
CONTINUOUS
 66
     1
 40
0.000000
 41
0.000000
  0
VERTEX
  8
0
  6
CONTINUOUS
 10
4.128080
 20
7.755880
  0
VERTEX
  8
0
  6
CONTINUOUS
 10
4.875200
 20
7.756320
  0
VERTEX
  8
0
  6
CONTINUOUS
 10
4.891480
 20
7.706600
  0
VERTEX
  8
0
  6
CONTINUOUS
 10
4.144360
 20
7.706160
  0
VERTEX
  8
0
  6
CONTINUOUS
 10
4.128080
 20
7.755880
  0
SEQEND
  8
0
  0
SOLID
  8
0
 62
    15
 10
4.144360
 20
7.706160
 11
4.891480
 21
7.706600
 12
4.147880
 22
7.654680
 13
4.895000
 23
7.655560
  0
POLYLINE
  8
0
  6
CONTINUOUS
 66
     1
 40
0.000000
 41
0.000000
  0
VERTEX
  8
0
  6
CONTINUOUS
 10
4.144360
 20
7.706160
  0
VERTEX
  8
0
  6
CONTINUOUS
 10
4.891480
 20
7.706600
  0
VERTEX
  8
0
  6
CONTINUOUS
 10
4.895000
 20
7.655560
  0
VERTEX
  8
0
  6
CONTINUOUS
 10
4.147880
 20
7.654680
  0
VERTEX
  8
0
  6
CONTINUOUS
 10
4.144360
 20
7.706160
  0
SEQEND
  8
0
  0
SOLID
  8
0
 62
    15
 10
4.147880
 20
7.654680
 11
4.895000
 21
7.655560
 12
4.230600
 22
7.644120
 13
4.977720
 23
7.644560
  0
POLYLINE
  8
0
  6
CONTINUOUS
 66
     1
 40
0.000000
 41
0.000000
  0
VERTEX
  8
0
  6
CONTINUOUS
 10
4.147880
 20
7.654680
  0
VERTEX
  8
0
  6
CONTINUOUS
 10
4.895000
 20
7.655560
  0
VERTEX
  8
0
  6
CONTINUOUS
 10
4.977720
 20
7.644560
  0
VERTEX
  8
0
  6
CONTINUOUS
 10
4.230600
 20
7.644120
  0
VERTEX
  8
0
  6
CONTINUOUS
 10
4.147880
 20
7.654680
  0
SEQEND
  8
0
  0
SOLID
  8
0
 62
    15
 10
4.230600
 20
7.644120
 11
4.977720
 21
7.644560
 12
4.230600
 22
7.249440
 13
4.977720
 23
7.249880
  0
POLYLINE
  8
0
  6
CONTINUOUS
 66
     1
 40
0.000000
 41
0.000000
  0
VERTEX
  8
0
  6
CONTINUOUS
 10
4.230600
 20
7.644120
  0
VERTEX
  8
0
  6
CONTINUOUS
 10
4.977720
 20
7.644560
  0
VERTEX
  8
0
  6
CONTINUOUS
 10
4.977720
 20
7.249880
  0
VERTEX
  8
0
  6
CONTINUOUS
 10
4.230600
 20
7.249440
  0
VERTEX
  8
0
  6
CONTINUOUS
 10
4.230600
 20
7.644120
  0
SEQEND
  8
0
  0
SOLID
  8
0
 62
    15
 10
4.230600
 20
7.249440
 11
4.977720
 21
7.249880
 12
4.180440
 22
7.230520
 13
4.927560
 23
7.230960
  0
POLYLINE
  8
0
  6
CONTINUOUS
 66
     1
 40
0.000000
 41
0.000000
  0
VERTEX
  8
0
  6
CONTINUOUS
 10
4.230600
 20
7.249440
  0
VERTEX
  8
0
  6
CONTINUOUS
 10
4.977720
 20
7.249880
  0
VERTEX
  8
0
  6
CONTINUOUS
 10
4.927560
 20
7.230960
  0
VERTEX
  8
0
  6
CONTINUOUS
 10
4.180440
 20
7.230520
  0
VERTEX
  8
0
  6
CONTINUOUS
 10
4.230600
 20
7.249440
  0
SEQEND
  8
0
  0
SOLID
  8
0
 62
    15
 10
4.180440
 20
7.230520
 11
4.927560
 21
7.230960
 12
4.145240
 22
7.203680
 13
4.892360
 23
7.204560
  0
POLYLINE
  8
0
  6
CONTINUOUS
 66
     1
 40
0.000000
 41
0.000000
  0
VERTEX
  8
0
  6
CONTINUOUS
 10
4.180440
 20
7.230520
  0
VERTEX
  8
0
  6
CONTINUOUS
 10
4.927560
 20
7.230960
  0
VERTEX
  8
0
  6
CONTINUOUS
 10
4.892360
 20
7.204560
  0
VERTEX
  8
0
  6
CONTINUOUS
 10
4.145240
 20
7.203680
  0
VERTEX
  8
0
  6
CONTINUOUS
 10
4.180440
 20
7.230520
  0
SEQEND
  8
0
  0
SOLID
  8
0
 62
    15
 10
4.145240
 20
7.203680
 11
4.892360
 21
7.204560
 12
4.124120
 22
7.167160
 13
4.871240
 23
7.167600
  0
POLYLINE
  8
0
  6
CONTINUOUS
 66
     1
 40
0.000000
 41
0.000000
  0
VERTEX
  8
0
  6
CONTINUOUS
 10
4.145240
 20
7.203680
  0
VERTEX
  8
0
  6
CONTINUOUS
 10
4.892360
 20
7.204560
  0
VERTEX
  8
0
  6
CONTINUOUS
 10
4.871240
 20
7.167600
  0
VERTEX
  8
0
  6
CONTINUOUS
 10
4.124120
 20
7.167160
  0
VERTEX
  8
0
  6
CONTINUOUS
 10
4.145240
 20
7.203680
  0
SEQEND
  8
0
  0
SOLID
  8
0
 62
    15
 10
4.124120
 20
7.167160
 11
4.871240
 21
7.167600
 12
4.117520
 22
7.118760
 13
4.864640
 23
7.119200
  0
POLYLINE
  8
0
  6
CONTINUOUS
 66
     1
 40
0.000000
 41
0.000000
  0
VERTEX
  8
0
  6
CONTINUOUS
 10
4.124120
 20
7.167160
  0
VERTEX
  8
0
  6
CONTINUOUS
 10
4.871240
 20
7.167600
  0
VERTEX
  8
0
  6
CONTINUOUS
 10
4.864640
 20
7.119200
  0
VERTEX
  8
0
  6
CONTINUOUS
 10
4.117520
 20
7.118760
  0
VERTEX
  8
0
  6
CONTINUOUS
 10
4.124120
 20
7.167160
  0
SEQEND
  8
0
  0
SOLID
  8
0
 62
    15
 10
4.117520
 20
7.118760
 11
4.864640
 21
7.119200
 12
4.121480
 22
7.090600
 13
4.868600
 23
7.091040
  0
POLYLINE
  8
0
  6
CONTINUOUS
 66
     1
 40
0.000000
 41
0.000000
  0
VERTEX
  8
0
  6
CONTINUOUS
 10
4.117520
 20
7.118760
  0
VERTEX
  8
0
  6
CONTINUOUS
 10
4.864640
 20
7.119200
  0
VERTEX
  8
0
  6
CONTINUOUS
 10
4.868600
 20
7.091040
  0
VERTEX
  8
0
  6
CONTINUOUS
 10
4.121480
 20
7.090600
  0
VERTEX
  8
0
  6
CONTINUOUS
 10
4.117520
 20
7.118760
  0
SEQEND
  8
0
  0
SOLID
  8
0
 62
    15
 10
4.121480
 20
7.090600
 11
4.868600
 21
7.091040
 12
4.131600
 22
7.060680
 13
4.878720
 23
7.061120
  0
POLYLINE
  8
0
  6
CONTINUOUS
 66
     1
 40
0.000000
 41
0.000000
  0
VERTEX
  8
0
  6
CONTINUOUS
 10
4.121480
 20
7.090600
  0
VERTEX
  8
0
  6
CONTINUOUS
 10
4.868600
 20
7.091040
  0
VERTEX
  8
0
  6
CONTINUOUS
 10
4.878720
 20
7.061120
  0
VERTEX
  8
0
  6
CONTINUOUS
 10
4.131600
 20
7.060680
  0
VERTEX
  8
0
  6
CONTINUOUS
 10
4.121480
 20
7.090600
  0
SEQEND
  8
0
  0
SOLID
  8
0
 62
    15
 10
4.131600
 20
7.060680
 11
4.878720
 21
7.061120
 12
4.145680
 22
7.028560
 13
4.892800
 23
7.029000
  0
POLYLINE
  8
0
  6
CONTINUOUS
 66
     1
 40
0.000000
 41
0.000000
  0
VERTEX
  8
0
  6
CONTINUOUS
 10
4.131600
 20
7.060680
  0
VERTEX
  8
0
  6
CONTINUOUS
 10
4.878720
 20
7.061120
  0
VERTEX
  8
0
  6
CONTINUOUS
 10
4.892800
 20
7.029000
  0
VERTEX
  8
0
  6
CONTINUOUS
 10
4.145680
 20
7.028560
  0
VERTEX
  8
0
  6
CONTINUOUS
 10
4.131600
 20
7.060680
  0
SEQEND
  8
0
  0
SOLID
  8
0
 62
    15
 10
4.145680
 20
7.028560
 11
4.892800
 21
7.029000
 12
4.161960
 22
6.994680
 13
4.909080
 23
6.995120
  0
POLYLINE
  8
0
  6
CONTINUOUS
 66
     1
 40
0.000000
 41
0.000000
  0
VERTEX
  8
0
  6
CONTINUOUS
 10
4.145680
 20
7.028560
  0
VERTEX
  8
0
  6
CONTINUOUS
 10
4.892800
 20
7.029000
  0
VERTEX
  8
0
  6
CONTINUOUS
 10
4.909080
 20
6.995120
  0
VERTEX
  8
0
  6
CONTINUOUS
 10
4.161960
 20
6.994680
  0
VERTEX
  8
0
  6
CONTINUOUS
 10
4.145680
 20
7.028560
  0
SEQEND
  8
0
  0
SOLID
  8
0
 62
    15
 10
4.161960
 20
6.994680
 11
4.909080
 21
6.995120
 12
4.192760
 22
6.919000
 13
4.939880
 23
6.919440
  0
POLYLINE
  8
0
  6
CONTINUOUS
 66
     1
 40
0.000000
 41
0.000000
  0
VERTEX
  8
0
  6
CONTINUOUS
 10
4.161960
 20
6.994680
  0
VERTEX
  8
0
  6
CONTINUOUS
 10
4.909080
 20
6.995120
  0
VERTEX
  8
0
  6
CONTINUOUS
 10
4.939880
 20
6.919440
  0
VERTEX
  8
0
  6
CONTINUOUS
 10
4.192760
 20
6.919000
  0
VERTEX
  8
0
  6
CONTINUOUS
 10
4.161960
 20
6.994680
  0
SEQEND
  8
0
  0
SOLID
  8
0
 62
    15
 10
4.192760
 20
6.919000
 11
4.939880
 21
6.919440
 12
4.202880
 22
6.877200
 13
4.950000
 23
6.877640
  0
POLYLINE
  8
0
  6
CONTINUOUS
 66
     1
 40
0.000000
 41
0.000000
  0
VERTEX
  8
0
  6
CONTINUOUS
 10
4.192760
 20
6.919000
  0
VERTEX
  8
0
  6
CONTINUOUS
 10
4.939880
 20
6.919440
  0
VERTEX
  8
0
  6
CONTINUOUS
 10
4.950000
 20
6.877640
  0
VERTEX
  8
0
  6
CONTINUOUS
 10
4.202880
 20
6.877200
  0
VERTEX
  8
0
  6
CONTINUOUS
 10
4.192760
 20
6.919000
  0
SEQEND
  8
0
  0
SOLID
  8
0
 62
    15
 10
4.202880
 20
6.877200
 11
4.950000
 21
6.877640
 12
4.206840
 22
6.832320
 13
4.953960
 23
6.832760
  0
POLYLINE
  8
0
  6
CONTINUOUS
 66
     1
 40
0.000000
 41
0.000000
  0
VERTEX
  8
0
  6
CONTINUOUS
 10
4.202880
 20
6.877200
  0
VERTEX
  8
0
  6
CONTINUOUS
 10
4.950000
 20
6.877640
  0
VERTEX
  8
0
  6
CONTINUOUS
 10
4.953960
 20
6.832760
  0
VERTEX
  8
0
  6
CONTINUOUS
 10
4.206840
 20
6.832320
  0
VERTEX
  8
0
  6
CONTINUOUS
 10
4.202880
 20
6.877200
  0
SEQEND
  8
0
  0
SOLID
  8
0
 62
    15
 10
4.206840
 20
6.832320
 11
4.953960
 21
6.832760
 12
4.202000
 22
6.788320
 13
4.948680
 23
6.788760
  0
POLYLINE
  8
0
  6
CONTINUOUS
 66
     1
 40
0.000000
 41
0.000000
  0
VERTEX
  8
0
  6
CONTINUOUS
 10
4.206840
 20
6.832320
  0
VERTEX
  8
0
  6
CONTINUOUS
 10
4.953960
 20
6.832760
  0
VERTEX
  8
0
  6
CONTINUOUS
 10
4.948680
 20
6.788760
  0
VERTEX
  8
0
  6
CONTINUOUS
 10
4.202000
 20
6.788320
  0
VERTEX
  8
0
  6
CONTINUOUS
 10
4.206840
 20
6.832320
  0
SEQEND
  8
0
  0
SOLID
  8
0
 62
    15
 10
4.202000
 20
6.788320
 11
4.948680
 21
6.788760
 12
4.188800
 22
6.747840
 13
4.935920
 23
6.748280
  0
POLYLINE
  8
0
  6
CONTINUOUS
 66
     1
 40
0.000000
 41
0.000000
  0
VERTEX
  8
0
  6
CONTINUOUS
 10
4.202000
 20
6.788320
  0
VERTEX
  8
0
  6
CONTINUOUS
 10
4.948680
 20
6.788760
  0
VERTEX
  8
0
  6
CONTINUOUS
 10
4.935920
 20
6.748280
  0
VERTEX
  8
0
  6
CONTINUOUS
 10
4.188800
 20
6.747840
  0
VERTEX
  8
0
  6
CONTINUOUS
 10
4.202000
 20
6.788320
  0
SEQEND
  8
0
  0
SOLID
  8
0
 62
    15
 10
4.188800
 20
6.747840
 11
4.935920
 21
6.748280
 12
4.170320
 22
6.710440
 13
4.917000
 23
6.710880
  0
POLYLINE
  8
0
  6
CONTINUOUS
 66
     1
 40
0.000000
 41
0.000000
  0
VERTEX
  8
0
  6
CONTINUOUS
 10
4.188800
 20
6.747840
  0
VERTEX
  8
0
  6
CONTINUOUS
 10
4.935920
 20
6.748280
  0
VERTEX
  8
0
  6
CONTINUOUS
 10
4.917000
 20
6.710880
  0
VERTEX
  8
0
  6
CONTINUOUS
 10
4.170320
 20
6.710440
  0
VERTEX
  8
0
  6
CONTINUOUS
 10
4.188800
 20
6.747840
  0
SEQEND
  8
0
  0
SOLID
  8
0
 62
    15
 10
4.170320
 20
6.710440
 11
4.917000
 21
6.710880
 12
4.159760
 22
6.692400
 13
4.906880
 23
6.692840
  0
POLYLINE
  8
0
  6
CONTINUOUS
 66
     1
 40
0.000000
 41
0.000000
  0
VERTEX
  8
0
  6
CONTINUOUS
 10
4.170320
 20
6.710440
  0
VERTEX
  8
0
  6
CONTINUOUS
 10
4.917000
 20
6.710880
  0
VERTEX
  8
0
  6
CONTINUOUS
 10
4.906880
 20
6.692840
  0
VERTEX
  8
0
  6
CONTINUOUS
 10
4.159760
 20
6.692400
  0
VERTEX
  8
0
  6
CONTINUOUS
 10
4.170320
 20
6.710440
  0
SEQEND
  8
0
  0
SOLID
  8
0
 62
    15
 10
4.159760
 20
6.692400
 11
4.906880
 21
6.692840
 12
4.148760
 22
6.673920
 13
4.895880
 23
6.674800
  0
POLYLINE
  8
0
  6
CONTINUOUS
 66
     1
 40
0.000000
 41
0.000000
  0
VERTEX
  8
0
  6
CONTINUOUS
 10
4.159760
 20
6.692400
  0
VERTEX
  8
0
  6
CONTINUOUS
 10
4.906880
 20
6.692840
  0
VERTEX
  8
0
  6
CONTINUOUS
 10
4.895880
 20
6.674800
  0
VERTEX
  8
0
  6
CONTINUOUS
 10
4.148760
 20
6.673920
  0
VERTEX
  8
0
  6
CONTINUOUS
 10
4.159760
 20
6.692400
  0
SEQEND
  8
0
  0
SOLID
  8
0
 62
    15
 10
3.116520
 20
8.392560
 11
3.863640
 21
8.393000
 12
3.209360
 22
8.390360
 13
3.956040
 23
8.390800
  0
POLYLINE
  8
0
  6
CONTINUOUS
 66
     1
 40
0.000000
 41
0.000000
  0
VERTEX
  8
0
  6
CONTINUOUS
 10
3.116520
 20
8.392560
  0
VERTEX
  8
0
  6
CONTINUOUS
 10
3.863640
 20
8.393000
  0
VERTEX
  8
0
  6
CONTINUOUS
 10
3.956040
 20
8.390800
  0
VERTEX
  8
0
  6
CONTINUOUS
 10
3.209360
 20
8.390360
  0
VERTEX
  8
0
  6
CONTINUOUS
 10
3.116520
 20
8.392560
  0
SEQEND
  8
0
  0
SOLID
  8
0
 62
    15
 10
4.108720
 20
6.599120
 11
4.855840
 21
6.599560
 12
4.095960
 22
6.557760
 13
4.843080
 23
6.558200
  0
POLYLINE
  8
0
  6
CONTINUOUS
 66
     1
 40
0.000000
 41
0.000000
  0
VERTEX
  8
0
  6
CONTINUOUS
 10
4.108720
 20
6.599120
  0
VERTEX
  8
0
  6
CONTINUOUS
 10
4.855840
 20
6.599560
  0
VERTEX
  8
0
  6
CONTINUOUS
 10
4.843080
 20
6.558200
  0
VERTEX
  8
0
  6
CONTINUOUS
 10
4.095960
 20
6.557760
  0
VERTEX
  8
0
  6
CONTINUOUS
 10
4.108720
 20
6.599120
  0
SEQEND
  8
0
  0
SOLID
  8
0
 62
    15
 10
4.095960
 20
6.557760
 11
4.843080
 21
6.558200
 12
4.090680
 22
6.512000
 13
4.837800
 23
6.512440
  0
POLYLINE
  8
0
  6
CONTINUOUS
 66
     1
 40
0.000000
 41
0.000000
  0
VERTEX
  8
0
  6
CONTINUOUS
 10
4.095960
 20
6.557760
  0
VERTEX
  8
0
  6
CONTINUOUS
 10
4.843080
 20
6.558200
  0
VERTEX
  8
0
  6
CONTINUOUS
 10
4.837800
 20
6.512440
  0
VERTEX
  8
0
  6
CONTINUOUS
 10
4.090680
 20
6.512000
  0
VERTEX
  8
0
  6
CONTINUOUS
 10
4.095960
 20
6.557760
  0
SEQEND
  8
0
  0
SOLID
  8
0
 62
    15
 10
4.090680
 20
6.512000
 11
4.837800
 21
6.512440
 12
4.095520
 22
6.468880
 13
4.842640
 23
6.469320
  0
POLYLINE
  8
0
  6
CONTINUOUS
 66
     1
 40
0.000000
 41
0.000000
  0
VERTEX
  8
0
  6
CONTINUOUS
 10
4.090680
 20
6.512000
  0
VERTEX
  8
0
  6
CONTINUOUS
 10
4.837800
 20
6.512440
  0
VERTEX
  8
0
  6
CONTINUOUS
 10
4.842640
 20
6.469320
  0
VERTEX
  8
0
  6
CONTINUOUS
 10
4.095520
 20
6.468880
  0
VERTEX
  8
0
  6
CONTINUOUS
 10
4.090680
 20
6.512000
  0
SEQEND
  8
0
  0
SOLID
  8
0
 62
    15
 10
4.095520
 20
6.468880
 11
4.842640
 21
6.469320
 12
4.108720
 22
6.435000
 13
4.855840
 23
6.435440
  0
POLYLINE
  8
0
  6
CONTINUOUS
 66
     1
 40
0.000000
 41
0.000000
  0
VERTEX
  8
0
  6
CONTINUOUS
 10
4.095520
 20
6.468880
  0
VERTEX
  8
0
  6
CONTINUOUS
 10
4.842640
 20
6.469320
  0
VERTEX
  8
0
  6
CONTINUOUS
 10
4.855840
 20
6.435440
  0
VERTEX
  8
0
  6
CONTINUOUS
 10
4.108720
 20
6.435000
  0
VERTEX
  8
0
  6
CONTINUOUS
 10
4.095520
 20
6.468880
  0
SEQEND
  8
0
  0
SOLID
  8
0
 62
    15
 10
4.108720
 20
6.435000
 11
4.855840
 21
6.435440
 12
4.128520
 22
6.409480
 13
4.875640
 23
6.409920
  0
POLYLINE
  8
0
  6
CONTINUOUS
 66
     1
 40
0.000000
 41
0.000000
  0
VERTEX
  8
0
  6
CONTINUOUS
 10
4.108720
 20
6.435000
  0
VERTEX
  8
0
  6
CONTINUOUS
 10
4.855840
 20
6.435440
  0
VERTEX
  8
0
  6
CONTINUOUS
 10
4.875640
 20
6.409920
  0
VERTEX
  8
0
  6
CONTINUOUS
 10
4.128520
 20
6.409480
  0
VERTEX
  8
0
  6
CONTINUOUS
 10
4.108720
 20
6.435000
  0
SEQEND
  8
0
  0
SOLID
  8
0
 62
    15
 10
4.128520
 20
6.409480
 11
4.875640
 21
6.409920
 12
4.151840
 22
6.391000
 13
4.898960
 23
6.391440
  0
POLYLINE
  8
0
  6
CONTINUOUS
 66
     1
 40
0.000000
 41
0.000000
  0
VERTEX
  8
0
  6
CONTINUOUS
 10
4.128520
 20
6.409480
  0
VERTEX
  8
0
  6
CONTINUOUS
 10
4.875640
 20
6.409920
  0
VERTEX
  8
0
  6
CONTINUOUS
 10
4.898960
 20
6.391440
  0
VERTEX
  8
0
  6
CONTINUOUS
 10
4.151840
 20
6.391000
  0
VERTEX
  8
0
  6
CONTINUOUS
 10
4.128520
 20
6.409480
  0
SEQEND
  8
0
  0
SOLID
  8
0
 62
    15
 10
4.151840
 20
6.391000
 11
4.898960
 21
6.391440
 12
4.202000
 22
6.369000
 13
4.949120
 23
6.369440
  0
POLYLINE
  8
0
  6
CONTINUOUS
 66
     1
 40
0.000000
 41
0.000000
  0
VERTEX
  8
0
  6
CONTINUOUS
 10
4.151840
 20
6.391000
  0
VERTEX
  8
0
  6
CONTINUOUS
 10
4.898960
 20
6.391440
  0
VERTEX
  8
0
  6
CONTINUOUS
 10
4.949120
 20
6.369440
  0
VERTEX
  8
0
  6
CONTINUOUS
 10
4.202000
 20
6.369000
  0
VERTEX
  8
0
  6
CONTINUOUS
 10
4.151840
 20
6.391000
  0
SEQEND
  8
0
  0
SOLID
  8
0
 62
    15
 10
4.202000
 20
6.369000
 11
4.949120
 21
6.369440
 12
4.224880
 22
6.363280
 13
4.972000
 23
6.363720
  0
POLYLINE
  8
0
  6
CONTINUOUS
 66
     1
 40
0.000000
 41
0.000000
  0
VERTEX
  8
0
  6
CONTINUOUS
 10
4.202000
 20
6.369000
  0
VERTEX
  8
0
  6
CONTINUOUS
 10
4.949120
 20
6.369440
  0
VERTEX
  8
0
  6
CONTINUOUS
 10
4.972000
 20
6.363720
  0
VERTEX
  8
0
  6
CONTINUOUS
 10
4.224880
 20
6.363280
  0
VERTEX
  8
0
  6
CONTINUOUS
 10
4.202000
 20
6.369000
  0
SEQEND
  8
0
  0
SOLID
  8
0
 62
    15
 10
4.224880
 20
6.363280
 11
4.972000
 21
6.363720
 12
4.234560
 22
6.360640
 13
4.981680
 23
6.361520
  0
POLYLINE
  8
0
  6
CONTINUOUS
 66
     1
 40
0.000000
 41
0.000000
  0
VERTEX
  8
0
  6
CONTINUOUS
 10
4.224880
 20
6.363280
  0
VERTEX
  8
0
  6
CONTINUOUS
 10
4.972000
 20
6.363720
  0
VERTEX
  8
0
  6
CONTINUOUS
 10
4.981680
 20
6.361520
  0
VERTEX
  8
0
  6
CONTINUOUS
 10
4.234560
 20
6.360640
  0
VERTEX
  8
0
  6
CONTINUOUS
 10
4.224880
 20
6.363280
  0
SEQEND
  8
0
  0
SOLID
  8
0
 62
    15
 10
4.234560
 20
6.360640
 11
4.981680
 21
6.361520
 12
4.242920
 22
6.358880
 13
4.990040
 23
6.359320
  0
POLYLINE
  8
0
  6
CONTINUOUS
 66
     1
 40
0.000000
 41
0.000000
  0
VERTEX
  8
0
  6
CONTINUOUS
 10
4.234560
 20
6.360640
  0
VERTEX
  8
0
  6
CONTINUOUS
 10
4.981680
 20
6.361520
  0
VERTEX
  8
0
  6
CONTINUOUS
 10
4.990040
 20
6.359320
  0
VERTEX
  8
0
  6
CONTINUOUS
 10
4.242920
 20
6.358880
  0
VERTEX
  8
0
  6
CONTINUOUS
 10
4.234560
 20
6.360640
  0
SEQEND
  8
0
  0
SOLID
  8
0
 62
    15
 10
4.242920
 20
6.358880
 11
4.990040
 21
6.359320
 12
4.242920
 22
5.932520
 13
4.990040
 23
5.932960
  0
POLYLINE
  8
0
  6
CONTINUOUS
 66
     1
 40
0.000000
 41
0.000000
  0
VERTEX
  8
0
  6
CONTINUOUS
 10
4.242920
 20
6.358880
  0
VERTEX
  8
0
  6
CONTINUOUS
 10
4.990040
 20
6.359320
  0
VERTEX
  8
0
  6
CONTINUOUS
 10
4.990040
 20
5.932960
  0
VERTEX
  8
0
  6
CONTINUOUS
 10
4.242920
 20
5.932520
  0
VERTEX
  8
0
  6
CONTINUOUS
 10
4.242920
 20
6.358880
  0
SEQEND
  8
0
  0
SOLID
  8
0
 62
    15
 10
4.242920
 20
5.932520
 11
4.990040
 21
5.932960
 12
4.169440
 22
5.923280
 13
4.916560
 23
5.923720
  0
POLYLINE
  8
0
  6
CONTINUOUS
 66
     1
 40
0.000000
 41
0.000000
  0
VERTEX
  8
0
  6
CONTINUOUS
 10
4.242920
 20
5.932520
  0
VERTEX
  8
0
  6
CONTINUOUS
 10
4.990040
 20
5.932960
  0
VERTEX
  8
0
  6
CONTINUOUS
 10
4.916560
 20
5.923720
  0
VERTEX
  8
0
  6
CONTINUOUS
 10
4.169440
 20
5.923280
  0
VERTEX
  8
0
  6
CONTINUOUS
 10
4.242920
 20
5.932520
  0
SEQEND
  8
0
  0
SOLID
  8
0
 62
    15
 10
4.169440
 20
5.923280
 11
4.916560
 21
5.923720
 12
4.165920
 22
5.904360
 13
4.913040
 23
5.904800
  0
POLYLINE
  8
0
  6
CONTINUOUS
 66
     1
 40
0.000000
 41
0.000000
  0
VERTEX
  8
0
  6
CONTINUOUS
 10
4.169440
 20
5.923280
  0
VERTEX
  8
0
  6
CONTINUOUS
 10
4.916560
 20
5.923720
  0
VERTEX
  8
0
  6
CONTINUOUS
 10
4.913040
 20
5.904800
  0
VERTEX
  8
0
  6
CONTINUOUS
 10
4.165920
 20
5.904360
  0
VERTEX
  8
0
  6
CONTINUOUS
 10
4.169440
 20
5.923280
  0
SEQEND
  8
0
  0
SOLID
  8
0
 62
    15
 10
4.165920
 20
5.904360
 11
4.913040
 21
5.904800
 12
4.157120
 22
5.886760
 13
4.904240
 23
5.887200
  0
POLYLINE
  8
0
  6
CONTINUOUS
 66
     1
 40
0.000000
 41
0.000000
  0
VERTEX
  8
0
  6
CONTINUOUS
 10
4.165920
 20
5.904360
  0
VERTEX
  8
0
  6
CONTINUOUS
 10
4.913040
 20
5.904800
  0
VERTEX
  8
0
  6
CONTINUOUS
 10
4.904240
 20
5.887200
  0
VERTEX
  8
0
  6
CONTINUOUS
 10
4.157120
 20
5.886760
  0
VERTEX
  8
0
  6
CONTINUOUS
 10
4.165920
 20
5.904360
  0
SEQEND
  8
0
  0
SOLID
  8
0
 62
    15
 10
4.157120
 20
5.886760
 11
4.904240
 21
5.887200
 12
4.128520
 22
5.857720
 13
4.875640
 23
5.858160
  0
POLYLINE
  8
0
  6
CONTINUOUS
 66
     1
 40
0.000000
 41
0.000000
  0
VERTEX
  8
0
  6
CONTINUOUS
 10
4.157120
 20
5.886760
  0
VERTEX
  8
0
  6
CONTINUOUS
 10
4.904240
 20
5.887200
  0
VERTEX
  8
0
  6
CONTINUOUS
 10
4.875640
 20
5.858160
  0
VERTEX
  8
0
  6
CONTINUOUS
 10
4.128520
 20
5.857720
  0
VERTEX
  8
0
  6
CONTINUOUS
 10
4.157120
 20
5.886760
  0
SEQEND
  8
0
  0
SOLID
  8
0
 62
    15
 10
4.128520
 20
5.857720
 11
4.875640
 21
5.858160
 12
4.092000
 22
5.838800
 13
4.839120
 23
5.839240
  0
POLYLINE
  8
0
  6
CONTINUOUS
 66
     1
 40
0.000000
 41
0.000000
  0
VERTEX
  8
0
  6
CONTINUOUS
 10
4.128520
 20
5.857720
  0
VERTEX
  8
0
  6
CONTINUOUS
 10
4.875640
 20
5.858160
  0
VERTEX
  8
0
  6
CONTINUOUS
 10
4.839120
 20
5.839240
  0
VERTEX
  8
0
  6
CONTINUOUS
 10
4.092000
 20
5.838800
  0
VERTEX
  8
0
  6
CONTINUOUS
 10
4.128520
 20
5.857720
  0
SEQEND
  8
0
  0
SOLID
  8
0
 62
    15
 10
4.092000
 20
5.838800
 11
4.839120
 21
5.839240
 12
4.056800
 22
5.831760
 13
4.803920
 23
5.832200
  0
POLYLINE
  8
0
  6
CONTINUOUS
 66
     1
 40
0.000000
 41
0.000000
  0
VERTEX
  8
0
  6
CONTINUOUS
 10
4.092000
 20
5.838800
  0
VERTEX
  8
0
  6
CONTINUOUS
 10
4.839120
 20
5.839240
  0
VERTEX
  8
0
  6
CONTINUOUS
 10
4.803920
 20
5.832200
  0
VERTEX
  8
0
  6
CONTINUOUS
 10
4.056800
 20
5.831760
  0
VERTEX
  8
0
  6
CONTINUOUS
 10
4.092000
 20
5.838800
  0
SEQEND
  8
0
  0
SOLID
  8
0
 62
    15
 10
3.569280
 20
5.646080
 11
4.316400
 21
5.646520
 12
3.569280
 22
4.988720
 13
4.316400
 23
4.989160
  0
POLYLINE
  8
0
  6
CONTINUOUS
 66
     1
 40
0.000000
 41
0.000000
  0
VERTEX
  8
0
  6
CONTINUOUS
 10
3.569280
 20
5.646080
  0
VERTEX
  8
0
  6
CONTINUOUS
 10
4.316400
 20
5.646520
  0
VERTEX
  8
0
  6
CONTINUOUS
 10
4.316400
 20
4.989160
  0
VERTEX
  8
0
  6
CONTINUOUS
 10
3.569280
 20
4.988720
  0
VERTEX
  8
0
  6
CONTINUOUS
 10
3.569280
 20
5.646080
  0
SEQEND
  8
0
  0
SOLID
  8
0
 62
    15
 10
3.971440
 20
5.659720
 11
4.718560
 21
5.660160
 12
3.569280
 22
5.646080
 13
4.316400
 23
5.646520
  0
POLYLINE
  8
0
  6
CONTINUOUS
 66
     1
 40
0.000000
 41
0.000000
  0
VERTEX
  8
0
  6
CONTINUOUS
 10
3.971440
 20
5.659720
  0
VERTEX
  8
0
  6
CONTINUOUS
 10
4.718560
 20
5.660160
  0
VERTEX
  8
0
  6
CONTINUOUS
 10
4.316400
 20
5.646520
  0
VERTEX
  8
0
  6
CONTINUOUS
 10
3.569280
 20
5.646080
  0
VERTEX
  8
0
  6
CONTINUOUS
 10
3.971440
 20
5.659720
  0
SEQEND
  8
0
  0
SOLID
  8
0
 62
    15
 10
3.971440
 20
5.745520
 11
4.718560
 21
5.746400
 12
3.971440
 22
5.659720
 13
4.718560
 23
5.660160
  0
POLYLINE
  8
0
  6
CONTINUOUS
 66
     1
 40
0.000000
 41
0.000000
  0
VERTEX
  8
0
  6
CONTINUOUS
 10
3.971440
 20
5.745520
  0
VERTEX
  8
0
  6
CONTINUOUS
 10
4.718560
 20
5.746400
  0
VERTEX
  8
0
  6
CONTINUOUS
 10
4.718560
 20
5.660160
  0
VERTEX
  8
0
  6
CONTINUOUS
 10
3.971440
 20
5.659720
  0
VERTEX
  8
0
  6
CONTINUOUS
 10
3.971440
 20
5.745520
  0
SEQEND
  8
0
  0
SOLID
  8
0
 62
    15
 10
4.056800
 20
5.751240
 11
4.803920
 21
5.751680
 12
3.971440
 22
5.745520
 13
4.718560
 23
5.746400
  0
POLYLINE
  8
0
  6
CONTINUOUS
 66
     1
 40
0.000000
 41
0.000000
  0
VERTEX
  8
0
  6
CONTINUOUS
 10
4.056800
 20
5.751240
  0
VERTEX
  8
0
  6
CONTINUOUS
 10
4.803920
 20
5.751680
  0
VERTEX
  8
0
  6
CONTINUOUS
 10
4.718560
 20
5.746400
  0
VERTEX
  8
0
  6
CONTINUOUS
 10
3.971440
 20
5.745520
  0
VERTEX
  8
0
  6
CONTINUOUS
 10
4.056800
 20
5.751240
  0
SEQEND
  8
0
  0
SOLID
  8
0
 62
    15
 10
4.056800
 20
5.831760
 11
4.803920
 21
5.832200
 12
4.056800
 22
5.751240
 13
4.803920
 23
5.751680
  0
POLYLINE
  8
0
  6
CONTINUOUS
 66
     1
 40
0.000000
 41
0.000000
  0
VERTEX
  8
0
  6
CONTINUOUS
 10
4.056800
 20
5.831760
  0
VERTEX
  8
0
  6
CONTINUOUS
 10
4.803920
 20
5.832200
  0
VERTEX
  8
0
  6
CONTINUOUS
 10
4.803920
 20
5.751680
  0
VERTEX
  8
0
  6
CONTINUOUS
 10
4.056800
 20
5.751240
  0
VERTEX
  8
0
  6
CONTINUOUS
 10
4.056800
 20
5.831760
  0
SEQEND
  8
0
  0
SOLID
  8
0
 62
    15
 10
3.569280
 20
4.988720
 11
4.316400
 21
4.989160
 12
3.665640
 22
4.984760
 13
4.412760
 23
4.985200
  0
POLYLINE
  8
0
  6
CONTINUOUS
 66
     1
 40
0.000000
 41
0.000000
  0
VERTEX
  8
0
  6
CONTINUOUS
 10
3.569280
 20
4.988720
  0
VERTEX
  8
0
  6
CONTINUOUS
 10
4.316400
 20
4.989160
  0
VERTEX
  8
0
  6
CONTINUOUS
 10
4.412760
 20
4.985200
  0
VERTEX
  8
0
  6
CONTINUOUS
 10
3.665640
 20
4.984760
  0
VERTEX
  8
0
  6
CONTINUOUS
 10
3.569280
 20
4.988720
  0
SEQEND
  8
0
  0
SOLID
  8
0
 62
    15
 10
3.624280
 20
4.824160
 11
4.371400
 21
4.824600
 12
3.588640
 22
4.799080
 13
4.335760
 23
4.799960
  0
POLYLINE
  8
0
  6
CONTINUOUS
 66
     1
 40
0.000000
 41
0.000000
  0
VERTEX
  8
0
  6
CONTINUOUS
 10
3.624280
 20
4.824160
  0
VERTEX
  8
0
  6
CONTINUOUS
 10
4.371400
 20
4.824600
  0
VERTEX
  8
0
  6
CONTINUOUS
 10
4.335760
 20
4.799960
  0
VERTEX
  8
0
  6
CONTINUOUS
 10
3.588640
 20
4.799080
  0
VERTEX
  8
0
  6
CONTINUOUS
 10
3.624280
 20
4.824160
  0
SEQEND
  8
0
  0
SOLID
  8
0
 62
    15
 10
3.665640
 20
4.832080
 11
4.412760
 21
4.832960
 12
3.624280
 22
4.824160
 13
4.371400
 23
4.824600
  0
POLYLINE
  8
0
  6
CONTINUOUS
 66
     1
 40
0.000000
 41
0.000000
  0
VERTEX
  8
0
  6
CONTINUOUS
 10
3.665640
 20
4.832080
  0
VERTEX
  8
0
  6
CONTINUOUS
 10
4.412760
 20
4.832960
  0
VERTEX
  8
0
  6
CONTINUOUS
 10
4.371400
 20
4.824600
  0
VERTEX
  8
0
  6
CONTINUOUS
 10
3.624280
 20
4.824160
  0
VERTEX
  8
0
  6
CONTINUOUS
 10
3.665640
 20
4.832080
  0
SEQEND
  8
0
  0
SOLID
  8
0
 62
    15
 10
3.665640
 20
4.984760
 11
4.412760
 21
4.985200
 12
3.665640
 22
4.832080
 13
4.412760
 23
4.832960
  0
POLYLINE
  8
0
  6
CONTINUOUS
 66
     1
 40
0.000000
 41
0.000000
  0
VERTEX
  8
0
  6
CONTINUOUS
 10
3.665640
 20
4.984760
  0
VERTEX
  8
0
  6
CONTINUOUS
 10
4.412760
 20
4.985200
  0
VERTEX
  8
0
  6
CONTINUOUS
 10
4.412760
 20
4.832960
  0
VERTEX
  8
0
  6
CONTINUOUS
 10
3.665640
 20
4.832080
  0
VERTEX
  8
0
  6
CONTINUOUS
 10
3.665640
 20
4.984760
  0
SEQEND
  8
0
  0
SOLID
  8
0
 62
    15
 10
3.588640
 20
4.799080
 11
4.335760
 21
4.799960
 12
3.560040
 22
4.758600
 13
4.306720
 23
4.759040
  0
POLYLINE
  8
0
  6
CONTINUOUS
 66
     1
 40
0.000000
 41
0.000000
  0
VERTEX
  8
0
  6
CONTINUOUS
 10
3.588640
 20
4.799080
  0
VERTEX
  8
0
  6
CONTINUOUS
 10
4.335760
 20
4.799960
  0
VERTEX
  8
0
  6
CONTINUOUS
 10
4.306720
 20
4.759040
  0
VERTEX
  8
0
  6
CONTINUOUS
 10
3.560040
 20
4.758600
  0
VERTEX
  8
0
  6
CONTINUOUS
 10
3.588640
 20
4.799080
  0
SEQEND
  8
0
  0
SOLID
  8
0
 62
    15
 10
3.560040
 20
4.758600
 11
4.306720
 21
4.759040
 12
3.538920
 22
4.702720
 13
4.285600
 23
4.703160
  0
POLYLINE
  8
0
  6
CONTINUOUS
 66
     1
 40
0.000000
 41
0.000000
  0
VERTEX
  8
0
  6
CONTINUOUS
 10
3.560040
 20
4.758600
  0
VERTEX
  8
0
  6
CONTINUOUS
 10
4.306720
 20
4.759040
  0
VERTEX
  8
0
  6
CONTINUOUS
 10
4.285600
 20
4.703160
  0
VERTEX
  8
0
  6
CONTINUOUS
 10
3.538920
 20
4.702720
  0
VERTEX
  8
0
  6
CONTINUOUS
 10
3.560040
 20
4.758600
  0
SEQEND
  8
0
  0
SOLID
  8
0
 62
    15
 10
3.538920
 20
4.702720
 11
4.285600
 21
4.703160
 12
3.517360
 22
4.636720
 13
4.264480
 23
4.637160
  0
POLYLINE
  8
0
  6
CONTINUOUS
 66
     1
 40
0.000000
 41
0.000000
  0
VERTEX
  8
0
  6
CONTINUOUS
 10
3.538920
 20
4.702720
  0
VERTEX
  8
0
  6
CONTINUOUS
 10
4.285600
 20
4.703160
  0
VERTEX
  8
0
  6
CONTINUOUS
 10
4.264480
 20
4.637160
  0
VERTEX
  8
0
  6
CONTINUOUS
 10
3.517360
 20
4.636720
  0
VERTEX
  8
0
  6
CONTINUOUS
 10
3.538920
 20
4.702720
  0
SEQEND
  8
0
  0
SOLID
  8
0
 62
    15
 10
3.517360
 20
4.636720
 11
4.264480
 21
4.637160
 12
3.483040
 22
4.574240
 13
4.230160
 23
4.574680
  0
POLYLINE
  8
0
  6
CONTINUOUS
 66
     1
 40
0.000000
 41
0.000000
  0
VERTEX
  8
0
  6
CONTINUOUS
 10
3.517360
 20
4.636720
  0
VERTEX
  8
0
  6
CONTINUOUS
 10
4.264480
 20
4.637160
  0
VERTEX
  8
0
  6
CONTINUOUS
 10
4.230160
 20
4.574680
  0
VERTEX
  8
0
  6
CONTINUOUS
 10
3.483040
 20
4.574240
  0
VERTEX
  8
0
  6
CONTINUOUS
 10
3.517360
 20
4.636720
  0
SEQEND
  8
0
  0
SOLID
  8
0
 62
    15
 10
3.483040
 20
4.574240
 11
4.230160
 21
4.574680
 12
3.458400
 22
4.548280
 13
4.205520
 23
4.548720
  0
POLYLINE
  8
0
  6
CONTINUOUS
 66
     1
 40
0.000000
 41
0.000000
  0
VERTEX
  8
0
  6
CONTINUOUS
 10
3.483040
 20
4.574240
  0
VERTEX
  8
0
  6
CONTINUOUS
 10
4.230160
 20
4.574680
  0
VERTEX
  8
0
  6
CONTINUOUS
 10
4.205520
 20
4.548720
  0
VERTEX
  8
0
  6
CONTINUOUS
 10
3.458400
 20
4.548280
  0
VERTEX
  8
0
  6
CONTINUOUS
 10
3.483040
 20
4.574240
  0
SEQEND
  8
0
  0
SOLID
  8
0
 62
    15
 10
3.458400
 20
4.548280
 11
4.205520
 21
4.548720
 12
3.427600
 22
4.527160
 13
4.174280
 23
4.528040
  0
POLYLINE
  8
0
  6
CONTINUOUS
 66
     1
 40
0.000000
 41
0.000000
  0
VERTEX
  8
0
  6
CONTINUOUS
 10
3.458400
 20
4.548280
  0
VERTEX
  8
0
  6
CONTINUOUS
 10
4.205520
 20
4.548720
  0
VERTEX
  8
0
  6
CONTINUOUS
 10
4.174280
 20
4.528040
  0
VERTEX
  8
0
  6
CONTINUOUS
 10
3.427600
 20
4.527160
  0
VERTEX
  8
0
  6
CONTINUOUS
 10
3.458400
 20
4.548280
  0
SEQEND
  8
0
  0
SOLID
  8
0
 62
    15
 10
3.299120
 20
4.406600
 11
4.046240
 21
4.407040
 12
3.264800
 22
4.390760
 13
4.011920
 23
4.391200
  0
POLYLINE
  8
0
  6
CONTINUOUS
 66
     1
 40
0.000000
 41
0.000000
  0
VERTEX
  8
0
  6
CONTINUOUS
 10
3.299120
 20
4.406600
  0
VERTEX
  8
0
  6
CONTINUOUS
 10
4.046240
 20
4.407040
  0
VERTEX
  8
0
  6
CONTINUOUS
 10
4.011920
 20
4.391200
  0
VERTEX
  8
0
  6
CONTINUOUS
 10
3.264800
 20
4.390760
  0
VERTEX
  8
0
  6
CONTINUOUS
 10
3.299120
 20
4.406600
  0
SEQEND
  8
0
  0
SOLID
  8
0
 62
    15
 10
3.343120
 20
4.410560
 11
4.090240
 21
4.411000
 12
3.299120
 22
4.406600
 13
4.046240
 23
4.407040
  0
POLYLINE
  8
0
  6
CONTINUOUS
 66
     1
 40
0.000000
 41
0.000000
  0
VERTEX
  8
0
  6
CONTINUOUS
 10
3.343120
 20
4.410560
  0
VERTEX
  8
0
  6
CONTINUOUS
 10
4.090240
 20
4.411000
  0
VERTEX
  8
0
  6
CONTINUOUS
 10
4.046240
 20
4.407040
  0
VERTEX
  8
0
  6
CONTINUOUS
 10
3.299120
 20
4.406600
  0
VERTEX
  8
0
  6
CONTINUOUS
 10
3.343120
 20
4.410560
  0
SEQEND
  8
0
  0
SOLID
  8
0
 62
    15
 10
3.343120
 20
4.508240
 11
4.090240
 21
4.508680
 12
3.343120
 22
4.410560
 13
4.090240
 23
4.411000
  0
POLYLINE
  8
0
  6
CONTINUOUS
 66
     1
 40
0.000000
 41
0.000000
  0
VERTEX
  8
0
  6
CONTINUOUS
 10
3.343120
 20
4.508240
  0
VERTEX
  8
0
  6
CONTINUOUS
 10
4.090240
 20
4.508680
  0
VERTEX
  8
0
  6
CONTINUOUS
 10
4.090240
 20
4.411000
  0
VERTEX
  8
0
  6
CONTINUOUS
 10
3.343120
 20
4.410560
  0
VERTEX
  8
0
  6
CONTINUOUS
 10
3.343120
 20
4.508240
  0
SEQEND
  8
0
  0
SOLID
  8
0
 62
    15
 10
3.389320
 20
4.513520
 11
4.136440
 21
4.513960
 12
3.343120
 22
4.508240
 13
4.090240
 23
4.508680
  0
POLYLINE
  8
0
  6
CONTINUOUS
 66
     1
 40
0.000000
 41
0.000000
  0
VERTEX
  8
0
  6
CONTINUOUS
 10
3.389320
 20
4.513520
  0
VERTEX
  8
0
  6
CONTINUOUS
 10
4.136440
 20
4.513960
  0
VERTEX
  8
0
  6
CONTINUOUS
 10
4.090240
 20
4.508680
  0
VERTEX
  8
0
  6
CONTINUOUS
 10
3.343120
 20
4.508240
  0
VERTEX
  8
0
  6
CONTINUOUS
 10
3.389320
 20
4.513520
  0
SEQEND
  8
0
  0
SOLID
  8
0
 62
    15
 10
3.427600
 20
4.527160
 11
4.174280
 21
4.528040
 12
3.389320
 22
4.513520
 13
4.136440
 23
4.513960
  0
POLYLINE
  8
0
  6
CONTINUOUS
 66
     1
 40
0.000000
 41
0.000000
  0
VERTEX
  8
0
  6
CONTINUOUS
 10
3.427600
 20
4.527160
  0
VERTEX
  8
0
  6
CONTINUOUS
 10
4.174280
 20
4.528040
  0
VERTEX
  8
0
  6
CONTINUOUS
 10
4.136440
 20
4.513960
  0
VERTEX
  8
0
  6
CONTINUOUS
 10
3.389320
 20
4.513520
  0
VERTEX
  8
0
  6
CONTINUOUS
 10
3.427600
 20
4.527160
  0
SEQEND
  8
0
  0
SOLID
  8
0
 62
    15
 10
3.264800
 20
4.390760
 11
4.011920
 21
4.391200
 12
3.251600
 22
4.376680
 13
3.998720
 23
4.377120
  0
POLYLINE
  8
0
  6
CONTINUOUS
 66
     1
 40
0.000000
 41
0.000000
  0
VERTEX
  8
0
  6
CONTINUOUS
 10
3.264800
 20
4.390760
  0
VERTEX
  8
0
  6
CONTINUOUS
 10
4.011920
 20
4.391200
  0
VERTEX
  8
0
  6
CONTINUOUS
 10
3.998720
 20
4.377120
  0
VERTEX
  8
0
  6
CONTINUOUS
 10
3.251600
 20
4.376680
  0
VERTEX
  8
0
  6
CONTINUOUS
 10
3.264800
 20
4.390760
  0
SEQEND
  8
0
  0
SOLID
  8
0
 62
    15
 10
3.251600
 20
4.376680
 11
3.998720
 21
4.377120
 12
3.242360
 22
4.357320
 13
3.989480
 23
4.357760
  0
POLYLINE
  8
0
  6
CONTINUOUS
 66
     1
 40
0.000000
 41
0.000000
  0
VERTEX
  8
0
  6
CONTINUOUS
 10
3.251600
 20
4.376680
  0
VERTEX
  8
0
  6
CONTINUOUS
 10
3.998720
 20
4.377120
  0
VERTEX
  8
0
  6
CONTINUOUS
 10
3.989480
 20
4.357760
  0
VERTEX
  8
0
  6
CONTINUOUS
 10
3.242360
 20
4.357320
  0
VERTEX
  8
0
  6
CONTINUOUS
 10
3.251600
 20
4.376680
  0
SEQEND
  8
0
  0
SOLID
  8
0
 62
    15
 10
3.242360
 20
4.357320
 11
3.989480
 21
4.357760
 12
3.236200
 22
4.331800
 13
3.983320
 23
4.332680
  0
POLYLINE
  8
0
  6
CONTINUOUS
 66
     1
 40
0.000000
 41
0.000000
  0
VERTEX
  8
0
  6
CONTINUOUS
 10
3.242360
 20
4.357320
  0
VERTEX
  8
0
  6
CONTINUOUS
 10
3.989480
 20
4.357760
  0
VERTEX
  8
0
  6
CONTINUOUS
 10
3.983320
 20
4.332680
  0
VERTEX
  8
0
  6
CONTINUOUS
 10
3.236200
 20
4.331800
  0
VERTEX
  8
0
  6
CONTINUOUS
 10
3.242360
 20
4.357320
  0
SEQEND
  8
0
  0
SOLID
  8
0
 62
    15
 10
3.236200
 20
4.331800
 11
3.983320
 21
4.332680
 12
3.234440
 22
4.299680
 13
3.981560
 23
4.300120
  0
POLYLINE
  8
0
  6
CONTINUOUS
 66
     1
 40
0.000000
 41
0.000000
  0
VERTEX
  8
0
  6
CONTINUOUS
 10
3.236200
 20
4.331800
  0
VERTEX
  8
0
  6
CONTINUOUS
 10
3.983320
 20
4.332680
  0
VERTEX
  8
0
  6
CONTINUOUS
 10
3.981560
 20
4.300120
  0
VERTEX
  8
0
  6
CONTINUOUS
 10
3.234440
 20
4.299680
  0
VERTEX
  8
0
  6
CONTINUOUS
 10
3.236200
 20
4.331800
  0
SEQEND
  8
0
  0
POLYLINE
  8
0
  6
CONTINUOUS
 66
     1
 40
0.000000
 41
0.000000
  0
VERTEX
  8
0
  6
CONTINUOUS
 10
3.116520
 20
4.299680
  0
VERTEX
  8
0
  6
CONTINUOUS
 10
3.116520
 20
8.392560
  0
VERTEX
  8
0
  6
CONTINUOUS
 10
3.209360
 20
8.390360
  0
VERTEX
  8
0
  6
CONTINUOUS
 10
3.291640
 20
8.381120
  0
VERTEX
  8
0
  6
CONTINUOUS
 10
3.364680
 20
8.365280
  0
VERTEX
  8
0
  6
CONTINUOUS
 10
3.430680
 20
8.341520
  0
VERTEX
  8
0
  6
CONTINUOUS
 10
3.490520
 20
8.309840
  0
VERTEX
  8
0
  6
CONTINUOUS
 10
3.545520
 20
8.270240
  0
VERTEX
  8
0
  6
CONTINUOUS
 10
3.597000
 20
8.221840
  0
VERTEX
  8
0
  6
CONTINUOUS
 10
3.646720
 20
8.163760
  0
VERTEX
  8
0
  6
CONTINUOUS
 10
3.734280
 20
8.052440
  0
VERTEX
  8
0
  6
CONTINUOUS
 10
3.773440
 20
8.007560
  0
VERTEX
  8
0
  6
CONTINUOUS
 10
3.813040
 20
7.969720
  0
VERTEX
  8
0
  6
CONTINUOUS
 10
3.855720
 20
7.939800
  0
VERTEX
  8
0
  6
CONTINUOUS
 10
3.903680
 20
7.917800
  0
VERTEX
  8
0
  6
CONTINUOUS
 10
3.960000
 20
7.904600
  0
VERTEX
  8
0
  6
CONTINUOUS
 10
4.026440
 20
7.900200
  0
VERTEX
  8
0
  6
CONTINUOUS
 10
4.026440
 20
7.820120
  0
VERTEX
  8
0
  6
CONTINUOUS
 10
4.062960
 20
7.810880
  0
VERTEX
  8
0
  6
CONTINUOUS
 10
4.091560
 20
7.796360
  0
VERTEX
  8
0
  6
CONTINUOUS
 10
4.112680
 20
7.777440
  0
VERTEX
  8
0
  6
CONTINUOUS
 10
4.128080
 20
7.755880
  0
VERTEX
  8
0
  6
CONTINUOUS
 10
4.144360
 20
7.706160
  0
VERTEX
  8
0
  6
CONTINUOUS
 10
4.147880
 20
7.654680
  0
VERTEX
  8
0
  6
CONTINUOUS
 10
4.230600
 20
7.644120
  0
VERTEX
  8
0
  6
CONTINUOUS
 10
4.230600
 20
7.249440
  0
VERTEX
  8
0
  6
CONTINUOUS
 10
4.180440
 20
7.230520
  0
VERTEX
  8
0
  6
CONTINUOUS
 10
4.145240
 20
7.203680
  0
VERTEX
  8
0
  6
CONTINUOUS
 10
4.124120
 20
7.167160
  0
VERTEX
  8
0
  6
CONTINUOUS
 10
4.117520
 20
7.118760
  0
VERTEX
  8
0
  6
CONTINUOUS
 10
4.121480
 20
7.090600
  0
VERTEX
  8
0
  6
CONTINUOUS
 10
4.131600
 20
7.060680
  0
VERTEX
  8
0
  6
CONTINUOUS
 10
4.161960
 20
6.994680
  0
VERTEX
  8
0
  6
CONTINUOUS
 10
4.192760
 20
6.919000
  0
VERTEX
  8
0
  6
CONTINUOUS
 10
4.202880
 20
6.877200
  0
VERTEX
  8
0
  6
CONTINUOUS
 10
4.206840
 20
6.832320
  0
VERTEX
  8
0
  6
CONTINUOUS
 10
4.202000
 20
6.788320
  0
VERTEX
  8
0
  6
CONTINUOUS
 10
4.188800
 20
6.747840
  0
VERTEX
  8
0
  6
CONTINUOUS
 10
4.170320
 20
6.710440
  0
VERTEX
  8
0
  6
CONTINUOUS
 10
4.148760
 20
6.673920
  0
VERTEX
  8
0
  6
CONTINUOUS
 10
4.108720
 20
6.599120
  0
VERTEX
  8
0
  6
CONTINUOUS
 10
4.095960
 20
6.557760
  0
VERTEX
  8
0
  6
CONTINUOUS
 10
4.090680
 20
6.512000
  0
VERTEX
  8
0
  6
CONTINUOUS
 10
4.095520
 20
6.468880
  0
VERTEX
  8
0
  6
CONTINUOUS
 10
4.108720
 20
6.435000
  0
VERTEX
  8
0
  6
CONTINUOUS
 10
4.128520
 20
6.409480
  0
VERTEX
  8
0
  6
CONTINUOUS
 10
4.151840
 20
6.391000
  0
VERTEX
  8
0
  6
CONTINUOUS
 10
4.202000
 20
6.369000
  0
VERTEX
  8
0
  6
CONTINUOUS
 10
4.242920
 20
6.358880
  0
VERTEX
  8
0
  6
CONTINUOUS
 10
4.242920
 20
5.932520
  0
VERTEX
  8
0
  6
CONTINUOUS
 10
4.169440
 20
5.923280
  0
VERTEX
  8
0
  6
CONTINUOUS
 10
4.165920
 20
5.904360
  0
VERTEX
  8
0
  6
CONTINUOUS
 10
4.157120
 20
5.886760
  0
VERTEX
  8
0
  6
CONTINUOUS
 10
4.128520
 20
5.857720
  0
VERTEX
  8
0
  6
CONTINUOUS
 10
4.092000
 20
5.838800
  0
VERTEX
  8
0
  6
CONTINUOUS
 10
4.056800
 20
5.831760
  0
VERTEX
  8
0
  6
CONTINUOUS
 10
4.056800
 20
5.751240
  0
VERTEX
  8
0
  6
CONTINUOUS
 10
3.971440
 20
5.745520
  0
VERTEX
  8
0
  6
CONTINUOUS
 10
3.971440
 20
5.659720
  0
VERTEX
  8
0
  6
CONTINUOUS
 10
3.569280
 20
5.646080
  0
VERTEX
  8
0
  6
CONTINUOUS
 10
3.569280
 20
4.988720
  0
VERTEX
  8
0
  6
CONTINUOUS
 10
3.665640
 20
4.984760
  0
VERTEX
  8
0
  6
CONTINUOUS
 10
3.665640
 20
4.832080
  0
VERTEX
  8
0
  6
CONTINUOUS
 10
3.624280
 20
4.824160
  0
VERTEX
  8
0
  6
CONTINUOUS
 10
3.588640
 20
4.799080
  0
VERTEX
  8
0
  6
CONTINUOUS
 10
3.560040
 20
4.758600
  0
VERTEX
  8
0
  6
CONTINUOUS
 10
3.538920
 20
4.702720
  0
VERTEX
  8
0
  6
CONTINUOUS
 10
3.517360
 20
4.636720
  0
VERTEX
  8
0
  6
CONTINUOUS
 10
3.483040
 20
4.574240
  0
VERTEX
  8
0
  6
CONTINUOUS
 10
3.458400
 20
4.548280
  0
VERTEX
  8
0
  6
CONTINUOUS
 10
3.427600
 20
4.527160
  0
VERTEX
  8
0
  6
CONTINUOUS
 10
3.389320
 20
4.513520
  0
VERTEX
  8
0
  6
CONTINUOUS
 10
3.343120
 20
4.508240
  0
VERTEX
  8
0
  6
CONTINUOUS
 10
3.343120
 20
4.410560
  0
VERTEX
  8
0
  6
CONTINUOUS
 10
3.299120
 20
4.406600
  0
VERTEX
  8
0
  6
CONTINUOUS
 10
3.264800
 20
4.390760
  0
VERTEX
  8
0
  6
CONTINUOUS
 10
3.251600
 20
4.376680
  0
VERTEX
  8
0
  6
CONTINUOUS
 10
3.242360
 20
4.357320
  0
VERTEX
  8
0
  6
CONTINUOUS
 10
3.236200
 20
4.331800
  0
VERTEX
  8
0
  6
CONTINUOUS
 10
3.234440
 20
4.299680
  0
VERTEX
  8
0
  6
CONTINUOUS
 10
3.116520
 20
4.299680
  0
SEQEND
  8
0
  0
TEXT
  8
0
 10
3.675760
 20
4.046240
 40
0.138079
  1
BA  1338
 41
1.000000
  7
SN0
 71
     0
 72
     5
 11
4.307601
 21
4.046240
  0
TEXT
  8
0
 10
3.516040
 20
3.893560
 40
0.138079
  1
1-1/8" x 4-1/8"  
 41
1.000000
  7
SN0
 71
     0
 72
     5
 11
4.542398
 21
3.893560
  0
TEXT
  8
0
 10
3.689400
 20
8.899000
 40
0.138079
  1
BA  1338
 41
1.000000
  7
SN0
 71
     0
 72
     5
 11
4.321241
 21
8.899000
  0
TEXT
  8
0
 10
3.529680
 20
8.746320
 40
0.138079
  1
1-1/8" x 4-1/8"  
 41
1.000000
  7
SN0
 71
     0
 72
     5
 11
4.556038
 21
8.746320
  0
ENDSEC
  0
EOF
