  0
SECTION
  2
HEADER
  9
$ACADVER
  1
AC1006
  9
$EXTMIN
 10
2.079440
 20
1.531200
  9
$EXTMAX
 10
6.524760
 20
8.975120
  9
$LTSCALE
 40
0.044000
  9
$PDMODE
 70
    35
  9
$PDSIZE
 40
0.035200
  0
ENDSEC
  0
SECTION
  2
TABLES
  0
TABLE
  2
LTYPE
 70
     9
  0
LTYPE
  2
CONTINUOUS
 70
    64
  3
Solid line
 72
    65
 73
     0
 40
0.000000
  0
LTYPE
  2
DASHED
 70
    64
  3
__ __ __ __ __ __ __ __ __ __ __ __ __ __ __
 72
    65
 73
     2
 40
0.000330
 49
0.000220
 49
-0.000110
  0
LTYPE
  2
HIDDEN
 70
    64
  3
 _ _ _ _ _ _ _ _ _ _ _ _ _ _ _ _ _ _ _ _ _ _
 72
    65
 73
     2
 40
0.000165
 49
0.000110
 49
-0.000055
  0
LTYPE
  2
CENTER
 70
    64
  3
____ _ ____ _ ____ _ ____ _ ____ _ ____ _ ____
 72
    65
 73
     4
 40
0.000880
 49
0.000550
 49
-0.000110
 49
0.000110
 49
-0.000110
  0
LTYPE
  2
PHANTOM
 70
    64
  3
_____ _ _ _____ _ _ _____ _ _ _____ _ _ ____
 72
    65
 73
     6
 40
0.001100
 49
0.000550
 49
-0.000110
 49
0.000110
 49
-0.000110
 49
0.000110
 49
-0.000110
  0
LTYPE
  2
DOT
 70
    64
  3
...............................................
 72
    65
 73
     2
 40
0.000110
 49
0.000000
 49
-0.000110
  0
LTYPE
  2
DASHDOT
 70
    64
  3
__ . __ . __ . __ . __ . __ . __ . __ . __ . __
 72
    65
 73
     4
 40
0.000440
 49
0.000220
 49
-0.000110
 49
0.000000
 49
-0.000110
  0
LTYPE
  2
BORDER
 70
    64
  3
__ __ . __ __ . __ __ . __ __ . __ __ . __ __
 72
    65
 73
     6
 40
0.000770
 49
0.000220
 49
-0.000110
 49
0.000220
 49
-0.000110
 49
0.000000
 49
-0.000110
  0
LTYPE
  2
DIVIDE
 70
    64
  3
__ . . __ . . __ . . __ . . __ . . __ . . __
 72
    65
 73
     6
 40
0.000550
 49
0.000220
 49
-0.000110
 49
0.000000
 49
-0.000110
 49
0.000000
 49
-0.000110
  0
LTYPE
  2
DOTDOT
 70
    64
  3
 . .  . .  . .  . .  . .  . . 
 72
    65
 73
     5
 40
0.000242
 49
-0.000110
 49
0.000000
 49
-0.000110
 49
0.000000
 49
-0.000110
  0
ENDTAB
  0
TABLE
  2
STYLE
 70
     2
  0
STYLE
 70
     0
  2
SN0
 40
0.000000
 41
0.000440
 50
0.000000
 71
     0
 42
0.000000
  3
ROMAND
  0
STYLE
 70
    68
  2
SV0
 40
0.000000
 41
0.000440
 50
0.000000
 71
     0
 42
0.000000
  3
ROMAND
  0
ENDTAB
  0
TABLE
  2
LAYER
 70
     3
  0
LAYER
  2
FOREGROUND
 70
    64
 62
     7
  6
CONTINUOUS
  0
LAYER
  2
BACKGROUND
 70
    65
 62
    -7
  6
CONTINUOUS
  0
LAYER
  2
0
 70
    64
 62
     7
  6
CONTINUOUS
  0
ENDTAB
  0
ENDSEC
  0
SECTION
  2
ENTITIES
  0
POLYLINE
  8
FOREGROUND
  6
CONTINUOUS
 66
     1
 40
0.000000
 41
0.000000
  0
VERTEX
  8
FOREGROUND
  6
CONTINUOUS
 10
0.000000
 20
10.506320
  0
VERTEX
  8
FOREGROUND
  6
CONTINUOUS
 10
8.499920
 20
10.506320
  0
VERTEX
  8
FOREGROUND
  6
CONTINUOUS
 10
8.499920
 20
-0.493680
  0
VERTEX
  8
FOREGROUND
  6
CONTINUOUS
 10
0.000000
 20
-0.493680
  0
VERTEX
  8
FOREGROUND
  6
CONTINUOUS
 10
0.000000
 20
10.506320
  0
SEQEND
  8
0
  0
POLYLINE
  8
FOREGROUND
  6
CONTINUOUS
 66
     1
 40
0.000000
 41
0.000000
  0
VERTEX
  8
FOREGROUND
  6
CONTINUOUS
 10
0.000000
 20
10.506320
  0
VERTEX
  8
FOREGROUND
  6
CONTINUOUS
 10
8.499920
 20
10.506320
  0
VERTEX
  8
FOREGROUND
  6
CONTINUOUS
 10
8.499920
 20
-0.493680
  0
VERTEX
  8
FOREGROUND
  6
CONTINUOUS
 10
0.000000
 20
-0.493680
  0
VERTEX
  8
FOREGROUND
  6
CONTINUOUS
 10
0.000000
 20
10.506320
  0
SEQEND
  8
0
  0
POLYLINE
  8
0
  6
CONTINUOUS
 66
     1
 40
0.014080
 41
0.014080
  0
VERTEX
  8
0
  6
CONTINUOUS
 10
6.513760
 20
7.619920
  0
VERTEX
  8
0
  6
CONTINUOUS
 10
2.184600
 20
7.619920
  0
VERTEX
  8
0
  6
CONTINUOUS
 10
2.184600
 20
8.967200
  0
VERTEX
  8
0
  6
CONTINUOUS
 10
2.566960
 20
8.967200
  0
VERTEX
  8
0
  6
CONTINUOUS
 10
3.542000
 20
8.374520
  0
VERTEX
  8
0
  6
CONTINUOUS
 10
4.934160
 20
8.374520
  0
VERTEX
  8
0
  6
CONTINUOUS
 10
5.168680
 20
8.160240
  0
VERTEX
  8
0
  6
CONTINUOUS
 10
6.275280
 20
8.160240
  0
VERTEX
  8
0
  6
CONTINUOUS
 10
6.513760
 20
7.871600
  0
VERTEX
  8
0
  6
CONTINUOUS
 10
6.513760
 20
7.620800
  0
VERTEX
  8
0
  6
CONTINUOUS
 10
6.513760
 20
7.619920
  0
SEQEND
  8
0
  0
POLYLINE
  8
0
  6
CONTINUOUS
 66
     1
 40
0.000000
 41
0.000000
  0
VERTEX
  8
0
  6
CONTINUOUS
 10
2.140160
 20
1.531200
  0
VERTEX
  8
0
  6
CONTINUOUS
 10
6.469320
 20
1.531200
  0
VERTEX
  8
0
  6
CONTINUOUS
 10
6.469320
 20
2.878920
  0
VERTEX
  8
0
  6
CONTINUOUS
 10
6.087400
 20
2.878920
  0
VERTEX
  8
0
  6
CONTINUOUS
 10
5.111920
 20
2.285800
  0
VERTEX
  8
0
  6
CONTINUOUS
 10
3.719760
 20
2.285800
  0
VERTEX
  8
0
  6
CONTINUOUS
 10
3.485680
 20
2.071960
  0
VERTEX
  8
0
  6
CONTINUOUS
 10
2.378640
 20
2.071960
  0
VERTEX
  8
0
  6
CONTINUOUS
 10
2.140160
 20
1.782880
  0
VERTEX
  8
0
  6
CONTINUOUS
 10
2.140160
 20
1.532080
  0
VERTEX
  8
0
  6
CONTINUOUS
 10
2.140160
 20
1.531200
  0
SEQEND
  8
0
  0
POLYLINE
  8
0
  6
CONTINUOUS
 66
     1
 40
0.000000
 41
0.000000
  0
VERTEX
  8
0
  6
CONTINUOUS
 10
6.524320
 20
3.124000
  0
VERTEX
  8
0
  6
CONTINUOUS
 10
2.195160
 20
3.124000
  0
VERTEX
  8
0
  6
CONTINUOUS
 10
2.195160
 20
4.471720
  0
VERTEX
  8
0
  6
CONTINUOUS
 10
2.577520
 20
4.471720
  0
VERTEX
  8
0
  6
CONTINUOUS
 10
3.553000
 20
3.878600
  0
VERTEX
  8
0
  6
CONTINUOUS
 10
4.945160
 20
3.878600
  0
VERTEX
  8
0
  6
CONTINUOUS
 10
5.179240
 20
3.664760
  0
VERTEX
  8
0
  6
CONTINUOUS
 10
6.285840
 20
3.664760
  0
VERTEX
  8
0
  6
CONTINUOUS
 10
6.524320
 20
3.375680
  0
VERTEX
  8
0
  6
CONTINUOUS
 10
6.524320
 20
3.124880
  0
VERTEX
  8
0
  6
CONTINUOUS
 10
6.524320
 20
3.124000
  0
SEQEND
  8
0
  0
TEXT
  8
0
 10
3.441240
 20
7.892280
 40
0.138183
  1
BA  1337
 41
1.000000
  7
SN0
 71
     0
 72
     5
 11
4.073973
 21
7.892280
  0
TEXT
  8
0
 10
3.238840
 20
7.739600
 40
0.138183
  1
1-3/8" x 4-5/16"
 41
1.000000
  7
SN0
 71
     0
 72
     5
 11
4.273173
 21
7.739600
  0
SOLID
  8
0
 62
    15
 10
2.080760
 20
5.166920
 11
2.080320
 21
5.909200
 12
2.080760
 22
6.514200
 13
2.080320
 23
7.256480
  0
POLYLINE
  8
0
  6
CONTINUOUS
 66
     1
 40
0.000000
 41
0.000000
  0
VERTEX
  8
0
  6
CONTINUOUS
 10
2.080760
 20
5.166920
  0
VERTEX
  8
0
  6
CONTINUOUS
 10
2.080320
 20
5.909200
  0
VERTEX
  8
0
  6
CONTINUOUS
 10
2.080320
 20
7.256480
  0
VERTEX
  8
0
  6
CONTINUOUS
 10
2.080760
 20
6.514200
  0
VERTEX
  8
0
  6
CONTINUOUS
 10
2.080760
 20
5.166920
  0
SEQEND
  8
0
  0
SOLID
  8
0
 62
    15
 10
2.463120
 20
6.514200
 11
2.462680
 21
7.256480
 12
3.438160
 22
5.921080
 13
3.437720
 23
6.663360
  0
POLYLINE
  8
0
  6
CONTINUOUS
 66
     1
 40
0.000000
 41
0.000000
  0
VERTEX
  8
0
  6
CONTINUOUS
 10
2.463120
 20
6.514200
  0
VERTEX
  8
0
  6
CONTINUOUS
 10
2.462680
 20
7.256480
  0
VERTEX
  8
0
  6
CONTINUOUS
 10
3.437720
 20
6.663360
  0
VERTEX
  8
0
  6
CONTINUOUS
 10
3.438160
 20
5.921080
  0
VERTEX
  8
0
  6
CONTINUOUS
 10
2.463120
 20
6.514200
  0
SEQEND
  8
0
  0
SOLID
  8
0
 62
    15
 10
3.438160
 20
5.921080
 11
3.437720
 21
6.663360
 12
4.830320
 22
5.921080
 13
4.829880
 23
6.663360
  0
POLYLINE
  8
0
  6
CONTINUOUS
 66
     1
 40
0.000000
 41
0.000000
  0
VERTEX
  8
0
  6
CONTINUOUS
 10
3.438160
 20
5.921080
  0
VERTEX
  8
0
  6
CONTINUOUS
 10
3.437720
 20
6.663360
  0
VERTEX
  8
0
  6
CONTINUOUS
 10
4.829880
 20
6.663360
  0
VERTEX
  8
0
  6
CONTINUOUS
 10
4.830320
 20
5.921080
  0
VERTEX
  8
0
  6
CONTINUOUS
 10
3.438160
 20
5.921080
  0
SEQEND
  8
0
  0
SOLID
  8
0
 62
    15
 10
4.830320
 20
5.921080
 11
4.829880
 21
6.663360
 12
5.064400
 22
5.707240
 13
5.063960
 23
6.449520
  0
POLYLINE
  8
0
  6
CONTINUOUS
 66
     1
 40
0.000000
 41
0.000000
  0
VERTEX
  8
0
  6
CONTINUOUS
 10
4.830320
 20
5.921080
  0
VERTEX
  8
0
  6
CONTINUOUS
 10
4.829880
 20
6.663360
  0
VERTEX
  8
0
  6
CONTINUOUS
 10
5.063960
 20
6.449520
  0
VERTEX
  8
0
  6
CONTINUOUS
 10
5.064400
 20
5.707240
  0
VERTEX
  8
0
  6
CONTINUOUS
 10
4.830320
 20
5.921080
  0
SEQEND
  8
0
  0
SOLID
  8
0
 62
    15
 10
5.064400
 20
5.707240
 11
5.063960
 21
6.449520
 12
6.171440
 22
5.707240
 13
6.171000
 23
6.449520
  0
POLYLINE
  8
0
  6
CONTINUOUS
 66
     1
 40
0.000000
 41
0.000000
  0
VERTEX
  8
0
  6
CONTINUOUS
 10
5.064400
 20
5.707240
  0
VERTEX
  8
0
  6
CONTINUOUS
 10
5.063960
 20
6.449520
  0
VERTEX
  8
0
  6
CONTINUOUS
 10
6.171000
 20
6.449520
  0
VERTEX
  8
0
  6
CONTINUOUS
 10
6.171440
 20
5.707240
  0
VERTEX
  8
0
  6
CONTINUOUS
 10
5.064400
 20
5.707240
  0
SEQEND
  8
0
  0
SOLID
  8
0
 62
    15
 10
6.171440
 20
5.707240
 11
6.171000
 21
6.449520
 12
6.409920
 22
5.418160
 13
6.409480
 23
6.160440
  0
POLYLINE
  8
0
  6
CONTINUOUS
 66
     1
 40
0.000000
 41
0.000000
  0
VERTEX
  8
0
  6
CONTINUOUS
 10
6.171440
 20
5.707240
  0
VERTEX
  8
0
  6
CONTINUOUS
 10
6.171000
 20
6.449520
  0
VERTEX
  8
0
  6
CONTINUOUS
 10
6.409480
 20
6.160440
  0
VERTEX
  8
0
  6
CONTINUOUS
 10
6.409920
 20
5.418160
  0
VERTEX
  8
0
  6
CONTINUOUS
 10
6.171440
 20
5.707240
  0
SEQEND
  8
0
  0
SOLID
  8
0
 62
    15
 10
2.080760
 20
6.514200
 11
2.080320
 21
7.256480
 12
2.463120
 22
6.514200
 13
2.462680
 23
7.256480
  0
POLYLINE
  8
0
  6
CONTINUOUS
 66
     1
 40
0.000000
 41
0.000000
  0
VERTEX
  8
0
  6
CONTINUOUS
 10
2.080760
 20
6.514200
  0
VERTEX
  8
0
  6
CONTINUOUS
 10
2.080320
 20
7.256480
  0
VERTEX
  8
0
  6
CONTINUOUS
 10
2.462680
 20
7.256480
  0
VERTEX
  8
0
  6
CONTINUOUS
 10
2.463120
 20
6.514200
  0
VERTEX
  8
0
  6
CONTINUOUS
 10
2.080760
 20
6.514200
  0
SEQEND
  8
0
  0
POLYLINE
  8
0
  6
CONTINUOUS
 66
     1
 40
0.000000
 41
0.000000
  0
VERTEX
  8
0
  6
CONTINUOUS
 10
6.409920
 20
5.166920
  0
VERTEX
  8
0
  6
CONTINUOUS
 10
2.080760
 20
5.166920
  0
VERTEX
  8
0
  6
CONTINUOUS
 10
2.080760
 20
6.514200
  0
VERTEX
  8
0
  6
CONTINUOUS
 10
2.463120
 20
6.514200
  0
VERTEX
  8
0
  6
CONTINUOUS
 10
3.438160
 20
5.921080
  0
VERTEX
  8
0
  6
CONTINUOUS
 10
4.830320
 20
5.921080
  0
VERTEX
  8
0
  6
CONTINUOUS
 10
5.064400
 20
5.707240
  0
VERTEX
  8
0
  6
CONTINUOUS
 10
6.171440
 20
5.707240
  0
VERTEX
  8
0
  6
CONTINUOUS
 10
6.409920
 20
5.418160
  0
VERTEX
  8
0
  6
CONTINUOUS
 10
6.409920
 20
5.167800
  0
VERTEX
  8
0
  6
CONTINUOUS
 10
6.409920
 20
5.166920
  0
SEQEND
  8
0
  0
TEXT
  8
0
 10
3.918640
 20
4.915680
 40
0.138183
  1
BA  1337
 41
1.000000
  7
SN0
 71
     0
 72
     5
 11
4.551373
 21
4.915680
  0
TEXT
  8
0
 10
3.716240
 20
4.762560
 40
0.138183
  1
1-3/8" x 4-5/16"
 41
1.000000
  7
SN0
 71
     0
 72
     5
 11
4.750573
 21
4.762560
  0
ENDSEC
  0
EOF
