  0
SECTION
  2
HEADER
  9
$ACADVER
  1
AC1006
  9
$EXTMIN
 10
2.732840
 20
1.265000
  9
$EXTMAX
 10
5.939120
 20
5.258880
  9
$LTSCALE
 40
0.044000
  9
$PDMODE
 70
    35
  9
$PDSIZE
 40
0.035200
  0
ENDSEC
  0
SECTION
  2
TABLES
  0
TABLE
  2
LTYPE
 70
     9
  0
LTYPE
  2
CONTINUOUS
 70
    64
  3
Solid line
 72
    65
 73
     0
 40
0.000000
  0
LTYPE
  2
DASHED
 70
    64
  3
__ __ __ __ __ __ __ __ __ __ __ __ __ __ __
 72
    65
 73
     2
 40
0.000330
 49
0.000220
 49
-0.000110
  0
LTYPE
  2
HIDDEN
 70
    64
  3
 _ _ _ _ _ _ _ _ _ _ _ _ _ _ _ _ _ _ _ _ _ _
 72
    65
 73
     2
 40
0.000165
 49
0.000110
 49
-0.000055
  0
LTYPE
  2
CENTER
 70
    64
  3
____ _ ____ _ ____ _ ____ _ ____ _ ____ _ ____
 72
    65
 73
     4
 40
0.000880
 49
0.000550
 49
-0.000110
 49
0.000110
 49
-0.000110
  0
LTYPE
  2
PHANTOM
 70
    64
  3
_____ _ _ _____ _ _ _____ _ _ _____ _ _ ____
 72
    65
 73
     6
 40
0.001100
 49
0.000550
 49
-0.000110
 49
0.000110
 49
-0.000110
 49
0.000110
 49
-0.000110
  0
LTYPE
  2
DOT
 70
    64
  3
...............................................
 72
    65
 73
     2
 40
0.000110
 49
0.000000
 49
-0.000110
  0
LTYPE
  2
DASHDOT
 70
    64
  3
__ . __ . __ . __ . __ . __ . __ . __ . __ . __
 72
    65
 73
     4
 40
0.000440
 49
0.000220
 49
-0.000110
 49
0.000000
 49
-0.000110
  0
LTYPE
  2
BORDER
 70
    64
  3
__ __ . __ __ . __ __ . __ __ . __ __ . __ __
 72
    65
 73
     6
 40
0.000770
 49
0.000220
 49
-0.000110
 49
0.000220
 49
-0.000110
 49
0.000000
 49
-0.000110
  0
LTYPE
  2
DIVIDE
 70
    64
  3
__ . . __ . . __ . . __ . . __ . . __ . . __
 72
    65
 73
     6
 40
0.000550
 49
0.000220
 49
-0.000110
 49
0.000000
 49
-0.000110
 49
0.000000
 49
-0.000110
  0
LTYPE
  2
DOTDOT
 70
    64
  3
 . .  . .  . .  . .  . .  . . 
 72
    65
 73
     5
 40
0.000242
 49
-0.000110
 49
0.000000
 49
-0.000110
 49
0.000000
 49
-0.000110
  0
ENDTAB
  0
TABLE
  2
STYLE
 70
     2
  0
STYLE
 70
     0
  2
SN0
 40
0.000000
 41
0.000440
 50
0.000000
 71
     0
 42
0.000000
  3
ROMAND
  0
STYLE
 70
    68
  2
SV0
 40
0.000000
 41
0.000440
 50
0.000000
 71
     0
 42
0.000000
  3
ROMAND
  0
ENDTAB
  0
TABLE
  2
LAYER
 70
     3
  0
LAYER
  2
FOREGROUND
 70
    64
 62
     7
  6
CONTINUOUS
  0
LAYER
  2
BACKGROUND
 70
    65
 62
    -7
  6
CONTINUOUS
  0
LAYER
  2
0
 70
    64
 62
     7
  6
CONTINUOUS
  0
ENDTAB
  0
ENDSEC
  0
SECTION
  2
ENTITIES
  0
POLYLINE
  8
FOREGROUND
  6
CONTINUOUS
 66
     1
 40
0.000000
 41
0.000000
  0
VERTEX
  8
FOREGROUND
  6
CONTINUOUS
 10
0.000000
 20
6.523880
  0
VERTEX
  8
FOREGROUND
  6
CONTINUOUS
 10
8.499920
 20
6.523880
  0
VERTEX
  8
FOREGROUND
  6
CONTINUOUS
 10
8.499920
 20
-4.476120
  0
VERTEX
  8
FOREGROUND
  6
CONTINUOUS
 10
0.000000
 20
-4.476120
  0
VERTEX
  8
FOREGROUND
  6
CONTINUOUS
 10
0.000000
 20
6.523880
  0
SEQEND
  8
0
  0
POLYLINE
  8
FOREGROUND
  6
CONTINUOUS
 66
     1
 40
0.000000
 41
0.000000
  0
VERTEX
  8
FOREGROUND
  6
CONTINUOUS
 10
0.000000
 20
6.523880
  0
VERTEX
  8
FOREGROUND
  6
CONTINUOUS
 10
8.499920
 20
6.523880
  0
VERTEX
  8
FOREGROUND
  6
CONTINUOUS
 10
8.499920
 20
-4.476120
  0
VERTEX
  8
FOREGROUND
  6
CONTINUOUS
 10
0.000000
 20
-4.476120
  0
VERTEX
  8
FOREGROUND
  6
CONTINUOUS
 10
0.000000
 20
6.523880
  0
SEQEND
  8
0
  0
POLYLINE
  8
0
  6
CONTINUOUS
 66
     1
 40
0.014080
 41
0.014080
  0
VERTEX
  8
0
  6
CONTINUOUS
 10
5.931640
 20
4.503840
  0
VERTEX
  8
0
  6
CONTINUOUS
 10
5.931640
 20
4.874760
  0
VERTEX
  8
0
  6
CONTINUOUS
 10
5.721320
 20
4.876080
  0
VERTEX
  8
0
  6
CONTINUOUS
 10
5.530800
 20
4.880480
  0
VERTEX
  8
0
  6
CONTINUOUS
 10
5.356560
 20
4.887960
  0
VERTEX
  8
0
  6
CONTINUOUS
 10
5.195960
 20
4.898960
  0
VERTEX
  8
0
  6
CONTINUOUS
 10
5.046360
 20
4.913040
  0
VERTEX
  8
0
  6
CONTINUOUS
 10
4.904680
 20
4.931080
  0
VERTEX
  8
0
  6
CONTINUOUS
 10
4.812720
 20
4.945160
  0
VERTEX
  8
0
  6
CONTINUOUS
 10
4.722520
 20
4.961000
  0
VERTEX
  8
0
  6
CONTINUOUS
 10
4.632760
 20
4.978600
  0
VERTEX
  8
0
  6
CONTINUOUS
 10
4.450600
 20
5.019520
  0
VERTEX
  8
0
  6
CONTINUOUS
 10
4.160640
 20
5.093440
  0
VERTEX
  8
0
  6
CONTINUOUS
 10
4.060760
 20
5.116760
  0
VERTEX
  8
0
  6
CONTINUOUS
 10
3.960000
 20
5.137440
  0
VERTEX
  8
0
  6
CONTINUOUS
 10
3.859240
 20
5.156360
  0
VERTEX
  8
0
  6
CONTINUOUS
 10
3.759360
 20
5.173080
  0
VERTEX
  8
0
  6
CONTINUOUS
 10
3.563120
 20
5.201240
  0
VERTEX
  8
0
  6
CONTINUOUS
 10
3.374800
 20
5.222360
  0
VERTEX
  8
0
  6
CONTINUOUS
 10
3.157000
 20
5.239960
  0
VERTEX
  8
0
  6
CONTINUOUS
 10
3.001680
 20
5.247880
  0
VERTEX
  8
0
  6
CONTINUOUS
 10
2.867040
 20
5.250960
  0
VERTEX
  8
0
  6
CONTINUOUS
 10
2.837120
 20
5.250960
  0
VERTEX
  8
0
  6
CONTINUOUS
 10
2.837120
 20
4.503840
  0
VERTEX
  8
0
  6
CONTINUOUS
 10
5.931640
 20
4.503840
  0
SEQEND
  8
0
  0
POLYLINE
  8
0
  6
CONTINUOUS
 66
     1
 40
0.000000
 41
0.000000
  0
VERTEX
  8
0
  6
CONTINUOUS
 10
2.745600
 20
1.265000
  0
VERTEX
  8
0
  6
CONTINUOUS
 10
2.745600
 20
1.635920
  0
VERTEX
  8
0
  6
CONTINUOUS
 10
2.955920
 20
1.637240
  0
VERTEX
  8
0
  6
CONTINUOUS
 10
3.146440
 20
1.641640
  0
VERTEX
  8
0
  6
CONTINUOUS
 10
3.320680
 20
1.649120
  0
VERTEX
  8
0
  6
CONTINUOUS
 10
3.481280
 20
1.660120
  0
VERTEX
  8
0
  6
CONTINUOUS
 10
3.630880
 20
1.674640
  0
VERTEX
  8
0
  6
CONTINUOUS
 10
3.726360
 20
1.686080
  0
VERTEX
  8
0
  6
CONTINUOUS
 10
3.864520
 20
1.706760
  0
VERTEX
  8
0
  6
CONTINUOUS
 10
3.954720
 20
1.722600
  0
VERTEX
  8
0
  6
CONTINUOUS
 10
4.135120
 20
1.759560
  0
VERTEX
  8
0
  6
CONTINUOUS
 10
4.320360
 20
1.804440
  0
VERTEX
  8
0
  6
CONTINUOUS
 10
4.516600
 20
1.855040
  0
VERTEX
  8
0
  6
CONTINUOUS
 10
4.616480
 20
1.878360
  0
VERTEX
  8
0
  6
CONTINUOUS
 10
4.717240
 20
1.899040
  0
VERTEX
  8
0
  6
CONTINUOUS
 10
4.818000
 20
1.917960
  0
VERTEX
  8
0
  6
CONTINUOUS
 10
4.917880
 20
1.934680
  0
VERTEX
  8
0
  6
CONTINUOUS
 10
5.114120
 20
1.962840
  0
VERTEX
  8
0
  6
CONTINUOUS
 10
5.302440
 20
1.983960
  0
VERTEX
  8
0
  6
CONTINUOUS
 10
5.520240
 20
2.001560
  0
VERTEX
  8
0
  6
CONTINUOUS
 10
5.675560
 20
2.009480
  0
VERTEX
  8
0
  6
CONTINUOUS
 10
5.810200
 20
2.012560
  0
VERTEX
  8
0
  6
CONTINUOUS
 10
5.840120
 20
2.012560
  0
VERTEX
  8
0
  6
CONTINUOUS
 10
5.840120
 20
1.265000
  0
VERTEX
  8
0
  6
CONTINUOUS
 10
2.745600
 20
1.265000
  0
SEQEND
  8
0
  0
SOLID
  8
0
 62
    15
 10
4.165480
 20
3.115200
 11
4.156240
 21
3.857040
 12
4.262280
 22
3.089680
 13
4.253040
 23
3.831520
  0
POLYLINE
  8
0
  6
CONTINUOUS
 66
     1
 40
0.000000
 41
0.000000
  0
VERTEX
  8
0
  6
CONTINUOUS
 10
4.165480
 20
3.115200
  0
VERTEX
  8
0
  6
CONTINUOUS
 10
4.156240
 20
3.857040
  0
VERTEX
  8
0
  6
CONTINUOUS
 10
4.253040
 20
3.831520
  0
VERTEX
  8
0
  6
CONTINUOUS
 10
4.262280
 20
3.089680
  0
VERTEX
  8
0
  6
CONTINUOUS
 10
4.165480
 20
3.115200
  0
SEQEND
  8
0
  0
SOLID
  8
0
 62
    15
 10
2.742960
 20
2.550680
 11
2.733720
 21
3.292520
 12
2.742960
 22
3.297800
 13
2.733720
 23
4.039640
  0
POLYLINE
  8
0
  6
CONTINUOUS
 66
     1
 40
0.000000
 41
0.000000
  0
VERTEX
  8
0
  6
CONTINUOUS
 10
2.742960
 20
2.550680
  0
VERTEX
  8
0
  6
CONTINUOUS
 10
2.733720
 20
3.292520
  0
VERTEX
  8
0
  6
CONTINUOUS
 10
2.733720
 20
4.039640
  0
VERTEX
  8
0
  6
CONTINUOUS
 10
2.742960
 20
3.297800
  0
VERTEX
  8
0
  6
CONTINUOUS
 10
2.742960
 20
2.550680
  0
SEQEND
  8
0
  0
SOLID
  8
0
 62
    15
 10
2.804120
 20
3.297360
 11
2.794880
 21
4.039200
 12
2.871440
 22
3.296040
 13
2.862200
 23
4.037880
  0
POLYLINE
  8
0
  6
CONTINUOUS
 66
     1
 40
0.000000
 41
0.000000
  0
VERTEX
  8
0
  6
CONTINUOUS
 10
2.804120
 20
3.297360
  0
VERTEX
  8
0
  6
CONTINUOUS
 10
2.794880
 20
4.039200
  0
VERTEX
  8
0
  6
CONTINUOUS
 10
2.862200
 20
4.037880
  0
VERTEX
  8
0
  6
CONTINUOUS
 10
2.871440
 20
3.296040
  0
VERTEX
  8
0
  6
CONTINUOUS
 10
2.804120
 20
3.297360
  0
SEQEND
  8
0
  0
SOLID
  8
0
 62
    15
 10
2.871440
 20
3.296040
 11
2.862200
 21
4.037880
 12
2.944040
 22
3.292960
 13
2.934800
 23
4.035240
  0
POLYLINE
  8
0
  6
CONTINUOUS
 66
     1
 40
0.000000
 41
0.000000
  0
VERTEX
  8
0
  6
CONTINUOUS
 10
2.871440
 20
3.296040
  0
VERTEX
  8
0
  6
CONTINUOUS
 10
2.862200
 20
4.037880
  0
VERTEX
  8
0
  6
CONTINUOUS
 10
2.934800
 20
4.035240
  0
VERTEX
  8
0
  6
CONTINUOUS
 10
2.944040
 20
3.292960
  0
VERTEX
  8
0
  6
CONTINUOUS
 10
2.871440
 20
3.296040
  0
SEQEND
  8
0
  0
SOLID
  8
0
 62
    15
 10
2.944040
 20
3.292960
 11
2.934800
 21
4.035240
 12
3.021920
 22
3.289000
 13
3.012680
 23
4.030840
  0
POLYLINE
  8
0
  6
CONTINUOUS
 66
     1
 40
0.000000
 41
0.000000
  0
VERTEX
  8
0
  6
CONTINUOUS
 10
2.944040
 20
3.292960
  0
VERTEX
  8
0
  6
CONTINUOUS
 10
2.934800
 20
4.035240
  0
VERTEX
  8
0
  6
CONTINUOUS
 10
3.012680
 20
4.030840
  0
VERTEX
  8
0
  6
CONTINUOUS
 10
3.021920
 20
3.289000
  0
VERTEX
  8
0
  6
CONTINUOUS
 10
2.944040
 20
3.292960
  0
SEQEND
  8
0
  0
SOLID
  8
0
 62
    15
 10
3.021920
 20
3.289000
 11
3.012680
 21
4.030840
 12
3.104200
 22
3.284160
 13
3.094960
 23
4.026000
  0
POLYLINE
  8
0
  6
CONTINUOUS
 66
     1
 40
0.000000
 41
0.000000
  0
VERTEX
  8
0
  6
CONTINUOUS
 10
3.021920
 20
3.289000
  0
VERTEX
  8
0
  6
CONTINUOUS
 10
3.012680
 20
4.030840
  0
VERTEX
  8
0
  6
CONTINUOUS
 10
3.094960
 20
4.026000
  0
VERTEX
  8
0
  6
CONTINUOUS
 10
3.104200
 20
3.284160
  0
VERTEX
  8
0
  6
CONTINUOUS
 10
3.021920
 20
3.289000
  0
SEQEND
  8
0
  0
SOLID
  8
0
 62
    15
 10
3.104200
 20
3.284160
 11
3.094960
 21
4.026000
 12
3.190440
 22
3.277120
 13
3.181200
 23
4.018960
  0
POLYLINE
  8
0
  6
CONTINUOUS
 66
     1
 40
0.000000
 41
0.000000
  0
VERTEX
  8
0
  6
CONTINUOUS
 10
3.104200
 20
3.284160
  0
VERTEX
  8
0
  6
CONTINUOUS
 10
3.094960
 20
4.026000
  0
VERTEX
  8
0
  6
CONTINUOUS
 10
3.181200
 20
4.018960
  0
VERTEX
  8
0
  6
CONTINUOUS
 10
3.190440
 20
3.277120
  0
VERTEX
  8
0
  6
CONTINUOUS
 10
3.104200
 20
3.284160
  0
SEQEND
  8
0
  0
SOLID
  8
0
 62
    15
 10
3.190440
 20
3.277120
 11
3.181200
 21
4.018960
 12
3.373480
 22
3.259520
 13
3.363800
 23
4.001360
  0
POLYLINE
  8
0
  6
CONTINUOUS
 66
     1
 40
0.000000
 41
0.000000
  0
VERTEX
  8
0
  6
CONTINUOUS
 10
3.190440
 20
3.277120
  0
VERTEX
  8
0
  6
CONTINUOUS
 10
3.181200
 20
4.018960
  0
VERTEX
  8
0
  6
CONTINUOUS
 10
3.363800
 20
4.001360
  0
VERTEX
  8
0
  6
CONTINUOUS
 10
3.373480
 20
3.259520
  0
VERTEX
  8
0
  6
CONTINUOUS
 10
3.190440
 20
3.277120
  0
SEQEND
  8
0
  0
SOLID
  8
0
 62
    15
 10
3.373480
 20
3.259520
 11
3.363800
 21
4.001360
 12
3.566200
 22
3.234880
 13
3.556960
 23
3.976720
  0
POLYLINE
  8
0
  6
CONTINUOUS
 66
     1
 40
0.000000
 41
0.000000
  0
VERTEX
  8
0
  6
CONTINUOUS
 10
3.373480
 20
3.259520
  0
VERTEX
  8
0
  6
CONTINUOUS
 10
3.363800
 20
4.001360
  0
VERTEX
  8
0
  6
CONTINUOUS
 10
3.556960
 20
3.976720
  0
VERTEX
  8
0
  6
CONTINUOUS
 10
3.566200
 20
3.234880
  0
VERTEX
  8
0
  6
CONTINUOUS
 10
3.373480
 20
3.259520
  0
SEQEND
  8
0
  0
SOLID
  8
0
 62
    15
 10
3.566200
 20
3.234880
 11
3.556960
 21
3.976720
 12
3.765080
 22
3.203200
 13
3.755840
 23
3.945040
  0
POLYLINE
  8
0
  6
CONTINUOUS
 66
     1
 40
0.000000
 41
0.000000
  0
VERTEX
  8
0
  6
CONTINUOUS
 10
3.566200
 20
3.234880
  0
VERTEX
  8
0
  6
CONTINUOUS
 10
3.556960
 20
3.976720
  0
VERTEX
  8
0
  6
CONTINUOUS
 10
3.755840
 20
3.945040
  0
VERTEX
  8
0
  6
CONTINUOUS
 10
3.765080
 20
3.203200
  0
VERTEX
  8
0
  6
CONTINUOUS
 10
3.566200
 20
3.234880
  0
SEQEND
  8
0
  0
SOLID
  8
0
 62
    15
 10
3.765080
 20
3.203200
 11
3.755840
 21
3.945040
 12
3.966160
 22
3.163600
 13
3.956920
 23
3.905440
  0
POLYLINE
  8
0
  6
CONTINUOUS
 66
     1
 40
0.000000
 41
0.000000
  0
VERTEX
  8
0
  6
CONTINUOUS
 10
3.765080
 20
3.203200
  0
VERTEX
  8
0
  6
CONTINUOUS
 10
3.755840
 20
3.945040
  0
VERTEX
  8
0
  6
CONTINUOUS
 10
3.956920
 20
3.905440
  0
VERTEX
  8
0
  6
CONTINUOUS
 10
3.966160
 20
3.163600
  0
VERTEX
  8
0
  6
CONTINUOUS
 10
3.765080
 20
3.203200
  0
SEQEND
  8
0
  0
SOLID
  8
0
 62
    15
 10
3.966160
 20
3.163600
 11
3.956920
 21
3.905440
 12
4.165480
 22
3.115200
 13
4.156240
 23
3.857040
  0
POLYLINE
  8
0
  6
CONTINUOUS
 66
     1
 40
0.000000
 41
0.000000
  0
VERTEX
  8
0
  6
CONTINUOUS
 10
3.966160
 20
3.163600
  0
VERTEX
  8
0
  6
CONTINUOUS
 10
3.956920
 20
3.905440
  0
VERTEX
  8
0
  6
CONTINUOUS
 10
4.156240
 20
3.857040
  0
VERTEX
  8
0
  6
CONTINUOUS
 10
4.165480
 20
3.115200
  0
VERTEX
  8
0
  6
CONTINUOUS
 10
3.966160
 20
3.163600
  0
SEQEND
  8
0
  0
SOLID
  8
0
 62
    15
 10
2.742960
 20
3.297800
 11
2.733720
 21
4.039640
 12
2.804120
 22
3.297360
 13
2.794880
 23
4.039200
  0
POLYLINE
  8
0
  6
CONTINUOUS
 66
     1
 40
0.000000
 41
0.000000
  0
VERTEX
  8
0
  6
CONTINUOUS
 10
2.742960
 20
3.297800
  0
VERTEX
  8
0
  6
CONTINUOUS
 10
2.733720
 20
4.039640
  0
VERTEX
  8
0
  6
CONTINUOUS
 10
2.794880
 20
4.039200
  0
VERTEX
  8
0
  6
CONTINUOUS
 10
2.804120
 20
3.297360
  0
VERTEX
  8
0
  6
CONTINUOUS
 10
2.742960
 20
3.297800
  0
SEQEND
  8
0
  0
SOLID
  8
0
 62
    15
 10
4.262280
 20
3.089680
 11
4.253040
 21
3.831520
 12
4.356440
 22
3.066360
 13
4.346760
 23
3.808200
  0
POLYLINE
  8
0
  6
CONTINUOUS
 66
     1
 40
0.000000
 41
0.000000
  0
VERTEX
  8
0
  6
CONTINUOUS
 10
4.262280
 20
3.089680
  0
VERTEX
  8
0
  6
CONTINUOUS
 10
4.253040
 20
3.831520
  0
VERTEX
  8
0
  6
CONTINUOUS
 10
4.346760
 20
3.808200
  0
VERTEX
  8
0
  6
CONTINUOUS
 10
4.356440
 20
3.066360
  0
VERTEX
  8
0
  6
CONTINUOUS
 10
4.262280
 20
3.089680
  0
SEQEND
  8
0
  0
SOLID
  8
0
 62
    15
 10
4.356440
 20
3.066360
 11
4.346760
 21
3.808200
 12
4.538160
 22
3.025440
 13
4.528920
 23
3.767280
  0
POLYLINE
  8
0
  6
CONTINUOUS
 66
     1
 40
0.000000
 41
0.000000
  0
VERTEX
  8
0
  6
CONTINUOUS
 10
4.356440
 20
3.066360
  0
VERTEX
  8
0
  6
CONTINUOUS
 10
4.346760
 20
3.808200
  0
VERTEX
  8
0
  6
CONTINUOUS
 10
4.528920
 20
3.767280
  0
VERTEX
  8
0
  6
CONTINUOUS
 10
4.538160
 20
3.025440
  0
VERTEX
  8
0
  6
CONTINUOUS
 10
4.356440
 20
3.066360
  0
SEQEND
  8
0
  0
SOLID
  8
0
 62
    15
 10
4.538160
 20
3.025440
 11
4.528920
 21
3.767280
 12
4.718560
 22
2.992000
 13
4.708880
 23
3.733840
  0
POLYLINE
  8
0
  6
CONTINUOUS
 66
     1
 40
0.000000
 41
0.000000
  0
VERTEX
  8
0
  6
CONTINUOUS
 10
4.538160
 20
3.025440
  0
VERTEX
  8
0
  6
CONTINUOUS
 10
4.528920
 20
3.767280
  0
VERTEX
  8
0
  6
CONTINUOUS
 10
4.708880
 20
3.733840
  0
VERTEX
  8
0
  6
CONTINUOUS
 10
4.718560
 20
2.992000
  0
VERTEX
  8
0
  6
CONTINUOUS
 10
4.538160
 20
3.025440
  0
SEQEND
  8
0
  0
SOLID
  8
0
 62
    15
 10
4.718560
 20
2.992000
 11
4.708880
 21
3.733840
 12
4.903800
 22
2.965600
 13
4.894560
 23
3.707440
  0
POLYLINE
  8
0
  6
CONTINUOUS
 66
     1
 40
0.000000
 41
0.000000
  0
VERTEX
  8
0
  6
CONTINUOUS
 10
4.718560
 20
2.992000
  0
VERTEX
  8
0
  6
CONTINUOUS
 10
4.708880
 20
3.733840
  0
VERTEX
  8
0
  6
CONTINUOUS
 10
4.894560
 20
3.707440
  0
VERTEX
  8
0
  6
CONTINUOUS
 10
4.903800
 20
2.965600
  0
VERTEX
  8
0
  6
CONTINUOUS
 10
4.718560
 20
2.992000
  0
SEQEND
  8
0
  0
SOLID
  8
0
 62
    15
 10
4.903800
 20
2.965600
 11
4.894560
 21
3.707440
 12
5.001040
 22
2.954600
 13
4.991360
 23
3.696440
  0
POLYLINE
  8
0
  6
CONTINUOUS
 66
     1
 40
0.000000
 41
0.000000
  0
VERTEX
  8
0
  6
CONTINUOUS
 10
4.903800
 20
2.965600
  0
VERTEX
  8
0
  6
CONTINUOUS
 10
4.894560
 20
3.707440
  0
VERTEX
  8
0
  6
CONTINUOUS
 10
4.991360
 20
3.696440
  0
VERTEX
  8
0
  6
CONTINUOUS
 10
5.001040
 20
2.954600
  0
VERTEX
  8
0
  6
CONTINUOUS
 10
4.903800
 20
2.965600
  0
SEQEND
  8
0
  0
SOLID
  8
0
 62
    15
 10
5.001040
 20
2.954600
 11
4.991360
 21
3.696440
 12
5.101800
 22
2.945800
 13
5.092560
 23
3.687640
  0
POLYLINE
  8
0
  6
CONTINUOUS
 66
     1
 40
0.000000
 41
0.000000
  0
VERTEX
  8
0
  6
CONTINUOUS
 10
5.001040
 20
2.954600
  0
VERTEX
  8
0
  6
CONTINUOUS
 10
4.991360
 20
3.696440
  0
VERTEX
  8
0
  6
CONTINUOUS
 10
5.092560
 20
3.687640
  0
VERTEX
  8
0
  6
CONTINUOUS
 10
5.101800
 20
2.945800
  0
VERTEX
  8
0
  6
CONTINUOUS
 10
5.001040
 20
2.954600
  0
SEQEND
  8
0
  0
SOLID
  8
0
 62
    15
 10
5.101800
 20
2.945800
 11
5.092560
 21
3.687640
 12
5.207400
 22
2.937880
 13
5.198160
 23
3.679720
  0
POLYLINE
  8
0
  6
CONTINUOUS
 66
     1
 40
0.000000
 41
0.000000
  0
VERTEX
  8
0
  6
CONTINUOUS
 10
5.101800
 20
2.945800
  0
VERTEX
  8
0
  6
CONTINUOUS
 10
5.092560
 20
3.687640
  0
VERTEX
  8
0
  6
CONTINUOUS
 10
5.198160
 20
3.679720
  0
VERTEX
  8
0
  6
CONTINUOUS
 10
5.207400
 20
2.937880
  0
VERTEX
  8
0
  6
CONTINUOUS
 10
5.101800
 20
2.945800
  0
SEQEND
  8
0
  0
SOLID
  8
0
 62
    15
 10
5.207400
 20
2.937880
 11
5.198160
 21
3.679720
 12
5.318720
 22
2.931720
 13
5.309040
 23
3.673560
  0
POLYLINE
  8
0
  6
CONTINUOUS
 66
     1
 40
0.000000
 41
0.000000
  0
VERTEX
  8
0
  6
CONTINUOUS
 10
5.207400
 20
2.937880
  0
VERTEX
  8
0
  6
CONTINUOUS
 10
5.198160
 20
3.679720
  0
VERTEX
  8
0
  6
CONTINUOUS
 10
5.309040
 20
3.673560
  0
VERTEX
  8
0
  6
CONTINUOUS
 10
5.318720
 20
2.931720
  0
VERTEX
  8
0
  6
CONTINUOUS
 10
5.207400
 20
2.937880
  0
SEQEND
  8
0
  0
SOLID
  8
0
 62
    15
 10
5.318720
 20
2.931720
 11
5.309040
 21
3.673560
 12
5.436200
 22
2.927320
 13
5.426960
 23
3.669160
  0
POLYLINE
  8
0
  6
CONTINUOUS
 66
     1
 40
0.000000
 41
0.000000
  0
VERTEX
  8
0
  6
CONTINUOUS
 10
5.318720
 20
2.931720
  0
VERTEX
  8
0
  6
CONTINUOUS
 10
5.309040
 20
3.673560
  0
VERTEX
  8
0
  6
CONTINUOUS
 10
5.426960
 20
3.669160
  0
VERTEX
  8
0
  6
CONTINUOUS
 10
5.436200
 20
2.927320
  0
VERTEX
  8
0
  6
CONTINUOUS
 10
5.318720
 20
2.931720
  0
SEQEND
  8
0
  0
SOLID
  8
0
 62
    15
 10
5.436200
 20
2.927320
 11
5.426960
 21
3.669160
 12
5.561600
 22
2.923800
 13
5.552360
 23
3.665640
  0
POLYLINE
  8
0
  6
CONTINUOUS
 66
     1
 40
0.000000
 41
0.000000
  0
VERTEX
  8
0
  6
CONTINUOUS
 10
5.436200
 20
2.927320
  0
VERTEX
  8
0
  6
CONTINUOUS
 10
5.426960
 20
3.669160
  0
VERTEX
  8
0
  6
CONTINUOUS
 10
5.552360
 20
3.665640
  0
VERTEX
  8
0
  6
CONTINUOUS
 10
5.561600
 20
2.923800
  0
VERTEX
  8
0
  6
CONTINUOUS
 10
5.436200
 20
2.927320
  0
SEQEND
  8
0
  0
SOLID
  8
0
 62
    15
 10
5.561600
 20
2.923800
 11
5.552360
 21
3.665640
 12
5.694920
 22
2.922040
 13
5.685680
 23
3.663880
  0
POLYLINE
  8
0
  6
CONTINUOUS
 66
     1
 40
0.000000
 41
0.000000
  0
VERTEX
  8
0
  6
CONTINUOUS
 10
5.561600
 20
2.923800
  0
VERTEX
  8
0
  6
CONTINUOUS
 10
5.552360
 20
3.665640
  0
VERTEX
  8
0
  6
CONTINUOUS
 10
5.685680
 20
3.663880
  0
VERTEX
  8
0
  6
CONTINUOUS
 10
5.694920
 20
2.922040
  0
VERTEX
  8
0
  6
CONTINUOUS
 10
5.561600
 20
2.923800
  0
SEQEND
  8
0
  0
SOLID
  8
0
 62
    15
 10
5.694920
 20
2.922040
 11
5.685680
 21
3.663880
 12
5.837480
 22
2.921600
 13
5.828240
 23
3.663440
  0
POLYLINE
  8
0
  6
CONTINUOUS
 66
     1
 40
0.000000
 41
0.000000
  0
VERTEX
  8
0
  6
CONTINUOUS
 10
5.694920
 20
2.922040
  0
VERTEX
  8
0
  6
CONTINUOUS
 10
5.685680
 20
3.663880
  0
VERTEX
  8
0
  6
CONTINUOUS
 10
5.828240
 20
3.663440
  0
VERTEX
  8
0
  6
CONTINUOUS
 10
5.837480
 20
2.921600
  0
VERTEX
  8
0
  6
CONTINUOUS
 10
5.694920
 20
2.922040
  0
SEQEND
  8
0
  0
POLYLINE
  8
0
  6
CONTINUOUS
 66
     1
 40
0.000000
 41
0.000000
  0
VERTEX
  8
0
  6
CONTINUOUS
 10
5.699320
 20
2.550680
  0
VERTEX
  8
0
  6
CONTINUOUS
 10
2.742960
 20
2.550680
  0
VERTEX
  8
0
  6
CONTINUOUS
 10
2.742960
 20
3.297800
  0
VERTEX
  8
0
  6
CONTINUOUS
 10
2.804120
 20
3.297360
  0
VERTEX
  8
0
  6
CONTINUOUS
 10
2.871440
 20
3.296040
  0
VERTEX
  8
0
  6
CONTINUOUS
 10
2.944040
 20
3.292960
  0
VERTEX
  8
0
  6
CONTINUOUS
 10
3.021920
 20
3.289000
  0
VERTEX
  8
0
  6
CONTINUOUS
 10
3.104200
 20
3.284160
  0
VERTEX
  8
0
  6
CONTINUOUS
 10
3.190440
 20
3.277120
  0
VERTEX
  8
0
  6
CONTINUOUS
 10
3.373480
 20
3.259520
  0
VERTEX
  8
0
  6
CONTINUOUS
 10
3.566200
 20
3.234880
  0
VERTEX
  8
0
  6
CONTINUOUS
 10
3.765080
 20
3.203200
  0
VERTEX
  8
0
  6
CONTINUOUS
 10
3.966160
 20
3.163600
  0
VERTEX
  8
0
  6
CONTINUOUS
 10
4.165480
 20
3.115200
  0
VERTEX
  8
0
  6
CONTINUOUS
 10
4.262280
 20
3.089680
  0
VERTEX
  8
0
  6
CONTINUOUS
 10
4.356440
 20
3.066360
  0
VERTEX
  8
0
  6
CONTINUOUS
 10
4.538160
 20
3.025440
  0
VERTEX
  8
0
  6
CONTINUOUS
 10
4.718560
 20
2.992000
  0
VERTEX
  8
0
  6
CONTINUOUS
 10
4.903800
 20
2.965600
  0
VERTEX
  8
0
  6
CONTINUOUS
 10
5.001040
 20
2.954600
  0
VERTEX
  8
0
  6
CONTINUOUS
 10
5.101800
 20
2.945800
  0
VERTEX
  8
0
  6
CONTINUOUS
 10
5.207400
 20
2.937880
  0
VERTEX
  8
0
  6
CONTINUOUS
 10
5.318720
 20
2.931720
  0
VERTEX
  8
0
  6
CONTINUOUS
 10
5.436200
 20
2.927320
  0
VERTEX
  8
0
  6
CONTINUOUS
 10
5.561600
 20
2.923800
  0
VERTEX
  8
0
  6
CONTINUOUS
 10
5.694920
 20
2.922040
  0
VERTEX
  8
0
  6
CONTINUOUS
 10
5.837480
 20
2.921600
  0
VERTEX
  8
0
  6
CONTINUOUS
 10
5.837480
 20
2.550680
  0
VERTEX
  8
0
  6
CONTINUOUS
 10
5.699320
 20
2.550680
  0
SEQEND
  8
0
  0
TEXT
  8
0
 10
3.850000
 20
2.319240
 40
0.138027
  1
BA  1332
 41
1.000000
  7
SN0
 71
     0
 72
     5
 11
4.482431
 21
2.319240
  0
TEXT
  8
0
 10
3.714920
 20
2.166560
 40
0.138027
  1
3/4" x 3-1/16"
 41
1.000000
  7
SN0
 71
     0
 72
     5
 11
4.614941
 21
2.166560
  0
TEXT
  8
0
 10
3.472920
 20
4.756840
 40
0.138027
  1
BA  1332
 41
1.000000
  7
SN0
 71
     0
 72
     5
 11
4.105351
 21
4.756840
  0
TEXT
  8
0
 10
3.337400
 20
4.603720
 40
0.138027
  1
3/4" x 3-1/16"
 41
1.000000
  7
SN0
 71
     0
 72
     5
 11
4.237421
 21
4.603720
  0
ENDSEC
  0
EOF
