  0
SECTION
  2
HEADER
  9
$ACADVER
  1
AC1006
  9
$EXTMIN
 10
0.839520
 20
1.096040
  9
$EXTMAX
 10
7.330400
 20
9.815080
  9
$LTSCALE
 40
0.044000
  9
$PDMODE
 70
    35
  9
$PDSIZE
 40
0.035200
  0
ENDSEC
  0
SECTION
  2
TABLES
  0
TABLE
  2
LTYPE
 70
     9
  0
LTYPE
  2
CONTINUOUS
 70
    64
  3
Solid line
 72
    65
 73
     0
 40
0.000000
  0
LTYPE
  2
DASHED
 70
    64
  3
__ __ __ __ __ __ __ __ __ __ __ __ __ __ __
 72
    65
 73
     2
 40
0.000330
 49
0.000220
 49
-0.000110
  0
LTYPE
  2
HIDDEN
 70
    64
  3
 _ _ _ _ _ _ _ _ _ _ _ _ _ _ _ _ _ _ _ _ _ _
 72
    65
 73
     2
 40
0.000165
 49
0.000110
 49
-0.000055
  0
LTYPE
  2
CENTER
 70
    64
  3
____ _ ____ _ ____ _ ____ _ ____ _ ____ _ ____
 72
    65
 73
     4
 40
0.000880
 49
0.000550
 49
-0.000110
 49
0.000110
 49
-0.000110
  0
LTYPE
  2
PHANTOM
 70
    64
  3
_____ _ _ _____ _ _ _____ _ _ _____ _ _ ____
 72
    65
 73
     6
 40
0.001100
 49
0.000550
 49
-0.000110
 49
0.000110
 49
-0.000110
 49
0.000110
 49
-0.000110
  0
LTYPE
  2
DOT
 70
    64
  3
...............................................
 72
    65
 73
     2
 40
0.000110
 49
0.000000
 49
-0.000110
  0
LTYPE
  2
DASHDOT
 70
    64
  3
__ . __ . __ . __ . __ . __ . __ . __ . __ . __
 72
    65
 73
     4
 40
0.000440
 49
0.000220
 49
-0.000110
 49
0.000000
 49
-0.000110
  0
LTYPE
  2
BORDER
 70
    64
  3
__ __ . __ __ . __ __ . __ __ . __ __ . __ __
 72
    65
 73
     6
 40
0.000770
 49
0.000220
 49
-0.000110
 49
0.000220
 49
-0.000110
 49
0.000000
 49
-0.000110
  0
LTYPE
  2
DIVIDE
 70
    64
  3
__ . . __ . . __ . . __ . . __ . . __ . . __
 72
    65
 73
     6
 40
0.000550
 49
0.000220
 49
-0.000110
 49
0.000000
 49
-0.000110
 49
0.000000
 49
-0.000110
  0
LTYPE
  2
DOTDOT
 70
    64
  3
 . .  . .  . .  . .  . .  . . 
 72
    65
 73
     5
 40
0.000242
 49
-0.000110
 49
0.000000
 49
-0.000110
 49
0.000000
 49
-0.000110
  0
ENDTAB
  0
TABLE
  2
STYLE
 70
     2
  0
STYLE
 70
     0
  2
SN0
 40
0.000000
 41
0.000440
 50
0.000000
 71
     0
 42
0.000000
  3
ROMAND
  0
STYLE
 70
    68
  2
SV0
 40
0.000000
 41
0.000440
 50
0.000000
 71
     0
 42
0.000000
  3
ROMAND
  0
ENDTAB
  0
TABLE
  2
LAYER
 70
     3
  0
LAYER
  2
FOREGROUND
 70
    64
 62
     7
  6
CONTINUOUS
  0
LAYER
  2
BACKGROUND
 70
    65
 62
    -7
  6
CONTINUOUS
  0
LAYER
  2
0
 70
    64
 62
     7
  6
CONTINUOUS
  0
ENDTAB
  0
ENDSEC
  0
SECTION
  2
ENTITIES
  0
POLYLINE
  8
FOREGROUND
  6
CONTINUOUS
 66
     1
 40
0.000000
 41
0.000000
  0
VERTEX
  8
FOREGROUND
  6
CONTINUOUS
 10
0.000000
 20
10.911120
  0
VERTEX
  8
FOREGROUND
  6
CONTINUOUS
 10
8.499920
 20
10.911120
  0
VERTEX
  8
FOREGROUND
  6
CONTINUOUS
 10
8.499920
 20
-0.088880
  0
VERTEX
  8
FOREGROUND
  6
CONTINUOUS
 10
0.000000
 20
-0.088880
  0
VERTEX
  8
FOREGROUND
  6
CONTINUOUS
 10
0.000000
 20
10.911120
  0
SEQEND
  8
0
  0
POLYLINE
  8
FOREGROUND
  6
CONTINUOUS
 66
     1
 40
0.000000
 41
0.000000
  0
VERTEX
  8
FOREGROUND
  6
CONTINUOUS
 10
0.000000
 20
10.911120
  0
VERTEX
  8
FOREGROUND
  6
CONTINUOUS
 10
8.499920
 20
10.911120
  0
VERTEX
  8
FOREGROUND
  6
CONTINUOUS
 10
8.499920
 20
-0.088880
  0
VERTEX
  8
FOREGROUND
  6
CONTINUOUS
 10
0.000000
 20
-0.088880
  0
VERTEX
  8
FOREGROUND
  6
CONTINUOUS
 10
0.000000
 20
10.911120
  0
SEQEND
  8
0
  0
POLYLINE
  8
0
  6
CONTINUOUS
 66
     1
 40
0.014080
 41
0.014080
  0
VERTEX
  8
0
  6
CONTINUOUS
 10
5.978280
 20
8.005360
  0
VERTEX
  8
0
  6
CONTINUOUS
 10
2.713920
 20
8.005360
  0
VERTEX
  8
0
  6
CONTINUOUS
 10
1.264120
 20
9.455600
  0
VERTEX
  8
0
  6
CONTINUOUS
 10
1.622280
 20
9.803640
  0
VERTEX
  8
0
  6
CONTINUOUS
 10
1.657040
 20
9.757880
  0
VERTEX
  8
0
  6
CONTINUOUS
 10
1.733600
 20
9.665480
  0
VERTEX
  8
0
  6
CONTINUOUS
 10
1.818080
 20
9.572200
  0
VERTEX
  8
0
  6
CONTINUOUS
 10
1.910480
 20
9.478480
  0
VERTEX
  8
0
  6
CONTINUOUS
 10
1.959760
 20
9.431400
  0
VERTEX
  8
0
  6
CONTINUOUS
 10
2.064040
 20
9.339000
  0
VERTEX
  8
0
  6
CONTINUOUS
 10
2.175800
 20
9.247480
  0
VERTEX
  8
0
  6
CONTINUOUS
 10
2.294600
 20
9.158600
  0
VERTEX
  8
0
  6
CONTINUOUS
 10
2.420440
 20
9.072800
  0
VERTEX
  8
0
  6
CONTINUOUS
 10
2.485560
 20
9.031000
  0
VERTEX
  8
0
  6
CONTINUOUS
 10
2.621080
 20
8.950920
  0
VERTEX
  8
0
  6
CONTINUOUS
 10
2.763200
 20
8.875680
  0
VERTEX
  8
0
  6
CONTINUOUS
 10
2.911040
 20
8.806160
  0
VERTEX
  8
0
  6
CONTINUOUS
 10
2.987600
 20
8.773600
  0
VERTEX
  8
0
  6
CONTINUOUS
 10
3.065040
 20
8.742800
  0
VERTEX
  8
0
  6
CONTINUOUS
 10
3.144240
 20
8.713760
  0
VERTEX
  8
0
  6
CONTINUOUS
 10
3.224320
 20
8.686480
  0
VERTEX
  8
0
  6
CONTINUOUS
 10
3.306160
 20
8.660960
  0
VERTEX
  8
0
  6
CONTINUOUS
 10
3.431120
 20
8.627080
  0
VERTEX
  8
0
  6
CONTINUOUS
 10
3.516040
 20
8.606840
  0
VERTEX
  8
0
  6
CONTINUOUS
 10
3.645840
 20
8.580880
  0
VERTEX
  8
0
  6
CONTINUOUS
 10
3.778280
 20
8.560200
  0
VERTEX
  8
0
  6
CONTINUOUS
 10
3.912920
 20
8.545680
  0
VERTEX
  8
0
  6
CONTINUOUS
 10
4.004440
 20
8.539080
  0
VERTEX
  8
0
  6
CONTINUOUS
 10
4.096840
 20
8.535120
  0
VERTEX
  8
0
  6
CONTINUOUS
 10
4.190120
 20
8.534240
  0
VERTEX
  8
0
  6
CONTINUOUS
 10
4.284280
 20
8.536000
  0
VERTEX
  8
0
  6
CONTINUOUS
 10
4.379760
 20
8.541280
  0
VERTEX
  8
0
  6
CONTINUOUS
 10
4.476120
 20
8.549200
  0
VERTEX
  8
0
  6
CONTINUOUS
 10
4.622200
 20
8.567240
  0
VERTEX
  8
0
  6
CONTINUOUS
 10
4.720760
 20
8.583520
  0
VERTEX
  8
0
  6
CONTINUOUS
 10
4.869920
 20
8.614320
  0
VERTEX
  8
0
  6
CONTINUOUS
 10
4.970240
 20
8.639400
  0
VERTEX
  8
0
  6
CONTINUOUS
 10
5.122480
 20
8.683840
  0
VERTEX
  8
0
  6
CONTINUOUS
 10
5.224560
 20
8.718160
  0
VERTEX
  8
0
  6
CONTINUOUS
 10
5.327520
 20
8.756440
  0
VERTEX
  8
0
  6
CONTINUOUS
 10
5.431360
 20
8.798680
  0
VERTEX
  8
0
  6
CONTINUOUS
 10
5.587560
 20
8.869960
  0
VERTEX
  8
0
  6
CONTINUOUS
 10
5.692720
 20
8.922320
  0
VERTEX
  8
0
  6
CONTINUOUS
 10
5.851560
 20
9.009440
  0
VERTEX
  8
0
  6
CONTINUOUS
 10
6.011280
 20
9.106240
  0
VERTEX
  8
0
  6
CONTINUOUS
 10
6.171880
 20
9.213600
  0
VERTEX
  8
0
  6
CONTINUOUS
 10
6.279680
 20
9.291040
  0
VERTEX
  8
0
  6
CONTINUOUS
 10
6.387480
 20
9.372880
  0
VERTEX
  8
0
  6
CONTINUOUS
 10
6.550280
 20
9.505320
  0
VERTEX
  8
0
  6
CONTINUOUS
 10
6.713520
 20
9.649200
  0
VERTEX
  8
0
  6
CONTINUOUS
 10
6.822640
 20
9.751280
  0
VERTEX
  8
0
  6
CONTINUOUS
 10
6.877200
 20
9.804520
  0
VERTEX
  8
0
  6
CONTINUOUS
 10
7.320720
 20
9.348680
  0
VERTEX
  8
0
  6
CONTINUOUS
 10
5.978280
 20
8.005360
  0
SEQEND
  8
0
  0
POLYLINE
  8
0
  6
CONTINUOUS
 66
     1
 40
0.000000
 41
0.000000
  0
VERTEX
  8
0
  6
CONTINUOUS
 10
5.554560
 20
1.096480
  0
VERTEX
  8
0
  6
CONTINUOUS
 10
2.290200
 20
1.096480
  0
VERTEX
  8
0
  6
CONTINUOUS
 10
0.840400
 20
2.546280
  0
VERTEX
  8
0
  6
CONTINUOUS
 10
1.198560
 20
2.894760
  0
VERTEX
  8
0
  6
CONTINUOUS
 10
1.270720
 20
2.802800
  0
VERTEX
  8
0
  6
CONTINUOUS
 10
1.351240
 20
2.709960
  0
VERTEX
  8
0
  6
CONTINUOUS
 10
1.394360
 20
2.662880
  0
VERTEX
  8
0
  6
CONTINUOUS
 10
1.486760
 20
2.569160
  0
VERTEX
  8
0
  6
CONTINUOUS
 10
1.587520
 20
2.475880
  0
VERTEX
  8
0
  6
CONTINUOUS
 10
1.695320
 20
2.383920
  0
VERTEX
  8
0
  6
CONTINUOUS
 10
1.810600
 20
2.293720
  0
VERTEX
  8
0
  6
CONTINUOUS
 10
1.932920
 20
2.206160
  0
VERTEX
  8
0
  6
CONTINUOUS
 10
1.996280
 20
2.163480
  0
VERTEX
  8
0
  6
CONTINUOUS
 10
2.128720
 20
2.081200
  0
VERTEX
  8
0
  6
CONTINUOUS
 10
2.267760
 20
2.003760
  0
VERTEX
  8
0
  6
CONTINUOUS
 10
2.412520
 20
1.931160
  0
VERTEX
  8
0
  6
CONTINUOUS
 10
2.487320
 20
1.896840
  0
VERTEX
  8
0
  6
CONTINUOUS
 10
2.563440
 20
1.864280
  0
VERTEX
  8
0
  6
CONTINUOUS
 10
2.641320
 20
1.833480
  0
VERTEX
  8
0
  6
CONTINUOUS
 10
2.720080
 20
1.804440
  0
VERTEX
  8
0
  6
CONTINUOUS
 10
2.800600
 20
1.777160
  0
VERTEX
  8
0
  6
CONTINUOUS
 10
2.882440
 20
1.751640
  0
VERTEX
  8
0
  6
CONTINUOUS
 10
3.007400
 20
1.717760
  0
VERTEX
  8
0
  6
CONTINUOUS
 10
3.135000
 20
1.688280
  0
VERTEX
  8
0
  6
CONTINUOUS
 10
3.265680
 20
1.664080
  0
VERTEX
  8
0
  6
CONTINUOUS
 10
3.399000
 20
1.645600
  0
VERTEX
  8
0
  6
CONTINUOUS
 10
3.489200
 20
1.636360
  0
VERTEX
  8
0
  6
CONTINUOUS
 10
3.580280
 20
1.629760
  0
VERTEX
  8
0
  6
CONTINUOUS
 10
3.672680
 20
1.625800
  0
VERTEX
  8
0
  6
CONTINUOUS
 10
3.765960
 20
1.624920
  0
VERTEX
  8
0
  6
CONTINUOUS
 10
3.860560
 20
1.626680
  0
VERTEX
  8
0
  6
CONTINUOUS
 10
3.956040
 20
1.631960
  0
VERTEX
  8
0
  6
CONTINUOUS
 10
4.051960
 20
1.639880
  0
VERTEX
  8
0
  6
CONTINUOUS
 10
4.198040
 20
1.657920
  0
VERTEX
  8
0
  6
CONTINUOUS
 10
4.296600
 20
1.674200
  0
VERTEX
  8
0
  6
CONTINUOUS
 10
4.396040
 20
1.694000
  0
VERTEX
  8
0
  6
CONTINUOUS
 10
4.546520
 20
1.730080
  0
VERTEX
  8
0
  6
CONTINUOUS
 10
4.698320
 20
1.774520
  0
VERTEX
  8
0
  6
CONTINUOUS
 10
4.800840
 20
1.809280
  0
VERTEX
  8
0
  6
CONTINUOUS
 10
4.903800
 20
1.847120
  0
VERTEX
  8
0
  6
CONTINUOUS
 10
5.007200
 20
1.889360
  0
VERTEX
  8
0
  6
CONTINUOUS
 10
5.163840
 20
1.960640
  0
VERTEX
  8
0
  6
CONTINUOUS
 10
5.269000
 20
2.013000
  0
VERTEX
  8
0
  6
CONTINUOUS
 10
5.427400
 20
2.100120
  0
VERTEX
  8
0
  6
CONTINUOUS
 10
5.533880
 20
2.163480
  0
VERTEX
  8
0
  6
CONTINUOUS
 10
5.694480
 20
2.267320
  0
VERTEX
  8
0
  6
CONTINUOUS
 10
5.801840
 20
2.342120
  0
VERTEX
  8
0
  6
CONTINUOUS
 10
5.963760
 20
2.463560
  0
VERTEX
  8
0
  6
CONTINUOUS
 10
6.126120
 20
2.596000
  0
VERTEX
  8
0
  6
CONTINUOUS
 10
6.235240
 20
2.690600
  0
VERTEX
  8
0
  6
CONTINUOUS
 10
6.398920
 20
2.841960
  0
VERTEX
  8
0
  6
CONTINUOUS
 10
6.453480
 20
2.895200
  0
VERTEX
  8
0
  6
CONTINUOUS
 10
6.896560
 20
2.439800
  0
VERTEX
  8
0
  6
CONTINUOUS
 10
5.554560
 20
1.096480
  0
SEQEND
  8
0
  0
SOLID
  8
0
 62
    15
 10
3.749240
 20
6.423120
 11
4.364800
 21
6.088720
 12
3.467200
 22
6.197840
 13
4.082760
 23
5.863440
  0
POLYLINE
  8
0
  6
CONTINUOUS
 66
     1
 40
0.000000
 41
0.000000
  0
VERTEX
  8
0
  6
CONTINUOUS
 10
3.749240
 20
6.423120
  0
VERTEX
  8
0
  6
CONTINUOUS
 10
4.364800
 20
6.088720
  0
VERTEX
  8
0
  6
CONTINUOUS
 10
4.082760
 20
5.863440
  0
VERTEX
  8
0
  6
CONTINUOUS
 10
3.467200
 20
6.197840
  0
VERTEX
  8
0
  6
CONTINUOUS
 10
3.749240
 20
6.423120
  0
SEQEND
  8
0
  0
SOLID
  8
0
 62
    15
 10
6.042080
 20
7.000840
 11
6.657200
 21
6.666440
 12
5.803160
 22
7.022840
 13
6.418720
 23
6.688440
  0
POLYLINE
  8
0
  6
CONTINUOUS
 66
     1
 40
0.000000
 41
0.000000
  0
VERTEX
  8
0
  6
CONTINUOUS
 10
6.042080
 20
7.000840
  0
VERTEX
  8
0
  6
CONTINUOUS
 10
6.657200
 20
6.666440
  0
VERTEX
  8
0
  6
CONTINUOUS
 10
6.418720
 20
6.688440
  0
VERTEX
  8
0
  6
CONTINUOUS
 10
5.803160
 20
7.022840
  0
VERTEX
  8
0
  6
CONTINUOUS
 10
6.042080
 20
7.000840
  0
SEQEND
  8
0
  0
SOLID
  8
0
 62
    15
 10
5.803160
 20
7.022840
 11
6.418720
 21
6.688440
 12
5.539600
 22
7.022840
 13
6.155160
 23
6.688440
  0
POLYLINE
  8
0
  6
CONTINUOUS
 66
     1
 40
0.000000
 41
0.000000
  0
VERTEX
  8
0
  6
CONTINUOUS
 10
5.803160
 20
7.022840
  0
VERTEX
  8
0
  6
CONTINUOUS
 10
6.418720
 20
6.688440
  0
VERTEX
  8
0
  6
CONTINUOUS
 10
6.155160
 20
6.688440
  0
VERTEX
  8
0
  6
CONTINUOUS
 10
5.539600
 20
7.022840
  0
VERTEX
  8
0
  6
CONTINUOUS
 10
5.803160
 20
7.022840
  0
SEQEND
  8
0
  0
SOLID
  8
0
 62
    15
 10
5.539600
 20
7.022840
 11
6.155160
 21
6.688440
 12
5.257120
 22
6.999080
 13
5.872680
 23
6.664680
  0
POLYLINE
  8
0
  6
CONTINUOUS
 66
     1
 40
0.000000
 41
0.000000
  0
VERTEX
  8
0
  6
CONTINUOUS
 10
5.539600
 20
7.022840
  0
VERTEX
  8
0
  6
CONTINUOUS
 10
6.155160
 20
6.688440
  0
VERTEX
  8
0
  6
CONTINUOUS
 10
5.872680
 20
6.664680
  0
VERTEX
  8
0
  6
CONTINUOUS
 10
5.257120
 20
6.999080
  0
VERTEX
  8
0
  6
CONTINUOUS
 10
5.539600
 20
7.022840
  0
SEQEND
  8
0
  0
SOLID
  8
0
 62
    15
 10
5.257120
 20
6.999080
 11
5.872680
 21
6.664680
 12
4.961000
 22
6.948040
 13
5.576560
 23
6.613640
  0
POLYLINE
  8
0
  6
CONTINUOUS
 66
     1
 40
0.000000
 41
0.000000
  0
VERTEX
  8
0
  6
CONTINUOUS
 10
5.257120
 20
6.999080
  0
VERTEX
  8
0
  6
CONTINUOUS
 10
5.872680
 20
6.664680
  0
VERTEX
  8
0
  6
CONTINUOUS
 10
5.576560
 20
6.613640
  0
VERTEX
  8
0
  6
CONTINUOUS
 10
4.961000
 20
6.948040
  0
VERTEX
  8
0
  6
CONTINUOUS
 10
5.257120
 20
6.999080
  0
SEQEND
  8
0
  0
SOLID
  8
0
 62
    15
 10
4.961000
 20
6.948040
 11
5.576560
 21
6.613640
 12
4.656520
 22
6.867960
 13
5.272080
 23
6.533560
  0
POLYLINE
  8
0
  6
CONTINUOUS
 66
     1
 40
0.000000
 41
0.000000
  0
VERTEX
  8
0
  6
CONTINUOUS
 10
4.961000
 20
6.948040
  0
VERTEX
  8
0
  6
CONTINUOUS
 10
5.576560
 20
6.613640
  0
VERTEX
  8
0
  6
CONTINUOUS
 10
5.272080
 20
6.533560
  0
VERTEX
  8
0
  6
CONTINUOUS
 10
4.656520
 20
6.867960
  0
VERTEX
  8
0
  6
CONTINUOUS
 10
4.961000
 20
6.948040
  0
SEQEND
  8
0
  0
SOLID
  8
0
 62
    15
 10
4.656520
 20
6.867960
 11
5.272080
 21
6.533560
 12
4.349400
 22
6.755320
 13
4.964960
 23
6.420920
  0
POLYLINE
  8
0
  6
CONTINUOUS
 66
     1
 40
0.000000
 41
0.000000
  0
VERTEX
  8
0
  6
CONTINUOUS
 10
4.656520
 20
6.867960
  0
VERTEX
  8
0
  6
CONTINUOUS
 10
5.272080
 20
6.533560
  0
VERTEX
  8
0
  6
CONTINUOUS
 10
4.964960
 20
6.420920
  0
VERTEX
  8
0
  6
CONTINUOUS
 10
4.349400
 20
6.755320
  0
VERTEX
  8
0
  6
CONTINUOUS
 10
4.656520
 20
6.867960
  0
SEQEND
  8
0
  0
SOLID
  8
0
 62
    15
 10
4.349400
 20
6.755320
 11
4.964960
 21
6.420920
 12
4.044920
 22
6.607920
 13
4.660480
 23
6.273520
  0
POLYLINE
  8
0
  6
CONTINUOUS
 66
     1
 40
0.000000
 41
0.000000
  0
VERTEX
  8
0
  6
CONTINUOUS
 10
4.349400
 20
6.755320
  0
VERTEX
  8
0
  6
CONTINUOUS
 10
4.964960
 20
6.420920
  0
VERTEX
  8
0
  6
CONTINUOUS
 10
4.660480
 20
6.273520
  0
VERTEX
  8
0
  6
CONTINUOUS
 10
4.044920
 20
6.607920
  0
VERTEX
  8
0
  6
CONTINUOUS
 10
4.349400
 20
6.755320
  0
SEQEND
  8
0
  0
SOLID
  8
0
 62
    15
 10
4.044920
 20
6.607920
 11
4.660480
 21
6.273520
 12
3.749240
 22
6.423120
 13
4.364800
 23
6.088720
  0
POLYLINE
  8
0
  6
CONTINUOUS
 66
     1
 40
0.000000
 41
0.000000
  0
VERTEX
  8
0
  6
CONTINUOUS
 10
4.044920
 20
6.607920
  0
VERTEX
  8
0
  6
CONTINUOUS
 10
4.660480
 20
6.273520
  0
VERTEX
  8
0
  6
CONTINUOUS
 10
4.364800
 20
6.088720
  0
VERTEX
  8
0
  6
CONTINUOUS
 10
3.749240
 20
6.423120
  0
VERTEX
  8
0
  6
CONTINUOUS
 10
4.044920
 20
6.607920
  0
SEQEND
  8
0
  0
SOLID
  8
0
 62
    15
 10
6.046480
 20
7.500680
 11
6.661600
 21
7.166280
 12
6.042080
 22
7.000840
 13
6.657200
 23
6.666440
  0
POLYLINE
  8
0
  6
CONTINUOUS
 66
     1
 40
0.000000
 41
0.000000
  0
VERTEX
  8
0
  6
CONTINUOUS
 10
6.046480
 20
7.500680
  0
VERTEX
  8
0
  6
CONTINUOUS
 10
6.661600
 20
7.166280
  0
VERTEX
  8
0
  6
CONTINUOUS
 10
6.657200
 20
6.666440
  0
VERTEX
  8
0
  6
CONTINUOUS
 10
6.042080
 20
7.000840
  0
VERTEX
  8
0
  6
CONTINUOUS
 10
6.046480
 20
7.500680
  0
SEQEND
  8
0
  0
SOLID
  8
0
 62
    15
 10
3.467200
 20
6.197840
 11
4.082760
 21
5.863440
 12
3.204520
 22
5.929440
 13
3.820080
 23
5.595040
  0
POLYLINE
  8
0
  6
CONTINUOUS
 66
     1
 40
0.000000
 41
0.000000
  0
VERTEX
  8
0
  6
CONTINUOUS
 10
3.467200
 20
6.197840
  0
VERTEX
  8
0
  6
CONTINUOUS
 10
4.082760
 20
5.863440
  0
VERTEX
  8
0
  6
CONTINUOUS
 10
3.820080
 20
5.595040
  0
VERTEX
  8
0
  6
CONTINUOUS
 10
3.204520
 20
5.929440
  0
VERTEX
  8
0
  6
CONTINUOUS
 10
3.467200
 20
6.197840
  0
SEQEND
  8
0
  0
SOLID
  8
0
 62
    15
 10
3.204520
 20
5.929440
 11
3.820080
 21
5.595040
 12
2.966920
 22
5.615280
 13
3.582480
 23
5.280880
  0
POLYLINE
  8
0
  6
CONTINUOUS
 66
     1
 40
0.000000
 41
0.000000
  0
VERTEX
  8
0
  6
CONTINUOUS
 10
3.204520
 20
5.929440
  0
VERTEX
  8
0
  6
CONTINUOUS
 10
3.820080
 20
5.595040
  0
VERTEX
  8
0
  6
CONTINUOUS
 10
3.582480
 20
5.280880
  0
VERTEX
  8
0
  6
CONTINUOUS
 10
2.966920
 20
5.615280
  0
VERTEX
  8
0
  6
CONTINUOUS
 10
3.204520
 20
5.929440
  0
SEQEND
  8
0
  0
SOLID
  8
0
 62
    15
 10
2.966920
 20
5.615280
 11
3.582480
 21
5.280880
 12
2.759680
 22
5.253160
 13
3.375240
 23
4.918760
  0
POLYLINE
  8
0
  6
CONTINUOUS
 66
     1
 40
0.000000
 41
0.000000
  0
VERTEX
  8
0
  6
CONTINUOUS
 10
2.966920
 20
5.615280
  0
VERTEX
  8
0
  6
CONTINUOUS
 10
3.582480
 20
5.280880
  0
VERTEX
  8
0
  6
CONTINUOUS
 10
3.375240
 20
4.918760
  0
VERTEX
  8
0
  6
CONTINUOUS
 10
2.759680
 20
5.253160
  0
VERTEX
  8
0
  6
CONTINUOUS
 10
2.966920
 20
5.615280
  0
SEQEND
  8
0
  0
SOLID
  8
0
 62
    15
 10
2.759680
 20
5.253160
 11
3.375240
 21
4.918760
 12
2.588520
 22
4.839560
 13
3.204080
 23
4.505160
  0
POLYLINE
  8
0
  6
CONTINUOUS
 66
     1
 40
0.000000
 41
0.000000
  0
VERTEX
  8
0
  6
CONTINUOUS
 10
2.759680
 20
5.253160
  0
VERTEX
  8
0
  6
CONTINUOUS
 10
3.375240
 20
4.918760
  0
VERTEX
  8
0
  6
CONTINUOUS
 10
3.204080
 20
4.505160
  0
VERTEX
  8
0
  6
CONTINUOUS
 10
2.588520
 20
4.839560
  0
VERTEX
  8
0
  6
CONTINUOUS
 10
2.759680
 20
5.253160
  0
SEQEND
  8
0
  0
SOLID
  8
0
 62
    15
 10
2.588520
 20
4.839560
 11
3.204080
 21
4.505160
 12
2.458720
 22
4.372280
 13
3.074280
 23
4.037880
  0
POLYLINE
  8
0
  6
CONTINUOUS
 66
     1
 40
0.000000
 41
0.000000
  0
VERTEX
  8
0
  6
CONTINUOUS
 10
2.588520
 20
4.839560
  0
VERTEX
  8
0
  6
CONTINUOUS
 10
3.204080
 20
4.505160
  0
VERTEX
  8
0
  6
CONTINUOUS
 10
3.074280
 20
4.037880
  0
VERTEX
  8
0
  6
CONTINUOUS
 10
2.458720
 20
4.372280
  0
VERTEX
  8
0
  6
CONTINUOUS
 10
2.588520
 20
4.839560
  0
SEQEND
  8
0
  0
SOLID
  8
0
 62
    15
 10
2.458720
 20
4.372280
 11
3.074280
 21
4.037880
 12
2.376000
 22
3.848240
 13
2.991560
 23
3.513840
  0
POLYLINE
  8
0
  6
CONTINUOUS
 66
     1
 40
0.000000
 41
0.000000
  0
VERTEX
  8
0
  6
CONTINUOUS
 10
2.458720
 20
4.372280
  0
VERTEX
  8
0
  6
CONTINUOUS
 10
3.074280
 20
4.037880
  0
VERTEX
  8
0
  6
CONTINUOUS
 10
2.991560
 20
3.513840
  0
VERTEX
  8
0
  6
CONTINUOUS
 10
2.376000
 20
3.848240
  0
VERTEX
  8
0
  6
CONTINUOUS
 10
2.458720
 20
4.372280
  0
SEQEND
  8
0
  0
SOLID
  8
0
 62
    15
 10
2.376000
 20
3.848240
 11
2.991560
 21
3.513840
 12
2.354000
 22
3.564440
 13
2.969560
 23
3.230040
  0
POLYLINE
  8
0
  6
CONTINUOUS
 66
     1
 40
0.000000
 41
0.000000
  0
VERTEX
  8
0
  6
CONTINUOUS
 10
2.376000
 20
3.848240
  0
VERTEX
  8
0
  6
CONTINUOUS
 10
2.991560
 20
3.513840
  0
VERTEX
  8
0
  6
CONTINUOUS
 10
2.969560
 20
3.230040
  0
VERTEX
  8
0
  6
CONTINUOUS
 10
2.354000
 20
3.564440
  0
VERTEX
  8
0
  6
CONTINUOUS
 10
2.376000
 20
3.848240
  0
SEQEND
  8
0
  0
SOLID
  8
0
 62
    15
 10
2.354000
 20
3.564440
 11
2.969560
 21
3.230040
 12
2.346080
 22
3.265240
 13
2.961640
 23
2.930840
  0
POLYLINE
  8
0
  6
CONTINUOUS
 66
     1
 40
0.000000
 41
0.000000
  0
VERTEX
  8
0
  6
CONTINUOUS
 10
2.354000
 20
3.564440
  0
VERTEX
  8
0
  6
CONTINUOUS
 10
2.969560
 20
3.230040
  0
VERTEX
  8
0
  6
CONTINUOUS
 10
2.961640
 20
2.930840
  0
VERTEX
  8
0
  6
CONTINUOUS
 10
2.346080
 20
3.265240
  0
VERTEX
  8
0
  6
CONTINUOUS
 10
2.354000
 20
3.564440
  0
SEQEND
  8
0
  0
SOLID
  8
0
 62
    15
 10
2.346080
 20
3.265240
 11
2.961640
 21
2.930840
 12
1.710280
 22
3.270960
 13
2.325840
 23
2.936560
  0
POLYLINE
  8
0
  6
CONTINUOUS
 66
     1
 40
0.000000
 41
0.000000
  0
VERTEX
  8
0
  6
CONTINUOUS
 10
2.346080
 20
3.265240
  0
VERTEX
  8
0
  6
CONTINUOUS
 10
2.961640
 20
2.930840
  0
VERTEX
  8
0
  6
CONTINUOUS
 10
2.325840
 20
2.936560
  0
VERTEX
  8
0
  6
CONTINUOUS
 10
1.710280
 20
3.270960
  0
VERTEX
  8
0
  6
CONTINUOUS
 10
2.346080
 20
3.265240
  0
SEQEND
  8
0
  0
POLYLINE
  8
0
  6
CONTINUOUS
 66
     1
 40
0.000000
 41
0.000000
  0
VERTEX
  8
0
  6
CONTINUOUS
 10
1.699720
 20
5.169560
  0
VERTEX
  8
0
  6
CONTINUOUS
 10
3.995640
 20
7.490120
  0
VERTEX
  8
0
  6
CONTINUOUS
 10
6.046480
 20
7.500680
  0
VERTEX
  8
0
  6
CONTINUOUS
 10
6.042080
 20
7.000840
  0
VERTEX
  8
0
  6
CONTINUOUS
 10
5.803160
 20
7.022840
  0
VERTEX
  8
0
  6
CONTINUOUS
 10
5.539600
 20
7.022840
  0
VERTEX
  8
0
  6
CONTINUOUS
 10
5.257120
 20
6.999080
  0
VERTEX
  8
0
  6
CONTINUOUS
 10
4.961000
 20
6.948040
  0
VERTEX
  8
0
  6
CONTINUOUS
 10
4.656520
 20
6.867960
  0
VERTEX
  8
0
  6
CONTINUOUS
 10
4.349400
 20
6.755320
  0
VERTEX
  8
0
  6
CONTINUOUS
 10
4.044920
 20
6.607920
  0
VERTEX
  8
0
  6
CONTINUOUS
 10
3.749240
 20
6.423120
  0
VERTEX
  8
0
  6
CONTINUOUS
 10
3.467200
 20
6.197840
  0
VERTEX
  8
0
  6
CONTINUOUS
 10
3.204520
 20
5.929440
  0
VERTEX
  8
0
  6
CONTINUOUS
 10
2.966920
 20
5.615280
  0
VERTEX
  8
0
  6
CONTINUOUS
 10
2.759680
 20
5.253160
  0
VERTEX
  8
0
  6
CONTINUOUS
 10
2.588520
 20
4.839560
  0
VERTEX
  8
0
  6
CONTINUOUS
 10
2.458720
 20
4.372280
  0
VERTEX
  8
0
  6
CONTINUOUS
 10
2.376000
 20
3.848240
  0
VERTEX
  8
0
  6
CONTINUOUS
 10
2.354000
 20
3.564440
  0
VERTEX
  8
0
  6
CONTINUOUS
 10
2.346080
 20
3.265240
  0
VERTEX
  8
0
  6
CONTINUOUS
 10
1.710280
 20
3.270960
  0
VERTEX
  8
0
  6
CONTINUOUS
 10
1.700600
 20
5.169120
  0
VERTEX
  8
0
  6
CONTINUOUS
 10
1.699720
 20
5.169560
  0
SEQEND
  8
0
  0
TEXT
  8
0
 10
3.686320
 20
3.116960
 40
0.138274
  1
BA  1330
 41
1.000000
  7
SN0
 71
     0
 72
     5
 11
4.318886
 21
3.116960
  0
TEXT
  8
0
 10
3.399000
 20
2.964280
 40
0.138274
  1
1-13/16" x 6-1/16"
 41
1.000000
  7
SN0
 71
     0
 72
     5
 11
4.602228
 21
2.964280
  0
TEXT
  8
0
 10
4.018960
 20
8.261000
 40
0.138274
  1
BA  1330
 41
1.000000
  7
SN0
 71
     0
 72
     5
 11
4.651526
 21
8.261000
  0
TEXT
  8
0
 10
3.731200
 20
8.108320
 40
0.138274
  1
1-13/16" x 6-1/16"
 41
1.000000
  7
SN0
 71
     0
 72
     5
 11
4.934428
 21
8.108320
  0
ENDSEC
  0
EOF
