  0
SECTION
  2
HEADER
  9
$ACADVER
  1
AC1006
  9
$EXTMIN
 10
2.619320
 20
2.285360
  9
$EXTMAX
 10
6.074200
 20
5.621440
  9
$LTSCALE
 40
0.044000
  9
$PDMODE
 70
    35
  9
$PDSIZE
 40
0.035200
  0
ENDSEC
  0
SECTION
  2
TABLES
  0
TABLE
  2
LTYPE
 70
     9
  0
LTYPE
  2
CONTINUOUS
 70
    64
  3
Solid line
 72
    65
 73
     0
 40
0.000000
  0
LTYPE
  2
DASHED
 70
    64
  3
__ __ __ __ __ __ __ __ __ __ __ __ __ __ __
 72
    65
 73
     2
 40
0.000330
 49
0.000220
 49
-0.000110
  0
LTYPE
  2
HIDDEN
 70
    64
  3
 _ _ _ _ _ _ _ _ _ _ _ _ _ _ _ _ _ _ _ _ _ _
 72
    65
 73
     2
 40
0.000165
 49
0.000110
 49
-0.000055
  0
LTYPE
  2
CENTER
 70
    64
  3
____ _ ____ _ ____ _ ____ _ ____ _ ____ _ ____
 72
    65
 73
     4
 40
0.000880
 49
0.000550
 49
-0.000110
 49
0.000110
 49
-0.000110
  0
LTYPE
  2
PHANTOM
 70
    64
  3
_____ _ _ _____ _ _ _____ _ _ _____ _ _ ____
 72
    65
 73
     6
 40
0.001100
 49
0.000550
 49
-0.000110
 49
0.000110
 49
-0.000110
 49
0.000110
 49
-0.000110
  0
LTYPE
  2
DOT
 70
    64
  3
...............................................
 72
    65
 73
     2
 40
0.000110
 49
0.000000
 49
-0.000110
  0
LTYPE
  2
DASHDOT
 70
    64
  3
__ . __ . __ . __ . __ . __ . __ . __ . __ . __
 72
    65
 73
     4
 40
0.000440
 49
0.000220
 49
-0.000110
 49
0.000000
 49
-0.000110
  0
LTYPE
  2
BORDER
 70
    64
  3
__ __ . __ __ . __ __ . __ __ . __ __ . __ __
 72
    65
 73
     6
 40
0.000770
 49
0.000220
 49
-0.000110
 49
0.000220
 49
-0.000110
 49
0.000000
 49
-0.000110
  0
LTYPE
  2
DIVIDE
 70
    64
  3
__ . . __ . . __ . . __ . . __ . . __ . . __
 72
    65
 73
     6
 40
0.000550
 49
0.000220
 49
-0.000110
 49
0.000000
 49
-0.000110
 49
0.000000
 49
-0.000110
  0
LTYPE
  2
DOTDOT
 70
    64
  3
 . .  . .  . .  . .  . .  . . 
 72
    65
 73
     5
 40
0.000242
 49
-0.000110
 49
0.000000
 49
-0.000110
 49
0.000000
 49
-0.000110
  0
ENDTAB
  0
TABLE
  2
STYLE
 70
     2
  0
STYLE
 70
     0
  2
SN0
 40
0.000000
 41
0.000440
 50
0.000000
 71
     0
 42
0.000000
  3
ROMAND
  0
STYLE
 70
    68
  2
SV0
 40
0.000000
 41
0.000440
 50
0.000000
 71
     0
 42
0.000000
  3
ROMAND
  0
ENDTAB
  0
TABLE
  2
LAYER
 70
     3
  0
LAYER
  2
FOREGROUND
 70
    64
 62
     7
  6
CONTINUOUS
  0
LAYER
  2
BACKGROUND
 70
    65
 62
    -7
  6
CONTINUOUS
  0
LAYER
  2
0
 70
    64
 62
     7
  6
CONTINUOUS
  0
ENDTAB
  0
ENDSEC
  0
SECTION
  2
ENTITIES
  0
POLYLINE
  8
FOREGROUND
  6
CONTINUOUS
 66
     1
 40
0.000000
 41
0.000000
  0
VERTEX
  8
FOREGROUND
  6
CONTINUOUS
 10
0.000000
 20
7.906800
  0
VERTEX
  8
FOREGROUND
  6
CONTINUOUS
 10
8.499920
 20
7.906800
  0
VERTEX
  8
FOREGROUND
  6
CONTINUOUS
 10
8.499920
 20
-3.093200
  0
VERTEX
  8
FOREGROUND
  6
CONTINUOUS
 10
0.000000
 20
-3.093200
  0
VERTEX
  8
FOREGROUND
  6
CONTINUOUS
 10
0.000000
 20
7.906800
  0
SEQEND
  8
0
  0
POLYLINE
  8
FOREGROUND
  6
CONTINUOUS
 66
     1
 40
0.000000
 41
0.000000
  0
VERTEX
  8
FOREGROUND
  6
CONTINUOUS
 10
0.000000
 20
7.906800
  0
VERTEX
  8
FOREGROUND
  6
CONTINUOUS
 10
8.499920
 20
7.906800
  0
VERTEX
  8
FOREGROUND
  6
CONTINUOUS
 10
8.499920
 20
-3.093200
  0
VERTEX
  8
FOREGROUND
  6
CONTINUOUS
 10
0.000000
 20
-3.093200
  0
VERTEX
  8
FOREGROUND
  6
CONTINUOUS
 10
0.000000
 20
7.906800
  0
SEQEND
  8
0
  0
POLYLINE
  8
0
  6
CONTINUOUS
 66
     1
 40
0.014080
 41
0.014080
  0
VERTEX
  8
0
  6
CONTINUOUS
 10
3.041280
 20
4.247320
  0
VERTEX
  8
0
  6
CONTINUOUS
 10
3.041280
 20
5.332800
  0
VERTEX
  8
0
  6
CONTINUOUS
 10
3.370840
 20
5.332800
  0
VERTEX
  8
0
  6
CONTINUOUS
 10
3.370840
 20
5.188920
  0
VERTEX
  8
0
  6
CONTINUOUS
 10
3.384040
 20
5.187160
  0
VERTEX
  8
0
  6
CONTINUOUS
 10
3.396360
 20
5.184520
  0
VERTEX
  8
0
  6
CONTINUOUS
 10
3.408240
 20
5.181440
  0
VERTEX
  8
0
  6
CONTINUOUS
 10
3.419680
 20
5.177920
  0
VERTEX
  8
0
  6
CONTINUOUS
 10
3.430680
 20
5.173960
  0
VERTEX
  8
0
  6
CONTINUOUS
 10
3.440800
 20
5.169120
  0
VERTEX
  8
0
  6
CONTINUOUS
 10
3.450480
 20
5.164280
  0
VERTEX
  8
0
  6
CONTINUOUS
 10
3.459720
 20
5.158560
  0
VERTEX
  8
0
  6
CONTINUOUS
 10
3.476440
 20
5.146680
  0
VERTEX
  8
0
  6
CONTINUOUS
 10
3.491840
 20
5.133040
  0
VERTEX
  8
0
  6
CONTINUOUS
 10
3.505480
 20
5.118520
  0
VERTEX
  8
0
  6
CONTINUOUS
 10
3.517360
 20
5.103560
  0
VERTEX
  8
0
  6
CONTINUOUS
 10
3.528360
 20
5.087720
  0
VERTEX
  8
0
  6
CONTINUOUS
 10
3.538480
 20
5.071880
  0
VERTEX
  8
0
  6
CONTINUOUS
 10
3.547280
 20
5.056480
  0
VERTEX
  8
0
  6
CONTINUOUS
 10
3.555640
 20
5.041080
  0
VERTEX
  8
0
  6
CONTINUOUS
 10
3.563560
 20
5.026120
  0
VERTEX
  8
0
  6
CONTINUOUS
 10
3.571040
 20
5.012480
  0
VERTEX
  8
0
  6
CONTINUOUS
 10
3.578080
 20
4.999720
  0
VERTEX
  8
0
  6
CONTINUOUS
 10
3.585560
 20
4.988720
  0
VERTEX
  8
0
  6
CONTINUOUS
 10
3.593480
 20
4.978600
  0
VERTEX
  8
0
  6
CONTINUOUS
 10
3.601840
 20
4.969360
  0
VERTEX
  8
0
  6
CONTINUOUS
 10
3.611080
 20
4.960560
  0
VERTEX
  8
0
  6
CONTINUOUS
 10
3.621200
 20
4.952200
  0
VERTEX
  8
0
  6
CONTINUOUS
 10
3.632200
 20
4.944280
  0
VERTEX
  8
0
  6
CONTINUOUS
 10
3.644080
 20
4.936800
  0
VERTEX
  8
0
  6
CONTINUOUS
 10
3.656840
 20
4.930200
  0
VERTEX
  8
0
  6
CONTINUOUS
 10
3.670480
 20
4.923600
  0
VERTEX
  8
0
  6
CONTINUOUS
 10
3.685440
 20
4.917440
  0
VERTEX
  8
0
  6
CONTINUOUS
 10
3.700840
 20
4.911720
  0
VERTEX
  8
0
  6
CONTINUOUS
 10
3.717560
 20
4.906440
  0
VERTEX
  8
0
  6
CONTINUOUS
 10
3.735600
 20
4.901600
  0
VERTEX
  8
0
  6
CONTINUOUS
 10
3.754520
 20
4.896760
  0
VERTEX
  8
0
  6
CONTINUOUS
 10
3.774320
 20
4.892360
  0
VERTEX
  8
0
  6
CONTINUOUS
 10
3.795440
 20
4.887960
  0
VERTEX
  8
0
  6
CONTINUOUS
 10
3.817880
 20
4.884000
  0
VERTEX
  8
0
  6
CONTINUOUS
 10
3.817880
 20
4.727800
  0
VERTEX
  8
0
  6
CONTINUOUS
 10
3.548160
 20
4.727800
  0
VERTEX
  8
0
  6
CONTINUOUS
 10
3.548160
 20
4.247320
  0
VERTEX
  8
0
  6
CONTINUOUS
 10
3.041280
 20
4.247320
  0
SEQEND
  8
0
  0
POLYLINE
  8
0
  6
CONTINUOUS
 66
     1
 40
0.000000
 41
0.000000
  0
VERTEX
  8
0
  6
CONTINUOUS
 10
3.705240
 20
2.285360
  0
VERTEX
  8
0
  6
CONTINUOUS
 10
2.619760
 20
2.285360
  0
VERTEX
  8
0
  6
CONTINUOUS
 10
2.619760
 20
2.615360
  0
VERTEX
  8
0
  6
CONTINUOUS
 10
2.763640
 20
2.615360
  0
VERTEX
  8
0
  6
CONTINUOUS
 10
2.765400
 20
2.628560
  0
VERTEX
  8
0
  6
CONTINUOUS
 10
2.768040
 20
2.640880
  0
VERTEX
  8
0
  6
CONTINUOUS
 10
2.771120
 20
2.652760
  0
VERTEX
  8
0
  6
CONTINUOUS
 10
2.774640
 20
2.664200
  0
VERTEX
  8
0
  6
CONTINUOUS
 10
2.778600
 20
2.675200
  0
VERTEX
  8
0
  6
CONTINUOUS
 10
2.783440
 20
2.685320
  0
VERTEX
  8
0
  6
CONTINUOUS
 10
2.788280
 20
2.695000
  0
VERTEX
  8
0
  6
CONTINUOUS
 10
2.794000
 20
2.704240
  0
VERTEX
  8
0
  6
CONTINUOUS
 10
2.805880
 20
2.720960
  0
VERTEX
  8
0
  6
CONTINUOUS
 10
2.819520
 20
2.736360
  0
VERTEX
  8
0
  6
CONTINUOUS
 10
2.834040
 20
2.750000
  0
VERTEX
  8
0
  6
CONTINUOUS
 10
2.849000
 20
2.761880
  0
VERTEX
  8
0
  6
CONTINUOUS
 10
2.864840
 20
2.772880
  0
VERTEX
  8
0
  6
CONTINUOUS
 10
2.880680
 20
2.783000
  0
VERTEX
  8
0
  6
CONTINUOUS
 10
2.896080
 20
2.791800
  0
VERTEX
  8
0
  6
CONTINUOUS
 10
2.911480
 20
2.800160
  0
VERTEX
  8
0
  6
CONTINUOUS
 10
2.926440
 20
2.808080
  0
VERTEX
  8
0
  6
CONTINUOUS
 10
2.940080
 20
2.815560
  0
VERTEX
  8
0
  6
CONTINUOUS
 10
2.952840
 20
2.822600
  0
VERTEX
  8
0
  6
CONTINUOUS
 10
2.963840
 20
2.830080
  0
VERTEX
  8
0
  6
CONTINUOUS
 10
2.973960
 20
2.838000
  0
VERTEX
  8
0
  6
CONTINUOUS
 10
2.983200
 20
2.846360
  0
VERTEX
  8
0
  6
CONTINUOUS
 10
2.992000
 20
2.855600
  0
VERTEX
  8
0
  6
CONTINUOUS
 10
3.000360
 20
2.865720
  0
VERTEX
  8
0
  6
CONTINUOUS
 10
3.008280
 20
2.876720
  0
VERTEX
  8
0
  6
CONTINUOUS
 10
3.015320
 20
2.888600
  0
VERTEX
  8
0
  6
CONTINUOUS
 10
3.022360
 20
2.901360
  0
VERTEX
  8
0
  6
CONTINUOUS
 10
3.028960
 20
2.915000
  0
VERTEX
  8
0
  6
CONTINUOUS
 10
3.034680
 20
2.929960
  0
VERTEX
  8
0
  6
CONTINUOUS
 10
3.040400
 20
2.945360
  0
VERTEX
  8
0
  6
CONTINUOUS
 10
3.045680
 20
2.962080
  0
VERTEX
  8
0
  6
CONTINUOUS
 10
3.050960
 20
2.980120
  0
VERTEX
  8
0
  6
CONTINUOUS
 10
3.055800
 20
2.999040
  0
VERTEX
  8
0
  6
CONTINUOUS
 10
3.060200
 20
3.018840
  0
VERTEX
  8
0
  6
CONTINUOUS
 10
3.064600
 20
3.039960
  0
VERTEX
  8
0
  6
CONTINUOUS
 10
3.068560
 20
3.062400
  0
VERTEX
  8
0
  6
CONTINUOUS
 10
3.224760
 20
3.062400
  0
VERTEX
  8
0
  6
CONTINUOUS
 10
3.224760
 20
2.792680
  0
VERTEX
  8
0
  6
CONTINUOUS
 10
3.705240
 20
2.792680
  0
VERTEX
  8
0
  6
CONTINUOUS
 10
3.705240
 20
2.285360
  0
SEQEND
  8
0
  0
POLYLINE
  8
0
  6
CONTINUOUS
 66
     1
 40
0.000000
 41
0.000000
  0
VERTEX
  8
0
  6
CONTINUOUS
 10
4.146120
 20
2.343000
  0
VERTEX
  8
0
  6
CONTINUOUS
 10
5.231600
 20
2.343000
  0
VERTEX
  8
0
  6
CONTINUOUS
 10
5.231600
 20
2.672560
  0
VERTEX
  8
0
  6
CONTINUOUS
 10
5.087720
 20
2.672560
  0
VERTEX
  8
0
  6
CONTINUOUS
 10
5.085960
 20
2.685760
  0
VERTEX
  8
0
  6
CONTINUOUS
 10
5.083320
 20
2.698080
  0
VERTEX
  8
0
  6
CONTINUOUS
 10
5.080240
 20
2.709960
  0
VERTEX
  8
0
  6
CONTINUOUS
 10
5.076720
 20
2.721400
  0
VERTEX
  8
0
  6
CONTINUOUS
 10
5.072760
 20
2.732400
  0
VERTEX
  8
0
  6
CONTINUOUS
 10
5.067920
 20
2.742520
  0
VERTEX
  8
0
  6
CONTINUOUS
 10
5.063080
 20
2.752200
  0
VERTEX
  8
0
  6
CONTINUOUS
 10
5.057360
 20
2.761440
  0
VERTEX
  8
0
  6
CONTINUOUS
 10
5.045480
 20
2.778160
  0
VERTEX
  8
0
  6
CONTINUOUS
 10
5.031840
 20
2.793560
  0
VERTEX
  8
0
  6
CONTINUOUS
 10
5.017320
 20
2.807200
  0
VERTEX
  8
0
  6
CONTINUOUS
 10
5.002360
 20
2.819080
  0
VERTEX
  8
0
  6
CONTINUOUS
 10
4.986520
 20
2.830080
  0
VERTEX
  8
0
  6
CONTINUOUS
 10
4.970680
 20
2.840200
  0
VERTEX
  8
0
  6
CONTINUOUS
 10
4.955280
 20
2.849000
  0
VERTEX
  8
0
  6
CONTINUOUS
 10
4.939880
 20
2.857360
  0
VERTEX
  8
0
  6
CONTINUOUS
 10
4.924920
 20
2.865280
  0
VERTEX
  8
0
  6
CONTINUOUS
 10
4.911280
 20
2.872760
  0
VERTEX
  8
0
  6
CONTINUOUS
 10
4.898520
 20
2.879800
  0
VERTEX
  8
0
  6
CONTINUOUS
 10
4.887520
 20
2.887280
  0
VERTEX
  8
0
  6
CONTINUOUS
 10
4.877400
 20
2.895200
  0
VERTEX
  8
0
  6
CONTINUOUS
 10
4.868160
 20
2.903560
  0
VERTEX
  8
0
  6
CONTINUOUS
 10
4.859360
 20
2.912800
  0
VERTEX
  8
0
  6
CONTINUOUS
 10
4.851000
 20
2.922920
  0
VERTEX
  8
0
  6
CONTINUOUS
 10
4.843080
 20
2.933920
  0
VERTEX
  8
0
  6
CONTINUOUS
 10
4.836040
 20
2.945800
  0
VERTEX
  8
0
  6
CONTINUOUS
 10
4.829000
 20
2.958560
  0
VERTEX
  8
0
  6
CONTINUOUS
 10
4.822840
 20
2.972200
  0
VERTEX
  8
0
  6
CONTINUOUS
 10
4.816680
 20
2.987160
  0
VERTEX
  8
0
  6
CONTINUOUS
 10
4.810960
 20
3.002560
  0
VERTEX
  8
0
  6
CONTINUOUS
 10
4.805680
 20
3.019280
  0
VERTEX
  8
0
  6
CONTINUOUS
 10
4.800400
 20
3.037320
  0
VERTEX
  8
0
  6
CONTINUOUS
 10
4.795560
 20
3.056240
  0
VERTEX
  8
0
  6
CONTINUOUS
 10
4.791160
 20
3.076040
  0
VERTEX
  8
0
  6
CONTINUOUS
 10
4.786760
 20
3.097160
  0
VERTEX
  8
0
  6
CONTINUOUS
 10
4.782800
 20
3.119600
  0
VERTEX
  8
0
  6
CONTINUOUS
 10
4.626600
 20
3.119600
  0
VERTEX
  8
0
  6
CONTINUOUS
 10
4.626600
 20
2.849880
  0
VERTEX
  8
0
  6
CONTINUOUS
 10
4.146120
 20
2.849880
  0
VERTEX
  8
0
  6
CONTINUOUS
 10
4.146120
 20
2.343000
  0
SEQEND
  8
0
  0
SOLID
  8
0
 62
    15
 10
5.559840
 20
4.553560
 11
5.555880
 21
5.300240
 12
5.574360
 22
4.529800
 13
5.570400
 23
5.276480
  0
POLYLINE
  8
0
  6
CONTINUOUS
 66
     1
 40
0.000000
 41
0.000000
  0
VERTEX
  8
0
  6
CONTINUOUS
 10
5.559840
 20
4.553560
  0
VERTEX
  8
0
  6
CONTINUOUS
 10
5.555880
 20
5.300240
  0
VERTEX
  8
0
  6
CONTINUOUS
 10
5.570400
 20
5.276480
  0
VERTEX
  8
0
  6
CONTINUOUS
 10
5.574360
 20
4.529800
  0
VERTEX
  8
0
  6
CONTINUOUS
 10
5.559840
 20
4.553560
  0
SEQEND
  8
0
  0
SOLID
  8
0
 62
    15
 10
5.359640
 20
4.730440
 11
5.356120
 21
5.477120
 12
5.408480
 22
4.719440
 13
5.404960
 23
5.466120
  0
POLYLINE
  8
0
  6
CONTINUOUS
 66
     1
 40
0.000000
 41
0.000000
  0
VERTEX
  8
0
  6
CONTINUOUS
 10
5.359640
 20
4.730440
  0
VERTEX
  8
0
  6
CONTINUOUS
 10
5.356120
 20
5.477120
  0
VERTEX
  8
0
  6
CONTINUOUS
 10
5.404960
 20
5.466120
  0
VERTEX
  8
0
  6
CONTINUOUS
 10
5.408480
 20
4.719440
  0
VERTEX
  8
0
  6
CONTINUOUS
 10
5.359640
 20
4.730440
  0
SEQEND
  8
0
  0
SOLID
  8
0
 62
    15
 10
5.030080
 20
3.788400
 11
5.026120
 21
4.535080
 12
5.030080
 22
4.873880
 13
5.026120
 23
5.620560
  0
POLYLINE
  8
0
  6
CONTINUOUS
 66
     1
 40
0.000000
 41
0.000000
  0
VERTEX
  8
0
  6
CONTINUOUS
 10
5.030080
 20
3.788400
  0
VERTEX
  8
0
  6
CONTINUOUS
 10
5.026120
 20
4.535080
  0
VERTEX
  8
0
  6
CONTINUOUS
 10
5.026120
 20
5.620560
  0
VERTEX
  8
0
  6
CONTINUOUS
 10
5.030080
 20
4.873880
  0
VERTEX
  8
0
  6
CONTINUOUS
 10
5.030080
 20
3.788400
  0
SEQEND
  8
0
  0
SOLID
  8
0
 62
    15
 10
5.408480
 20
4.719440
 11
5.404960
 21
5.466120
 12
5.448520
 22
4.700080
 13
5.444560
 23
5.446760
  0
POLYLINE
  8
0
  6
CONTINUOUS
 66
     1
 40
0.000000
 41
0.000000
  0
VERTEX
  8
0
  6
CONTINUOUS
 10
5.408480
 20
4.719440
  0
VERTEX
  8
0
  6
CONTINUOUS
 10
5.404960
 20
5.466120
  0
VERTEX
  8
0
  6
CONTINUOUS
 10
5.444560
 20
5.446760
  0
VERTEX
  8
0
  6
CONTINUOUS
 10
5.448520
 20
4.700080
  0
VERTEX
  8
0
  6
CONTINUOUS
 10
5.408480
 20
4.719440
  0
SEQEND
  8
0
  0
SOLID
  8
0
 62
    15
 10
5.448520
 20
4.700080
 11
5.444560
 21
5.446760
 12
5.480640
 22
4.674560
 13
5.476680
 23
5.421240
  0
POLYLINE
  8
0
  6
CONTINUOUS
 66
     1
 40
0.000000
 41
0.000000
  0
VERTEX
  8
0
  6
CONTINUOUS
 10
5.448520
 20
4.700080
  0
VERTEX
  8
0
  6
CONTINUOUS
 10
5.444560
 20
5.446760
  0
VERTEX
  8
0
  6
CONTINUOUS
 10
5.476680
 20
5.421240
  0
VERTEX
  8
0
  6
CONTINUOUS
 10
5.480640
 20
4.674560
  0
VERTEX
  8
0
  6
CONTINUOUS
 10
5.448520
 20
4.700080
  0
SEQEND
  8
0
  0
SOLID
  8
0
 62
    15
 10
5.480640
 20
4.674560
 11
5.476680
 21
5.421240
 12
5.506160
 22
4.644640
 13
5.502200
 23
5.391320
  0
POLYLINE
  8
0
  6
CONTINUOUS
 66
     1
 40
0.000000
 41
0.000000
  0
VERTEX
  8
0
  6
CONTINUOUS
 10
5.480640
 20
4.674560
  0
VERTEX
  8
0
  6
CONTINUOUS
 10
5.476680
 20
5.421240
  0
VERTEX
  8
0
  6
CONTINUOUS
 10
5.502200
 20
5.391320
  0
VERTEX
  8
0
  6
CONTINUOUS
 10
5.506160
 20
4.644640
  0
VERTEX
  8
0
  6
CONTINUOUS
 10
5.480640
 20
4.674560
  0
SEQEND
  8
0
  0
SOLID
  8
0
 62
    15
 10
5.506160
 20
4.644640
 11
5.502200
 21
5.391320
 12
5.544440
 22
4.582160
 13
5.540480
 23
5.328840
  0
POLYLINE
  8
0
  6
CONTINUOUS
 66
     1
 40
0.000000
 41
0.000000
  0
VERTEX
  8
0
  6
CONTINUOUS
 10
5.506160
 20
4.644640
  0
VERTEX
  8
0
  6
CONTINUOUS
 10
5.502200
 20
5.391320
  0
VERTEX
  8
0
  6
CONTINUOUS
 10
5.540480
 20
5.328840
  0
VERTEX
  8
0
  6
CONTINUOUS
 10
5.544440
 20
4.582160
  0
VERTEX
  8
0
  6
CONTINUOUS
 10
5.506160
 20
4.644640
  0
SEQEND
  8
0
  0
SOLID
  8
0
 62
    15
 10
5.544440
 20
4.582160
 11
5.540480
 21
5.328840
 12
5.552360
 22
4.567200
 13
5.548400
 23
5.313880
  0
POLYLINE
  8
0
  6
CONTINUOUS
 66
     1
 40
0.000000
 41
0.000000
  0
VERTEX
  8
0
  6
CONTINUOUS
 10
5.544440
 20
4.582160
  0
VERTEX
  8
0
  6
CONTINUOUS
 10
5.540480
 20
5.328840
  0
VERTEX
  8
0
  6
CONTINUOUS
 10
5.548400
 20
5.313880
  0
VERTEX
  8
0
  6
CONTINUOUS
 10
5.552360
 20
4.567200
  0
VERTEX
  8
0
  6
CONTINUOUS
 10
5.544440
 20
4.582160
  0
SEQEND
  8
0
  0
SOLID
  8
0
 62
    15
 10
5.552360
 20
4.567200
 11
5.548400
 21
5.313880
 12
5.559840
 22
4.553560
 13
5.555880
 23
5.300240
  0
POLYLINE
  8
0
  6
CONTINUOUS
 66
     1
 40
0.000000
 41
0.000000
  0
VERTEX
  8
0
  6
CONTINUOUS
 10
5.552360
 20
4.567200
  0
VERTEX
  8
0
  6
CONTINUOUS
 10
5.548400
 20
5.313880
  0
VERTEX
  8
0
  6
CONTINUOUS
 10
5.555880
 20
5.300240
  0
VERTEX
  8
0
  6
CONTINUOUS
 10
5.559840
 20
4.553560
  0
VERTEX
  8
0
  6
CONTINUOUS
 10
5.552360
 20
4.567200
  0
SEQEND
  8
0
  0
SOLID
  8
0
 62
    15
 10
5.030080
 20
4.873880
 11
5.026120
 21
5.620560
 12
5.359640
 22
4.873880
 13
5.356120
 23
5.620560
  0
POLYLINE
  8
0
  6
CONTINUOUS
 66
     1
 40
0.000000
 41
0.000000
  0
VERTEX
  8
0
  6
CONTINUOUS
 10
5.030080
 20
4.873880
  0
VERTEX
  8
0
  6
CONTINUOUS
 10
5.026120
 20
5.620560
  0
VERTEX
  8
0
  6
CONTINUOUS
 10
5.356120
 20
5.620560
  0
VERTEX
  8
0
  6
CONTINUOUS
 10
5.359640
 20
4.873880
  0
VERTEX
  8
0
  6
CONTINUOUS
 10
5.030080
 20
4.873880
  0
SEQEND
  8
0
  0
SOLID
  8
0
 62
    15
 10
5.574360
 20
4.529800
 11
5.570400
 21
5.276480
 12
5.590640
 22
4.510440
 13
5.586680
 23
5.257120
  0
POLYLINE
  8
0
  6
CONTINUOUS
 66
     1
 40
0.000000
 41
0.000000
  0
VERTEX
  8
0
  6
CONTINUOUS
 10
5.574360
 20
4.529800
  0
VERTEX
  8
0
  6
CONTINUOUS
 10
5.570400
 20
5.276480
  0
VERTEX
  8
0
  6
CONTINUOUS
 10
5.586680
 20
5.257120
  0
VERTEX
  8
0
  6
CONTINUOUS
 10
5.590640
 20
4.510440
  0
VERTEX
  8
0
  6
CONTINUOUS
 10
5.574360
 20
4.529800
  0
SEQEND
  8
0
  0
SOLID
  8
0
 62
    15
 10
5.590640
 20
4.510440
 11
5.586680
 21
5.257120
 12
5.610000
 22
4.493280
 13
5.606040
 23
5.239960
  0
POLYLINE
  8
0
  6
CONTINUOUS
 66
     1
 40
0.000000
 41
0.000000
  0
VERTEX
  8
0
  6
CONTINUOUS
 10
5.590640
 20
4.510440
  0
VERTEX
  8
0
  6
CONTINUOUS
 10
5.586680
 20
5.257120
  0
VERTEX
  8
0
  6
CONTINUOUS
 10
5.606040
 20
5.239960
  0
VERTEX
  8
0
  6
CONTINUOUS
 10
5.610000
 20
4.493280
  0
VERTEX
  8
0
  6
CONTINUOUS
 10
5.590640
 20
4.510440
  0
SEQEND
  8
0
  0
SOLID
  8
0
 62
    15
 10
5.610000
 20
4.493280
 11
5.606040
 21
5.239960
 12
5.632880
 22
4.478320
 13
5.628920
 23
5.225000
  0
POLYLINE
  8
0
  6
CONTINUOUS
 66
     1
 40
0.000000
 41
0.000000
  0
VERTEX
  8
0
  6
CONTINUOUS
 10
5.610000
 20
4.493280
  0
VERTEX
  8
0
  6
CONTINUOUS
 10
5.606040
 20
5.239960
  0
VERTEX
  8
0
  6
CONTINUOUS
 10
5.628920
 20
5.225000
  0
VERTEX
  8
0
  6
CONTINUOUS
 10
5.632880
 20
4.478320
  0
VERTEX
  8
0
  6
CONTINUOUS
 10
5.610000
 20
4.493280
  0
SEQEND
  8
0
  0
SOLID
  8
0
 62
    15
 10
5.632880
 20
4.478320
 11
5.628920
 21
5.225000
 12
5.659280
 22
4.465120
 13
5.655320
 23
5.211800
  0
POLYLINE
  8
0
  6
CONTINUOUS
 66
     1
 40
0.000000
 41
0.000000
  0
VERTEX
  8
0
  6
CONTINUOUS
 10
5.632880
 20
4.478320
  0
VERTEX
  8
0
  6
CONTINUOUS
 10
5.628920
 20
5.225000
  0
VERTEX
  8
0
  6
CONTINUOUS
 10
5.655320
 20
5.211800
  0
VERTEX
  8
0
  6
CONTINUOUS
 10
5.659280
 20
4.465120
  0
VERTEX
  8
0
  6
CONTINUOUS
 10
5.632880
 20
4.478320
  0
SEQEND
  8
0
  0
SOLID
  8
0
 62
    15
 10
5.659280
 20
4.465120
 11
5.655320
 21
5.211800
 12
5.689640
 22
4.453240
 13
5.685680
 23
5.199920
  0
POLYLINE
  8
0
  6
CONTINUOUS
 66
     1
 40
0.000000
 41
0.000000
  0
VERTEX
  8
0
  6
CONTINUOUS
 10
5.659280
 20
4.465120
  0
VERTEX
  8
0
  6
CONTINUOUS
 10
5.655320
 20
5.211800
  0
VERTEX
  8
0
  6
CONTINUOUS
 10
5.685680
 20
5.199920
  0
VERTEX
  8
0
  6
CONTINUOUS
 10
5.689640
 20
4.453240
  0
VERTEX
  8
0
  6
CONTINUOUS
 10
5.659280
 20
4.465120
  0
SEQEND
  8
0
  0
SOLID
  8
0
 62
    15
 10
5.689640
 20
4.453240
 11
5.685680
 21
5.199920
 12
5.724400
 22
4.442680
 13
5.720440
 23
5.189360
  0
POLYLINE
  8
0
  6
CONTINUOUS
 66
     1
 40
0.000000
 41
0.000000
  0
VERTEX
  8
0
  6
CONTINUOUS
 10
5.689640
 20
4.453240
  0
VERTEX
  8
0
  6
CONTINUOUS
 10
5.685680
 20
5.199920
  0
VERTEX
  8
0
  6
CONTINUOUS
 10
5.720440
 20
5.189360
  0
VERTEX
  8
0
  6
CONTINUOUS
 10
5.724400
 20
4.442680
  0
VERTEX
  8
0
  6
CONTINUOUS
 10
5.689640
 20
4.453240
  0
SEQEND
  8
0
  0
SOLID
  8
0
 62
    15
 10
5.724400
 20
4.442680
 11
5.720440
 21
5.189360
 12
5.763120
 22
4.433440
 13
5.759160
 23
5.180120
  0
POLYLINE
  8
0
  6
CONTINUOUS
 66
     1
 40
0.000000
 41
0.000000
  0
VERTEX
  8
0
  6
CONTINUOUS
 10
5.724400
 20
4.442680
  0
VERTEX
  8
0
  6
CONTINUOUS
 10
5.720440
 20
5.189360
  0
VERTEX
  8
0
  6
CONTINUOUS
 10
5.759160
 20
5.180120
  0
VERTEX
  8
0
  6
CONTINUOUS
 10
5.763120
 20
4.433440
  0
VERTEX
  8
0
  6
CONTINUOUS
 10
5.724400
 20
4.442680
  0
SEQEND
  8
0
  0
SOLID
  8
0
 62
    15
 10
5.763120
 20
4.433440
 11
5.759160
 21
5.180120
 12
5.806680
 22
4.425080
 13
5.802720
 23
5.171760
  0
POLYLINE
  8
0
  6
CONTINUOUS
 66
     1
 40
0.000000
 41
0.000000
  0
VERTEX
  8
0
  6
CONTINUOUS
 10
5.763120
 20
4.433440
  0
VERTEX
  8
0
  6
CONTINUOUS
 10
5.759160
 20
5.180120
  0
VERTEX
  8
0
  6
CONTINUOUS
 10
5.802720
 20
5.171760
  0
VERTEX
  8
0
  6
CONTINUOUS
 10
5.806680
 20
4.425080
  0
VERTEX
  8
0
  6
CONTINUOUS
 10
5.763120
 20
4.433440
  0
SEQEND
  8
0
  0
POLYLINE
  8
0
  6
CONTINUOUS
 66
     1
 40
0.000000
 41
0.000000
  0
VERTEX
  8
0
  6
CONTINUOUS
 10
5.030080
 20
3.788400
  0
VERTEX
  8
0
  6
CONTINUOUS
 10
5.030080
 20
4.873880
  0
VERTEX
  8
0
  6
CONTINUOUS
 10
5.359640
 20
4.873880
  0
VERTEX
  8
0
  6
CONTINUOUS
 10
5.359640
 20
4.730440
  0
VERTEX
  8
0
  6
CONTINUOUS
 10
5.408480
 20
4.719440
  0
VERTEX
  8
0
  6
CONTINUOUS
 10
5.448520
 20
4.700080
  0
VERTEX
  8
0
  6
CONTINUOUS
 10
5.480640
 20
4.674560
  0
VERTEX
  8
0
  6
CONTINUOUS
 10
5.506160
 20
4.644640
  0
VERTEX
  8
0
  6
CONTINUOUS
 10
5.544440
 20
4.582160
  0
VERTEX
  8
0
  6
CONTINUOUS
 10
5.552360
 20
4.567200
  0
VERTEX
  8
0
  6
CONTINUOUS
 10
5.559840
 20
4.553560
  0
VERTEX
  8
0
  6
CONTINUOUS
 10
5.574360
 20
4.529800
  0
VERTEX
  8
0
  6
CONTINUOUS
 10
5.590640
 20
4.510440
  0
VERTEX
  8
0
  6
CONTINUOUS
 10
5.610000
 20
4.493280
  0
VERTEX
  8
0
  6
CONTINUOUS
 10
5.632880
 20
4.478320
  0
VERTEX
  8
0
  6
CONTINUOUS
 10
5.659280
 20
4.465120
  0
VERTEX
  8
0
  6
CONTINUOUS
 10
5.689640
 20
4.453240
  0
VERTEX
  8
0
  6
CONTINUOUS
 10
5.724400
 20
4.442680
  0
VERTEX
  8
0
  6
CONTINUOUS
 10
5.763120
 20
4.433440
  0
VERTEX
  8
0
  6
CONTINUOUS
 10
5.806680
 20
4.425080
  0
VERTEX
  8
0
  6
CONTINUOUS
 10
5.806680
 20
4.269320
  0
VERTEX
  8
0
  6
CONTINUOUS
 10
5.536960
 20
4.269320
  0
VERTEX
  8
0
  6
CONTINUOUS
 10
5.536960
 20
3.788400
  0
VERTEX
  8
0
  6
CONTINUOUS
 10
5.030080
 20
3.788400
  0
SEQEND
  8
0
  0
TEXT
  8
0
 10
5.090800
 20
3.523520
 40
0.138085
  1
BA  1329
 41
1.000000
  7
SN0
 71
     0
 72
     5
 11
5.723561
 21
3.523520
  0
TEXT
  8
0
 10
4.869920
 20
3.370840
 40
0.138085
  1
13/16" x 1-1/16"
 41
1.000000
  7
SN0
 71
     0
 72
     5
 11
5.941278
 21
3.370840
  0
TEXT
  8
0
 10
3.032040
 20
4.036120
 40
0.138085
  1
BA  1329
 41
1.000000
  7
SN0
 71
     0
 72
     5
 11
3.664801
 21
4.036120
  0
TEXT
  8
0
 10
2.811160
 20
3.883440
 40
0.138085
  1
13/16" x 1-1/16"
 41
1.000000
  7
SN0
 71
     0
 72
     5
 11
3.882518
 21
3.883440
  0
ENDSEC
  0
EOF
