  0
SECTION
  2
HEADER
  9
$ACADVER
  1
AC1006
  9
$EXTMIN
 10
2.536160
 20
1.195920
  9
$EXTMAX
 10
5.951000
 20
7.417960
  9
$LTSCALE
 40
0.044000
  9
$PDMODE
 70
    35
  9
$PDSIZE
 40
0.035200
  0
ENDSEC
  0
SECTION
  2
TABLES
  0
TABLE
  2
LTYPE
 70
     9
  0
LTYPE
  2
CONTINUOUS
 70
    64
  3
Solid line
 72
    65
 73
     0
 40
0.000000
  0
LTYPE
  2
DASHED
 70
    64
  3
__ __ __ __ __ __ __ __ __ __ __ __ __ __ __
 72
    65
 73
     2
 40
0.000330
 49
0.000220
 49
-0.000110
  0
LTYPE
  2
HIDDEN
 70
    64
  3
 _ _ _ _ _ _ _ _ _ _ _ _ _ _ _ _ _ _ _ _ _ _
 72
    65
 73
     2
 40
0.000165
 49
0.000110
 49
-0.000055
  0
LTYPE
  2
CENTER
 70
    64
  3
____ _ ____ _ ____ _ ____ _ ____ _ ____ _ ____
 72
    65
 73
     4
 40
0.000880
 49
0.000550
 49
-0.000110
 49
0.000110
 49
-0.000110
  0
LTYPE
  2
PHANTOM
 70
    64
  3
_____ _ _ _____ _ _ _____ _ _ _____ _ _ ____
 72
    65
 73
     6
 40
0.001100
 49
0.000550
 49
-0.000110
 49
0.000110
 49
-0.000110
 49
0.000110
 49
-0.000110
  0
LTYPE
  2
DOT
 70
    64
  3
...............................................
 72
    65
 73
     2
 40
0.000110
 49
0.000000
 49
-0.000110
  0
LTYPE
  2
DASHDOT
 70
    64
  3
__ . __ . __ . __ . __ . __ . __ . __ . __ . __
 72
    65
 73
     4
 40
0.000440
 49
0.000220
 49
-0.000110
 49
0.000000
 49
-0.000110
  0
LTYPE
  2
BORDER
 70
    64
  3
__ __ . __ __ . __ __ . __ __ . __ __ . __ __
 72
    65
 73
     6
 40
0.000770
 49
0.000220
 49
-0.000110
 49
0.000220
 49
-0.000110
 49
0.000000
 49
-0.000110
  0
LTYPE
  2
DIVIDE
 70
    64
  3
__ . . __ . . __ . . __ . . __ . . __ . . __
 72
    65
 73
     6
 40
0.000550
 49
0.000220
 49
-0.000110
 49
0.000000
 49
-0.000110
 49
0.000000
 49
-0.000110
  0
LTYPE
  2
DOTDOT
 70
    64
  3
 . .  . .  . .  . .  . .  . . 
 72
    65
 73
     5
 40
0.000242
 49
-0.000110
 49
0.000000
 49
-0.000110
 49
0.000000
 49
-0.000110
  0
ENDTAB
  0
TABLE
  2
STYLE
 70
     2
  0
STYLE
 70
     0
  2
SN0
 40
0.000000
 41
0.000440
 50
0.000000
 71
     0
 42
0.000000
  3
ROMAND
  0
STYLE
 70
    68
  2
SV0
 40
0.000000
 41
0.000440
 50
0.000000
 71
     0
 42
0.000000
  3
ROMAND
  0
ENDTAB
  0
TABLE
  2
LAYER
 70
     3
  0
LAYER
  2
FOREGROUND
 70
    64
 62
     7
  6
CONTINUOUS
  0
LAYER
  2
BACKGROUND
 70
    65
 62
    -7
  6
CONTINUOUS
  0
LAYER
  2
0
 70
    64
 62
     7
  6
CONTINUOUS
  0
ENDTAB
  0
ENDSEC
  0
SECTION
  2
ENTITIES
  0
POLYLINE
  8
FOREGROUND
  6
CONTINUOUS
 66
     1
 40
0.000000
 41
0.000000
  0
VERTEX
  8
FOREGROUND
  6
CONTINUOUS
 10
0.000000
 20
8.613880
  0
VERTEX
  8
FOREGROUND
  6
CONTINUOUS
 10
8.499920
 20
8.613880
  0
VERTEX
  8
FOREGROUND
  6
CONTINUOUS
 10
8.499920
 20
-2.386120
  0
VERTEX
  8
FOREGROUND
  6
CONTINUOUS
 10
0.000000
 20
-2.386120
  0
VERTEX
  8
FOREGROUND
  6
CONTINUOUS
 10
0.000000
 20
8.613880
  0
SEQEND
  8
0
  0
POLYLINE
  8
FOREGROUND
  6
CONTINUOUS
 66
     1
 40
0.000000
 41
0.000000
  0
VERTEX
  8
FOREGROUND
  6
CONTINUOUS
 10
0.000000
 20
8.613880
  0
VERTEX
  8
FOREGROUND
  6
CONTINUOUS
 10
8.499920
 20
8.613880
  0
VERTEX
  8
FOREGROUND
  6
CONTINUOUS
 10
8.499920
 20
-2.386120
  0
VERTEX
  8
FOREGROUND
  6
CONTINUOUS
 10
0.000000
 20
-2.386120
  0
VERTEX
  8
FOREGROUND
  6
CONTINUOUS
 10
0.000000
 20
8.613880
  0
SEQEND
  8
0
  0
POLYLINE
  8
0
  6
CONTINUOUS
 66
     1
 40
0.014080
 41
0.014080
  0
VERTEX
  8
0
  6
CONTINUOUS
 10
5.337640
 20
6.662920
  0
VERTEX
  8
0
  6
CONTINUOUS
 10
5.940880
 20
7.269680
  0
VERTEX
  8
0
  6
CONTINUOUS
 10
5.807560
 20
7.389360
  0
VERTEX
  8
0
  6
CONTINUOUS
 10
5.742880
 20
7.349320
  0
VERTEX
  8
0
  6
CONTINUOUS
 10
5.699760
 20
7.328200
  0
VERTEX
  8
0
  6
CONTINUOUS
 10
5.659720
 20
7.314120
  0
VERTEX
  8
0
  6
CONTINUOUS
 10
5.635080
 20
7.307960
  0
VERTEX
  8
0
  6
CONTINUOUS
 10
5.611320
 20
7.304440
  0
VERTEX
  8
0
  6
CONTINUOUS
 10
5.588000
 20
7.303560
  0
VERTEX
  8
0
  6
CONTINUOUS
 10
5.566000
 20
7.304880
  0
VERTEX
  8
0
  6
CONTINUOUS
 10
5.544000
 20
7.307960
  0
VERTEX
  8
0
  6
CONTINUOUS
 10
5.500440
 20
7.319840
  0
VERTEX
  8
0
  6
CONTINUOUS
 10
5.456000
 20
7.337440
  0
VERTEX
  8
0
  6
CONTINUOUS
 10
5.385160
 20
7.370880
  0
VERTEX
  8
0
  6
CONTINUOUS
 10
5.335000
 20
7.390240
  0
VERTEX
  8
0
  6
CONTINUOUS
 10
5.309920
 20
7.397720
  0
VERTEX
  8
0
  6
CONTINUOUS
 10
5.283960
 20
7.403440
  0
VERTEX
  8
0
  6
CONTINUOUS
 10
5.258000
 20
7.407400
  0
VERTEX
  8
0
  6
CONTINUOUS
 10
5.231600
 20
7.408720
  0
VERTEX
  8
0
  6
CONTINUOUS
 10
5.191560
 20
7.405640
  0
VERTEX
  8
0
  6
CONTINUOUS
 10
5.164720
 20
7.399920
  0
VERTEX
  8
0
  6
CONTINUOUS
 10
5.137440
 20
7.390680
  0
VERTEX
  8
0
  6
CONTINUOUS
 10
5.095640
 20
7.370000
  0
VERTEX
  8
0
  6
CONTINUOUS
 10
5.067480
 20
7.351520
  0
VERTEX
  8
0
  6
CONTINUOUS
 10
5.024800
 20
7.315440
  0
VERTEX
  8
0
  6
CONTINUOUS
 10
4.981680
 20
7.269240
  0
VERTEX
  8
0
  6
CONTINUOUS
 10
4.828120
 20
7.407400
  0
VERTEX
  8
0
  6
CONTINUOUS
 10
4.656960
 20
7.219080
  0
VERTEX
  8
0
  6
CONTINUOUS
 10
4.587000
 20
7.277600
  0
VERTEX
  8
0
  6
CONTINUOUS
 10
4.539920
 20
7.311040
  0
VERTEX
  8
0
  6
CONTINUOUS
 10
4.492400
 20
7.339640
  0
VERTEX
  8
0
  6
CONTINUOUS
 10
4.444000
 20
7.363400
  0
VERTEX
  8
0
  6
CONTINUOUS
 10
4.394720
 20
7.381880
  0
VERTEX
  8
0
  6
CONTINUOUS
 10
4.343680
 20
7.395520
  0
VERTEX
  8
0
  6
CONTINUOUS
 10
4.318160
 20
7.400360
  0
VERTEX
  8
0
  6
CONTINUOUS
 10
4.264920
 20
7.405640
  0
VERTEX
  8
0
  6
CONTINUOUS
 10
4.237640
 20
7.406520
  0
VERTEX
  8
0
  6
CONTINUOUS
 10
4.181760
 20
7.403880
  0
VERTEX
  8
0
  6
CONTINUOUS
 10
4.123680
 20
7.395520
  0
VERTEX
  8
0
  6
CONTINUOUS
 10
4.062960
 20
7.381440
  0
VERTEX
  8
0
  6
CONTINUOUS
 10
3.999600
 20
7.361200
  0
VERTEX
  8
0
  6
CONTINUOUS
 10
3.933600
 20
7.334800
  0
VERTEX
  8
0
  6
CONTINUOUS
 10
3.864080
 20
7.302680
  0
VERTEX
  8
0
  6
CONTINUOUS
 10
3.791480
 20
7.263960
  0
VERTEX
  8
0
  6
CONTINUOUS
 10
3.715800
 20
7.220840
  0
VERTEX
  8
0
  6
CONTINUOUS
 10
3.661240
 20
7.193560
  0
VERTEX
  8
0
  6
CONTINUOUS
 10
3.608440
 20
7.172000
  0
VERTEX
  8
0
  6
CONTINUOUS
 10
3.574560
 20
7.160120
  0
VERTEX
  8
0
  6
CONTINUOUS
 10
3.541120
 20
7.150880
  0
VERTEX
  8
0
  6
CONTINUOUS
 10
3.477320
 20
7.138560
  0
VERTEX
  8
0
  6
CONTINUOUS
 10
3.446520
 20
7.135040
  0
VERTEX
  8
0
  6
CONTINUOUS
 10
3.416160
 20
7.133720
  0
VERTEX
  8
0
  6
CONTINUOUS
 10
3.387120
 20
7.134160
  0
VERTEX
  8
0
  6
CONTINUOUS
 10
3.330800
 20
7.139880
  0
VERTEX
  8
0
  6
CONTINUOUS
 10
3.277120
 20
7.151760
  0
VERTEX
  8
0
  6
CONTINUOUS
 10
3.251160
 20
7.159240
  0
VERTEX
  8
0
  6
CONTINUOUS
 10
3.201440
 20
7.178600
  0
VERTEX
  8
0
  6
CONTINUOUS
 10
3.153920
 20
7.202360
  0
VERTEX
  8
0
  6
CONTINUOUS
 10
3.086600
 20
7.243720
  0
VERTEX
  8
0
  6
CONTINUOUS
 10
3.023680
 20
7.290800
  0
VERTEX
  8
0
  6
CONTINUOUS
 10
2.945800
 20
7.358120
  0
VERTEX
  8
0
  6
CONTINUOUS
 10
2.908840
 20
7.392000
  0
VERTEX
  8
0
  6
CONTINUOUS
 10
2.875840
 20
7.392000
  0
VERTEX
  8
0
  6
CONTINUOUS
 10
2.546720
 20
7.026800
  0
VERTEX
  8
0
  6
CONTINUOUS
 10
2.961640
 20
6.658080
  0
VERTEX
  8
0
  6
CONTINUOUS
 10
5.337640
 20
6.663360
  0
VERTEX
  8
0
  6
CONTINUOUS
 10
5.337640
 20
6.662920
  0
SEQEND
  8
0
  0
POLYLINE
  8
0
  6
CONTINUOUS
 66
     1
 40
0.000000
 41
0.000000
  0
VERTEX
  8
0
  6
CONTINUOUS
 10
3.149960
 20
1.201200
  0
VERTEX
  8
0
  6
CONTINUOUS
 10
2.546720
 20
1.807960
  0
VERTEX
  8
0
  6
CONTINUOUS
 10
2.680040
 20
1.927640
  0
VERTEX
  8
0
  6
CONTINUOUS
 10
2.744720
 20
1.887600
  0
VERTEX
  8
0
  6
CONTINUOUS
 10
2.787840
 20
1.866480
  0
VERTEX
  8
0
  6
CONTINUOUS
 10
2.827880
 20
1.852400
  0
VERTEX
  8
0
  6
CONTINUOUS
 10
2.852520
 20
1.846240
  0
VERTEX
  8
0
  6
CONTINUOUS
 10
2.876280
 20
1.842720
  0
VERTEX
  8
0
  6
CONTINUOUS
 10
2.899600
 20
1.841840
  0
VERTEX
  8
0
  6
CONTINUOUS
 10
2.921600
 20
1.843160
  0
VERTEX
  8
0
  6
CONTINUOUS
 10
2.943600
 20
1.846240
  0
VERTEX
  8
0
  6
CONTINUOUS
 10
2.987160
 20
1.858120
  0
VERTEX
  8
0
  6
CONTINUOUS
 10
3.031600
 20
1.875720
  0
VERTEX
  8
0
  6
CONTINUOUS
 10
3.102440
 20
1.909160
  0
VERTEX
  8
0
  6
CONTINUOUS
 10
3.152600
 20
1.928520
  0
VERTEX
  8
0
  6
CONTINUOUS
 10
3.177680
 20
1.936000
  0
VERTEX
  8
0
  6
CONTINUOUS
 10
3.203640
 20
1.941720
  0
VERTEX
  8
0
  6
CONTINUOUS
 10
3.229600
 20
1.945240
  0
VERTEX
  8
0
  6
CONTINUOUS
 10
3.256000
 20
1.946560
  0
VERTEX
  8
0
  6
CONTINUOUS
 10
3.282400
 20
1.945240
  0
VERTEX
  8
0
  6
CONTINUOUS
 10
3.322880
 20
1.937760
  0
VERTEX
  8
0
  6
CONTINUOUS
 10
3.350160
 20
1.928520
  0
VERTEX
  8
0
  6
CONTINUOUS
 10
3.377880
 20
1.915760
  0
VERTEX
  8
0
  6
CONTINUOUS
 10
3.406040
 20
1.899480
  0
VERTEX
  8
0
  6
CONTINUOUS
 10
3.434200
 20
1.878800
  0
VERTEX
  8
0
  6
CONTINUOUS
 10
3.462800
 20
1.853720
  0
VERTEX
  8
0
  6
CONTINUOUS
 10
3.505920
 20
1.807080
  0
VERTEX
  8
0
  6
CONTINUOUS
 10
3.659480
 20
1.945680
  0
VERTEX
  8
0
  6
CONTINUOUS
 10
3.830640
 20
1.757360
  0
VERTEX
  8
0
  6
CONTINUOUS
 10
3.900600
 20
1.815880
  0
VERTEX
  8
0
  6
CONTINUOUS
 10
3.947680
 20
1.848880
  0
VERTEX
  8
0
  6
CONTINUOUS
 10
3.995200
 20
1.877480
  0
VERTEX
  8
0
  6
CONTINUOUS
 10
4.043600
 20
1.901240
  0
VERTEX
  8
0
  6
CONTINUOUS
 10
4.092880
 20
1.920160
  0
VERTEX
  8
0
  6
CONTINUOUS
 10
4.143920
 20
1.933360
  0
VERTEX
  8
0
  6
CONTINUOUS
 10
4.195840
 20
1.941720
  0
VERTEX
  8
0
  6
CONTINUOUS
 10
4.249960
 20
1.944800
  0
VERTEX
  8
0
  6
CONTINUOUS
 10
4.305840
 20
1.941720
  0
VERTEX
  8
0
  6
CONTINUOUS
 10
4.334880
 20
1.938640
  0
VERTEX
  8
0
  6
CONTINUOUS
 10
4.394280
 20
1.927200
  0
VERTEX
  8
0
  6
CONTINUOUS
 10
4.455880
 20
1.910040
  0
VERTEX
  8
0
  6
CONTINUOUS
 10
4.520560
 20
1.887160
  0
VERTEX
  8
0
  6
CONTINUOUS
 10
4.623520
 20
1.840960
  0
VERTEX
  8
0
  6
CONTINUOUS
 10
4.696120
 20
1.802240
  0
VERTEX
  8
0
  6
CONTINUOUS
 10
4.771800
 20
1.759120
  0
VERTEX
  8
0
  6
CONTINUOUS
 10
4.826360
 20
1.731840
  0
VERTEX
  8
0
  6
CONTINUOUS
 10
4.879160
 20
1.710280
  0
VERTEX
  8
0
  6
CONTINUOUS
 10
4.913040
 20
1.698400
  0
VERTEX
  8
0
  6
CONTINUOUS
 10
4.946480
 20
1.689160
  0
VERTEX
  8
0
  6
CONTINUOUS
 10
5.010280
 20
1.676840
  0
VERTEX
  8
0
  6
CONTINUOUS
 10
5.041080
 20
1.673320
  0
VERTEX
  8
0
  6
CONTINUOUS
 10
5.071440
 20
1.672000
  0
VERTEX
  8
0
  6
CONTINUOUS
 10
5.100480
 20
1.672440
  0
VERTEX
  8
0
  6
CONTINUOUS
 10
5.156800
 20
1.678160
  0
VERTEX
  8
0
  6
CONTINUOUS
 10
5.210480
 20
1.690040
  0
VERTEX
  8
0
  6
CONTINUOUS
 10
5.236440
 20
1.697520
  0
VERTEX
  8
0
  6
CONTINUOUS
 10
5.286160
 20
1.716880
  0
VERTEX
  8
0
  6
CONTINUOUS
 10
5.333680
 20
1.740640
  0
VERTEX
  8
0
  6
CONTINUOUS
 10
5.401000
 20
1.782000
  0
VERTEX
  8
0
  6
CONTINUOUS
 10
5.463920
 20
1.829080
  0
VERTEX
  8
0
  6
CONTINUOUS
 10
5.541800
 20
1.896400
  0
VERTEX
  8
0
  6
CONTINUOUS
 10
5.578760
 20
1.930280
  0
VERTEX
  8
0
  6
CONTINUOUS
 10
5.611760
 20
1.929840
  0
VERTEX
  8
0
  6
CONTINUOUS
 10
5.940880
 20
1.564640
  0
VERTEX
  8
0
  6
CONTINUOUS
 10
5.525960
 20
1.195920
  0
VERTEX
  8
0
  6
CONTINUOUS
 10
3.149960
 20
1.201200
  0
SEQEND
  8
0
  0
POLYLINE
  8
0
  6
CONTINUOUS
 66
     1
 40
0.000000
 41
0.000000
  0
VERTEX
  8
0
  6
CONTINUOUS
 10
5.337640
 20
2.280520
  0
VERTEX
  8
0
  6
CONTINUOUS
 10
5.940880
 20
2.886840
  0
VERTEX
  8
0
  6
CONTINUOUS
 10
5.807560
 20
3.006520
  0
VERTEX
  8
0
  6
CONTINUOUS
 10
5.742880
 20
2.966480
  0
VERTEX
  8
0
  6
CONTINUOUS
 10
5.699760
 20
2.945360
  0
VERTEX
  8
0
  6
CONTINUOUS
 10
5.659720
 20
2.931280
  0
VERTEX
  8
0
  6
CONTINUOUS
 10
5.622760
 20
2.923360
  0
VERTEX
  8
0
  6
CONTINUOUS
 10
5.588440
 20
2.920720
  0
VERTEX
  8
0
  6
CONTINUOUS
 10
5.566000
 20
2.922040
  0
VERTEX
  8
0
  6
CONTINUOUS
 10
5.522440
 20
2.930400
  0
VERTEX
  8
0
  6
CONTINUOUS
 10
5.478880
 20
2.945360
  0
VERTEX
  8
0
  6
CONTINUOUS
 10
5.360520
 20
2.998160
  0
VERTEX
  8
0
  6
CONTINUOUS
 10
5.335440
 20
3.007400
  0
VERTEX
  8
0
  6
CONTINUOUS
 10
5.309920
 20
3.014880
  0
VERTEX
  8
0
  6
CONTINUOUS
 10
5.284400
 20
3.020600
  0
VERTEX
  8
0
  6
CONTINUOUS
 10
5.258000
 20
3.024560
  0
VERTEX
  8
0
  6
CONTINUOUS
 10
5.231600
 20
3.025880
  0
VERTEX
  8
0
  6
CONTINUOUS
 10
5.191560
 20
3.022800
  0
VERTEX
  8
0
  6
CONTINUOUS
 10
5.164720
 20
3.017080
  0
VERTEX
  8
0
  6
CONTINUOUS
 10
5.137440
 20
3.007840
  0
VERTEX
  8
0
  6
CONTINUOUS
 10
5.095640
 20
2.987160
  0
VERTEX
  8
0
  6
CONTINUOUS
 10
5.067480
 20
2.968680
  0
VERTEX
  8
0
  6
CONTINUOUS
 10
5.024800
 20
2.932600
  0
VERTEX
  8
0
  6
CONTINUOUS
 10
4.981680
 20
2.886400
  0
VERTEX
  8
0
  6
CONTINUOUS
 10
4.828120
 20
3.025000
  0
VERTEX
  8
0
  6
CONTINUOUS
 10
4.656960
 20
2.836680
  0
VERTEX
  8
0
  6
CONTINUOUS
 10
4.587000
 20
2.895200
  0
VERTEX
  8
0
  6
CONTINUOUS
 10
4.539920
 20
2.928200
  0
VERTEX
  8
0
  6
CONTINUOUS
 10
4.492400
 20
2.956800
  0
VERTEX
  8
0
  6
CONTINUOUS
 10
4.444000
 20
2.980560
  0
VERTEX
  8
0
  6
CONTINUOUS
 10
4.394720
 20
2.999040
  0
VERTEX
  8
0
  6
CONTINUOUS
 10
4.343680
 20
3.012680
  0
VERTEX
  8
0
  6
CONTINUOUS
 10
4.291760
 20
3.021040
  0
VERTEX
  8
0
  6
CONTINUOUS
 10
4.237640
 20
3.023680
  0
VERTEX
  8
0
  6
CONTINUOUS
 10
4.209920
 20
3.023240
  0
VERTEX
  8
0
  6
CONTINUOUS
 10
4.152720
 20
3.017520
  0
VERTEX
  8
0
  6
CONTINUOUS
 10
4.093320
 20
3.006080
  0
VERTEX
  8
0
  6
CONTINUOUS
 10
4.062960
 20
2.998600
  0
VERTEX
  8
0
  6
CONTINUOUS
 10
3.999600
 20
2.978360
  0
VERTEX
  8
0
  6
CONTINUOUS
 10
3.933600
 20
2.951960
  0
VERTEX
  8
0
  6
CONTINUOUS
 10
3.864080
 20
2.919840
  0
VERTEX
  8
0
  6
CONTINUOUS
 10
3.791480
 20
2.881120
  0
VERTEX
  8
0
  6
CONTINUOUS
 10
3.715800
 20
2.838000
  0
VERTEX
  8
0
  6
CONTINUOUS
 10
3.661240
 20
2.810720
  0
VERTEX
  8
0
  6
CONTINUOUS
 10
3.608440
 20
2.789160
  0
VERTEX
  8
0
  6
CONTINUOUS
 10
3.574560
 20
2.777280
  0
VERTEX
  8
0
  6
CONTINUOUS
 10
3.541120
 20
2.768040
  0
VERTEX
  8
0
  6
CONTINUOUS
 10
3.477320
 20
2.755720
  0
VERTEX
  8
0
  6
CONTINUOUS
 10
3.446520
 20
2.752200
  0
VERTEX
  8
0
  6
CONTINUOUS
 10
3.416160
 20
2.750880
  0
VERTEX
  8
0
  6
CONTINUOUS
 10
3.387120
 20
2.751320
  0
VERTEX
  8
0
  6
CONTINUOUS
 10
3.330800
 20
2.757040
  0
VERTEX
  8
0
  6
CONTINUOUS
 10
3.277120
 20
2.768920
  0
VERTEX
  8
0
  6
CONTINUOUS
 10
3.251160
 20
2.776400
  0
VERTEX
  8
0
  6
CONTINUOUS
 10
3.201440
 20
2.795760
  0
VERTEX
  8
0
  6
CONTINUOUS
 10
3.153920
 20
2.819520
  0
VERTEX
  8
0
  6
CONTINUOUS
 10
3.086600
 20
2.860880
  0
VERTEX
  8
0
  6
CONTINUOUS
 10
3.023680
 20
2.907960
  0
VERTEX
  8
0
  6
CONTINUOUS
 10
2.945800
 20
2.975280
  0
VERTEX
  8
0
  6
CONTINUOUS
 10
2.908840
 20
3.009160
  0
VERTEX
  8
0
  6
CONTINUOUS
 10
2.876280
 20
3.009160
  0
VERTEX
  8
0
  6
CONTINUOUS
 10
2.546720
 20
2.643960
  0
VERTEX
  8
0
  6
CONTINUOUS
 10
2.961640
 20
2.275240
  0
VERTEX
  8
0
  6
CONTINUOUS
 10
5.337640
 20
2.280520
  0
SEQEND
  8
0
  0
SOLID
  8
0
 62
    15
 10
3.781360
 20
4.798200
 11
4.427720
 21
4.429040
 12
3.661240
 22
4.792040
 13
4.308040
 23
4.422880
  0
POLYLINE
  8
0
  6
CONTINUOUS
 66
     1
 40
0.000000
 41
0.000000
  0
VERTEX
  8
0
  6
CONTINUOUS
 10
3.781360
 20
4.798200
  0
VERTEX
  8
0
  6
CONTINUOUS
 10
4.427720
 20
4.429040
  0
VERTEX
  8
0
  6
CONTINUOUS
 10
4.308040
 20
4.422880
  0
VERTEX
  8
0
  6
CONTINUOUS
 10
3.661240
 20
4.792040
  0
VERTEX
  8
0
  6
CONTINUOUS
 10
3.781360
 20
4.798200
  0
SEQEND
  8
0
  0
SOLID
  8
0
 62
    15
 10
5.098280
 20
5.857720
 11
5.745080
 21
5.488560
 12
5.074080
 22
5.835720
 13
5.720880
 23
5.466560
  0
POLYLINE
  8
0
  6
CONTINUOUS
 66
     1
 40
0.000000
 41
0.000000
  0
VERTEX
  8
0
  6
CONTINUOUS
 10
5.098280
 20
5.857720
  0
VERTEX
  8
0
  6
CONTINUOUS
 10
5.745080
 20
5.488560
  0
VERTEX
  8
0
  6
CONTINUOUS
 10
5.720880
 20
5.466560
  0
VERTEX
  8
0
  6
CONTINUOUS
 10
5.074080
 20
5.835720
  0
VERTEX
  8
0
  6
CONTINUOUS
 10
5.098280
 20
5.857720
  0
SEQEND
  8
0
  0
SOLID
  8
0
 62
    15
 10
5.074080
 20
5.835720
 11
5.720880
 21
5.466560
 12
4.869040
 22
5.829560
 13
5.515400
 23
5.460400
  0
POLYLINE
  8
0
  6
CONTINUOUS
 66
     1
 40
0.000000
 41
0.000000
  0
VERTEX
  8
0
  6
CONTINUOUS
 10
5.074080
 20
5.835720
  0
VERTEX
  8
0
  6
CONTINUOUS
 10
5.720880
 20
5.466560
  0
VERTEX
  8
0
  6
CONTINUOUS
 10
5.515400
 20
5.460400
  0
VERTEX
  8
0
  6
CONTINUOUS
 10
4.869040
 20
5.829560
  0
VERTEX
  8
0
  6
CONTINUOUS
 10
5.074080
 20
5.835720
  0
SEQEND
  8
0
  0
SOLID
  8
0
 62
    15
 10
4.869040
 20
5.829560
 11
5.515400
 21
5.460400
 12
4.765200
 22
5.811960
 13
5.411560
 23
5.442800
  0
POLYLINE
  8
0
  6
CONTINUOUS
 66
     1
 40
0.000000
 41
0.000000
  0
VERTEX
  8
0
  6
CONTINUOUS
 10
4.869040
 20
5.829560
  0
VERTEX
  8
0
  6
CONTINUOUS
 10
5.515400
 20
5.460400
  0
VERTEX
  8
0
  6
CONTINUOUS
 10
5.411560
 20
5.442800
  0
VERTEX
  8
0
  6
CONTINUOUS
 10
4.765200
 20
5.811960
  0
VERTEX
  8
0
  6
CONTINUOUS
 10
4.869040
 20
5.829560
  0
SEQEND
  8
0
  0
SOLID
  8
0
 62
    15
 10
4.765200
 20
5.811960
 11
5.411560
 21
5.442800
 12
4.664000
 22
5.778520
 13
5.310800
 23
5.409360
  0
POLYLINE
  8
0
  6
CONTINUOUS
 66
     1
 40
0.000000
 41
0.000000
  0
VERTEX
  8
0
  6
CONTINUOUS
 10
4.765200
 20
5.811960
  0
VERTEX
  8
0
  6
CONTINUOUS
 10
5.411560
 20
5.442800
  0
VERTEX
  8
0
  6
CONTINUOUS
 10
5.310800
 20
5.409360
  0
VERTEX
  8
0
  6
CONTINUOUS
 10
4.664000
 20
5.778520
  0
VERTEX
  8
0
  6
CONTINUOUS
 10
4.765200
 20
5.811960
  0
SEQEND
  8
0
  0
SOLID
  8
0
 62
    15
 10
4.664000
 20
5.778520
 11
5.310800
 21
5.409360
 12
4.568960
 22
5.723960
 13
5.215760
 23
5.354800
  0
POLYLINE
  8
0
  6
CONTINUOUS
 66
     1
 40
0.000000
 41
0.000000
  0
VERTEX
  8
0
  6
CONTINUOUS
 10
4.664000
 20
5.778520
  0
VERTEX
  8
0
  6
CONTINUOUS
 10
5.310800
 20
5.409360
  0
VERTEX
  8
0
  6
CONTINUOUS
 10
5.215760
 20
5.354800
  0
VERTEX
  8
0
  6
CONTINUOUS
 10
4.568960
 20
5.723960
  0
VERTEX
  8
0
  6
CONTINUOUS
 10
4.664000
 20
5.778520
  0
SEQEND
  8
0
  0
SOLID
  8
0
 62
    15
 10
4.568960
 20
5.723960
 11
5.215760
 21
5.354800
 12
4.482280
 22
5.642560
 13
5.129080
 23
5.273400
  0
POLYLINE
  8
0
  6
CONTINUOUS
 66
     1
 40
0.000000
 41
0.000000
  0
VERTEX
  8
0
  6
CONTINUOUS
 10
4.568960
 20
5.723960
  0
VERTEX
  8
0
  6
CONTINUOUS
 10
5.215760
 20
5.354800
  0
VERTEX
  8
0
  6
CONTINUOUS
 10
5.129080
 20
5.273400
  0
VERTEX
  8
0
  6
CONTINUOUS
 10
4.482280
 20
5.642560
  0
VERTEX
  8
0
  6
CONTINUOUS
 10
4.568960
 20
5.723960
  0
SEQEND
  8
0
  0
SOLID
  8
0
 62
    15
 10
4.482280
 20
5.642560
 11
5.129080
 21
5.273400
 12
4.407480
 22
5.529920
 13
5.053840
 23
5.160760
  0
POLYLINE
  8
0
  6
CONTINUOUS
 66
     1
 40
0.000000
 41
0.000000
  0
VERTEX
  8
0
  6
CONTINUOUS
 10
4.482280
 20
5.642560
  0
VERTEX
  8
0
  6
CONTINUOUS
 10
5.129080
 20
5.273400
  0
VERTEX
  8
0
  6
CONTINUOUS
 10
5.053840
 20
5.160760
  0
VERTEX
  8
0
  6
CONTINUOUS
 10
4.407480
 20
5.529920
  0
VERTEX
  8
0
  6
CONTINUOUS
 10
4.482280
 20
5.642560
  0
SEQEND
  8
0
  0
SOLID
  8
0
 62
    15
 10
4.407480
 20
5.529920
 11
5.053840
 21
5.160760
 12
4.346760
 22
5.380760
 13
4.993120
 23
5.011600
  0
POLYLINE
  8
0
  6
CONTINUOUS
 66
     1
 40
0.000000
 41
0.000000
  0
VERTEX
  8
0
  6
CONTINUOUS
 10
4.407480
 20
5.529920
  0
VERTEX
  8
0
  6
CONTINUOUS
 10
5.053840
 20
5.160760
  0
VERTEX
  8
0
  6
CONTINUOUS
 10
4.993120
 20
5.011600
  0
VERTEX
  8
0
  6
CONTINUOUS
 10
4.346760
 20
5.380760
  0
VERTEX
  8
0
  6
CONTINUOUS
 10
4.407480
 20
5.529920
  0
SEQEND
  8
0
  0
SOLID
  8
0
 62
    15
 10
4.346760
 20
5.380760
 11
4.993120
 21
5.011600
 12
4.290440
 22
5.225440
 13
4.937240
 23
4.856280
  0
POLYLINE
  8
0
  6
CONTINUOUS
 66
     1
 40
0.000000
 41
0.000000
  0
VERTEX
  8
0
  6
CONTINUOUS
 10
4.346760
 20
5.380760
  0
VERTEX
  8
0
  6
CONTINUOUS
 10
4.993120
 20
5.011600
  0
VERTEX
  8
0
  6
CONTINUOUS
 10
4.937240
 20
4.856280
  0
VERTEX
  8
0
  6
CONTINUOUS
 10
4.290440
 20
5.225440
  0
VERTEX
  8
0
  6
CONTINUOUS
 10
4.346760
 20
5.380760
  0
SEQEND
  8
0
  0
SOLID
  8
0
 62
    15
 10
4.290440
 20
5.225440
 11
4.937240
 21
4.856280
 12
4.227520
 22
5.097840
 13
4.874320
 23
4.728680
  0
POLYLINE
  8
0
  6
CONTINUOUS
 66
     1
 40
0.000000
 41
0.000000
  0
VERTEX
  8
0
  6
CONTINUOUS
 10
4.290440
 20
5.225440
  0
VERTEX
  8
0
  6
CONTINUOUS
 10
4.937240
 20
4.856280
  0
VERTEX
  8
0
  6
CONTINUOUS
 10
4.874320
 20
4.728680
  0
VERTEX
  8
0
  6
CONTINUOUS
 10
4.227520
 20
5.097840
  0
VERTEX
  8
0
  6
CONTINUOUS
 10
4.290440
 20
5.225440
  0
SEQEND
  8
0
  0
SOLID
  8
0
 62
    15
 10
4.227520
 20
5.097840
 11
4.874320
 21
4.728680
 12
4.156680
 22
4.995320
 13
4.803040
 23
4.626160
  0
POLYLINE
  8
0
  6
CONTINUOUS
 66
     1
 40
0.000000
 41
0.000000
  0
VERTEX
  8
0
  6
CONTINUOUS
 10
4.227520
 20
5.097840
  0
VERTEX
  8
0
  6
CONTINUOUS
 10
4.874320
 20
4.728680
  0
VERTEX
  8
0
  6
CONTINUOUS
 10
4.803040
 20
4.626160
  0
VERTEX
  8
0
  6
CONTINUOUS
 10
4.156680
 20
4.995320
  0
VERTEX
  8
0
  6
CONTINUOUS
 10
4.227520
 20
5.097840
  0
SEQEND
  8
0
  0
SOLID
  8
0
 62
    15
 10
4.156680
 20
4.995320
 11
4.803040
 21
4.626160
 12
4.077040
 22
4.916560
 13
4.723840
 23
4.547400
  0
POLYLINE
  8
0
  6
CONTINUOUS
 66
     1
 40
0.000000
 41
0.000000
  0
VERTEX
  8
0
  6
CONTINUOUS
 10
4.156680
 20
4.995320
  0
VERTEX
  8
0
  6
CONTINUOUS
 10
4.803040
 20
4.626160
  0
VERTEX
  8
0
  6
CONTINUOUS
 10
4.723840
 20
4.547400
  0
VERTEX
  8
0
  6
CONTINUOUS
 10
4.077040
 20
4.916560
  0
VERTEX
  8
0
  6
CONTINUOUS
 10
4.156680
 20
4.995320
  0
SEQEND
  8
0
  0
SOLID
  8
0
 62
    15
 10
4.077040
 20
4.916560
 11
4.723840
 21
4.547400
 12
3.988600
 22
4.858480
 13
4.635400
 23
4.489320
  0
POLYLINE
  8
0
  6
CONTINUOUS
 66
     1
 40
0.000000
 41
0.000000
  0
VERTEX
  8
0
  6
CONTINUOUS
 10
4.077040
 20
4.916560
  0
VERTEX
  8
0
  6
CONTINUOUS
 10
4.723840
 20
4.547400
  0
VERTEX
  8
0
  6
CONTINUOUS
 10
4.635400
 20
4.489320
  0
VERTEX
  8
0
  6
CONTINUOUS
 10
3.988600
 20
4.858480
  0
VERTEX
  8
0
  6
CONTINUOUS
 10
4.077040
 20
4.916560
  0
SEQEND
  8
0
  0
SOLID
  8
0
 62
    15
 10
3.988600
 20
4.858480
 11
4.635400
 21
4.489320
 12
3.890040
 22
4.819760
 13
4.536840
 23
4.450600
  0
POLYLINE
  8
0
  6
CONTINUOUS
 66
     1
 40
0.000000
 41
0.000000
  0
VERTEX
  8
0
  6
CONTINUOUS
 10
3.988600
 20
4.858480
  0
VERTEX
  8
0
  6
CONTINUOUS
 10
4.635400
 20
4.489320
  0
VERTEX
  8
0
  6
CONTINUOUS
 10
4.536840
 20
4.450600
  0
VERTEX
  8
0
  6
CONTINUOUS
 10
3.890040
 20
4.819760
  0
VERTEX
  8
0
  6
CONTINUOUS
 10
3.988600
 20
4.858480
  0
SEQEND
  8
0
  0
SOLID
  8
0
 62
    15
 10
3.890040
 20
4.819760
 11
4.536840
 21
4.450600
 12
3.781360
 22
4.798200
 13
4.427720
 23
4.429040
  0
POLYLINE
  8
0
  6
CONTINUOUS
 66
     1
 40
0.000000
 41
0.000000
  0
VERTEX
  8
0
  6
CONTINUOUS
 10
3.890040
 20
4.819760
  0
VERTEX
  8
0
  6
CONTINUOUS
 10
4.536840
 20
4.450600
  0
VERTEX
  8
0
  6
CONTINUOUS
 10
4.427720
 20
4.429040
  0
VERTEX
  8
0
  6
CONTINUOUS
 10
3.781360
 20
4.798200
  0
VERTEX
  8
0
  6
CONTINUOUS
 10
3.890040
 20
4.819760
  0
SEQEND
  8
0
  0
SOLID
  8
0
 62
    15
 10
5.097840
 20
6.349640
 11
5.744200
 21
5.980480
 12
5.098280
 22
5.857720
 13
5.745080
 23
5.488560
  0
POLYLINE
  8
0
  6
CONTINUOUS
 66
     1
 40
0.000000
 41
0.000000
  0
VERTEX
  8
0
  6
CONTINUOUS
 10
5.097840
 20
6.349640
  0
VERTEX
  8
0
  6
CONTINUOUS
 10
5.744200
 20
5.980480
  0
VERTEX
  8
0
  6
CONTINUOUS
 10
5.745080
 20
5.488560
  0
VERTEX
  8
0
  6
CONTINUOUS
 10
5.098280
 20
5.857720
  0
VERTEX
  8
0
  6
CONTINUOUS
 10
5.097840
 20
6.349640
  0
SEQEND
  8
0
  0
SOLID
  8
0
 62
    15
 10
3.661240
 20
4.792040
 11
4.308040
 21
4.422880
 12
3.660800
 22
4.537720
 13
4.307160
 23
4.168560
  0
POLYLINE
  8
0
  6
CONTINUOUS
 66
     1
 40
0.000000
 41
0.000000
  0
VERTEX
  8
0
  6
CONTINUOUS
 10
3.661240
 20
4.792040
  0
VERTEX
  8
0
  6
CONTINUOUS
 10
4.308040
 20
4.422880
  0
VERTEX
  8
0
  6
CONTINUOUS
 10
4.307160
 20
4.168560
  0
VERTEX
  8
0
  6
CONTINUOUS
 10
3.660800
 20
4.537720
  0
VERTEX
  8
0
  6
CONTINUOUS
 10
3.661240
 20
4.792040
  0
SEQEND
  8
0
  0
SOLID
  8
0
 62
    15
 10
3.660800
 20
4.537720
 11
4.307160
 21
4.168560
 12
3.453560
 22
4.537280
 13
4.100360
 23
4.168120
  0
POLYLINE
  8
0
  6
CONTINUOUS
 66
     1
 40
0.000000
 41
0.000000
  0
VERTEX
  8
0
  6
CONTINUOUS
 10
3.660800
 20
4.537720
  0
VERTEX
  8
0
  6
CONTINUOUS
 10
4.307160
 20
4.168560
  0
VERTEX
  8
0
  6
CONTINUOUS
 10
4.100360
 20
4.168120
  0
VERTEX
  8
0
  6
CONTINUOUS
 10
3.453560
 20
4.537280
  0
VERTEX
  8
0
  6
CONTINUOUS
 10
3.660800
 20
4.537720
  0
SEQEND
  8
0
  0
SOLID
  8
0
 62
    15
 10
3.453560
 20
4.537280
 11
4.100360
 21
4.168120
 12
3.450920
 22
4.454560
 13
4.097720
 23
4.085400
  0
POLYLINE
  8
0
  6
CONTINUOUS
 66
     1
 40
0.000000
 41
0.000000
  0
VERTEX
  8
0
  6
CONTINUOUS
 10
3.453560
 20
4.537280
  0
VERTEX
  8
0
  6
CONTINUOUS
 10
4.100360
 20
4.168120
  0
VERTEX
  8
0
  6
CONTINUOUS
 10
4.097720
 20
4.085400
  0
VERTEX
  8
0
  6
CONTINUOUS
 10
3.450920
 20
4.454560
  0
VERTEX
  8
0
  6
CONTINUOUS
 10
3.453560
 20
4.537280
  0
SEQEND
  8
0
  0
SOLID
  8
0
 62
    15
 10
3.450920
 20
4.454560
 11
4.097720
 21
4.085400
 12
3.436840
 22
4.385920
 13
4.083640
 23
4.016760
  0
POLYLINE
  8
0
  6
CONTINUOUS
 66
     1
 40
0.000000
 41
0.000000
  0
VERTEX
  8
0
  6
CONTINUOUS
 10
3.450920
 20
4.454560
  0
VERTEX
  8
0
  6
CONTINUOUS
 10
4.097720
 20
4.085400
  0
VERTEX
  8
0
  6
CONTINUOUS
 10
4.083640
 20
4.016760
  0
VERTEX
  8
0
  6
CONTINUOUS
 10
3.436840
 20
4.385920
  0
VERTEX
  8
0
  6
CONTINUOUS
 10
3.450920
 20
4.454560
  0
SEQEND
  8
0
  0
SOLID
  8
0
 62
    15
 10
3.436840
 20
4.385920
 11
4.083640
 21
4.016760
 12
3.413080
 22
4.330040
 13
4.059440
 23
3.960880
  0
POLYLINE
  8
0
  6
CONTINUOUS
 66
     1
 40
0.000000
 41
0.000000
  0
VERTEX
  8
0
  6
CONTINUOUS
 10
3.436840
 20
4.385920
  0
VERTEX
  8
0
  6
CONTINUOUS
 10
4.083640
 20
4.016760
  0
VERTEX
  8
0
  6
CONTINUOUS
 10
4.059440
 20
3.960880
  0
VERTEX
  8
0
  6
CONTINUOUS
 10
3.413080
 20
4.330040
  0
VERTEX
  8
0
  6
CONTINUOUS
 10
3.436840
 20
4.385920
  0
SEQEND
  8
0
  0
SOLID
  8
0
 62
    15
 10
3.413080
 20
4.330040
 11
4.059440
 21
3.960880
 12
3.380520
 22
4.285160
 13
4.027320
 23
3.916000
  0
POLYLINE
  8
0
  6
CONTINUOUS
 66
     1
 40
0.000000
 41
0.000000
  0
VERTEX
  8
0
  6
CONTINUOUS
 10
3.413080
 20
4.330040
  0
VERTEX
  8
0
  6
CONTINUOUS
 10
4.059440
 20
3.960880
  0
VERTEX
  8
0
  6
CONTINUOUS
 10
4.027320
 20
3.916000
  0
VERTEX
  8
0
  6
CONTINUOUS
 10
3.380520
 20
4.285160
  0
VERTEX
  8
0
  6
CONTINUOUS
 10
3.413080
 20
4.330040
  0
SEQEND
  8
0
  0
SOLID
  8
0
 62
    15
 10
3.380520
 20
4.285160
 11
4.027320
 21
3.916000
 12
3.296480
 22
4.221800
 13
3.943280
 23
3.852640
  0
POLYLINE
  8
0
  6
CONTINUOUS
 66
     1
 40
0.000000
 41
0.000000
  0
VERTEX
  8
0
  6
CONTINUOUS
 10
3.380520
 20
4.285160
  0
VERTEX
  8
0
  6
CONTINUOUS
 10
4.027320
 20
3.916000
  0
VERTEX
  8
0
  6
CONTINUOUS
 10
3.943280
 20
3.852640
  0
VERTEX
  8
0
  6
CONTINUOUS
 10
3.296480
 20
4.221800
  0
VERTEX
  8
0
  6
CONTINUOUS
 10
3.380520
 20
4.285160
  0
SEQEND
  8
0
  0
SOLID
  8
0
 62
    15
 10
3.296480
 20
4.221800
 11
3.943280
 21
3.852640
 12
3.197040
 22
4.183080
 13
3.843400
 23
3.813920
  0
POLYLINE
  8
0
  6
CONTINUOUS
 66
     1
 40
0.000000
 41
0.000000
  0
VERTEX
  8
0
  6
CONTINUOUS
 10
3.296480
 20
4.221800
  0
VERTEX
  8
0
  6
CONTINUOUS
 10
3.943280
 20
3.852640
  0
VERTEX
  8
0
  6
CONTINUOUS
 10
3.843400
 20
3.813920
  0
VERTEX
  8
0
  6
CONTINUOUS
 10
3.197040
 20
4.183080
  0
VERTEX
  8
0
  6
CONTINUOUS
 10
3.296480
 20
4.221800
  0
SEQEND
  8
0
  0
SOLID
  8
0
 62
    15
 10
3.197040
 20
4.183080
 11
3.843400
 21
3.813920
 12
3.102880
 22
4.151400
 13
3.749680
 23
3.782240
  0
POLYLINE
  8
0
  6
CONTINUOUS
 66
     1
 40
0.000000
 41
0.000000
  0
VERTEX
  8
0
  6
CONTINUOUS
 10
3.197040
 20
4.183080
  0
VERTEX
  8
0
  6
CONTINUOUS
 10
3.843400
 20
3.813920
  0
VERTEX
  8
0
  6
CONTINUOUS
 10
3.749680
 20
3.782240
  0
VERTEX
  8
0
  6
CONTINUOUS
 10
3.102880
 20
4.151400
  0
VERTEX
  8
0
  6
CONTINUOUS
 10
3.197040
 20
4.183080
  0
SEQEND
  8
0
  0
SOLID
  8
0
 62
    15
 10
3.102880
 20
4.151400
 11
3.749680
 21
3.782240
 12
3.027200
 22
4.104760
 13
3.673560
 23
3.735600
  0
POLYLINE
  8
0
  6
CONTINUOUS
 66
     1
 40
0.000000
 41
0.000000
  0
VERTEX
  8
0
  6
CONTINUOUS
 10
3.102880
 20
4.151400
  0
VERTEX
  8
0
  6
CONTINUOUS
 10
3.749680
 20
3.782240
  0
VERTEX
  8
0
  6
CONTINUOUS
 10
3.673560
 20
3.735600
  0
VERTEX
  8
0
  6
CONTINUOUS
 10
3.027200
 20
4.104760
  0
VERTEX
  8
0
  6
CONTINUOUS
 10
3.102880
 20
4.151400
  0
SEQEND
  8
0
  0
SOLID
  8
0
 62
    15
 10
3.027200
 20
4.104760
 11
3.673560
 21
3.735600
 12
2.995080
 22
4.070440
 13
3.641880
 23
3.701280
  0
POLYLINE
  8
0
  6
CONTINUOUS
 66
     1
 40
0.000000
 41
0.000000
  0
VERTEX
  8
0
  6
CONTINUOUS
 10
3.027200
 20
4.104760
  0
VERTEX
  8
0
  6
CONTINUOUS
 10
3.673560
 20
3.735600
  0
VERTEX
  8
0
  6
CONTINUOUS
 10
3.641880
 20
3.701280
  0
VERTEX
  8
0
  6
CONTINUOUS
 10
2.995080
 20
4.070440
  0
VERTEX
  8
0
  6
CONTINUOUS
 10
3.027200
 20
4.104760
  0
SEQEND
  8
0
  0
SOLID
  8
0
 62
    15
 10
2.995080
 20
4.070440
 11
3.641880
 21
3.701280
 12
2.967360
 22
4.025120
 13
3.613720
 23
3.655960
  0
POLYLINE
  8
0
  6
CONTINUOUS
 66
     1
 40
0.000000
 41
0.000000
  0
VERTEX
  8
0
  6
CONTINUOUS
 10
2.995080
 20
4.070440
  0
VERTEX
  8
0
  6
CONTINUOUS
 10
3.641880
 20
3.701280
  0
VERTEX
  8
0
  6
CONTINUOUS
 10
3.613720
 20
3.655960
  0
VERTEX
  8
0
  6
CONTINUOUS
 10
2.967360
 20
4.025120
  0
VERTEX
  8
0
  6
CONTINUOUS
 10
2.995080
 20
4.070440
  0
SEQEND
  8
0
  0
SOLID
  8
0
 62
    15
 10
2.967360
 20
4.025120
 11
3.613720
 21
3.655960
 12
2.942720
 22
3.967480
 13
3.589520
 23
3.598320
  0
POLYLINE
  8
0
  6
CONTINUOUS
 66
     1
 40
0.000000
 41
0.000000
  0
VERTEX
  8
0
  6
CONTINUOUS
 10
2.967360
 20
4.025120
  0
VERTEX
  8
0
  6
CONTINUOUS
 10
3.613720
 20
3.655960
  0
VERTEX
  8
0
  6
CONTINUOUS
 10
3.589520
 20
3.598320
  0
VERTEX
  8
0
  6
CONTINUOUS
 10
2.942720
 20
3.967480
  0
VERTEX
  8
0
  6
CONTINUOUS
 10
2.967360
 20
4.025120
  0
SEQEND
  8
0
  0
SOLID
  8
0
 62
    15
 10
2.942720
 20
3.967480
 11
3.589520
 21
3.598320
 12
2.921600
 22
3.894440
 13
3.568400
 23
3.525280
  0
POLYLINE
  8
0
  6
CONTINUOUS
 66
     1
 40
0.000000
 41
0.000000
  0
VERTEX
  8
0
  6
CONTINUOUS
 10
2.942720
 20
3.967480
  0
VERTEX
  8
0
  6
CONTINUOUS
 10
3.589520
 20
3.598320
  0
VERTEX
  8
0
  6
CONTINUOUS
 10
3.568400
 20
3.525280
  0
VERTEX
  8
0
  6
CONTINUOUS
 10
2.921600
 20
3.894440
  0
VERTEX
  8
0
  6
CONTINUOUS
 10
2.942720
 20
3.967480
  0
SEQEND
  8
0
  0
SOLID
  8
0
 62
    15
 10
2.921600
 20
3.894440
 11
3.568400
 21
3.525280
 12
2.742520
 22
3.893560
 13
3.389320
 23
3.524400
  0
POLYLINE
  8
0
  6
CONTINUOUS
 66
     1
 40
0.000000
 41
0.000000
  0
VERTEX
  8
0
  6
CONTINUOUS
 10
2.921600
 20
3.894440
  0
VERTEX
  8
0
  6
CONTINUOUS
 10
3.568400
 20
3.525280
  0
VERTEX
  8
0
  6
CONTINUOUS
 10
3.389320
 20
3.524400
  0
VERTEX
  8
0
  6
CONTINUOUS
 10
2.742520
 20
3.893560
  0
VERTEX
  8
0
  6
CONTINUOUS
 10
2.921600
 20
3.894440
  0
SEQEND
  8
0
  0
POLYLINE
  8
0
  6
CONTINUOUS
 66
     1
 40
0.000000
 41
0.000000
  0
VERTEX
  8
0
  6
CONTINUOUS
 10
2.783440
 20
4.748480
  0
VERTEX
  8
0
  6
CONTINUOUS
 10
4.543000
 20
6.345240
  0
VERTEX
  8
0
  6
CONTINUOUS
 10
5.097840
 20
6.349640
  0
VERTEX
  8
0
  6
CONTINUOUS
 10
5.098280
 20
5.857720
  0
VERTEX
  8
0
  6
CONTINUOUS
 10
5.074080
 20
5.835720
  0
VERTEX
  8
0
  6
CONTINUOUS
 10
4.869040
 20
5.829560
  0
VERTEX
  8
0
  6
CONTINUOUS
 10
4.765200
 20
5.811960
  0
VERTEX
  8
0
  6
CONTINUOUS
 10
4.664000
 20
5.778520
  0
VERTEX
  8
0
  6
CONTINUOUS
 10
4.568960
 20
5.723960
  0
VERTEX
  8
0
  6
CONTINUOUS
 10
4.482280
 20
5.642560
  0
VERTEX
  8
0
  6
CONTINUOUS
 10
4.407480
 20
5.529920
  0
VERTEX
  8
0
  6
CONTINUOUS
 10
4.346760
 20
5.380760
  0
VERTEX
  8
0
  6
CONTINUOUS
 10
4.290440
 20
5.225440
  0
VERTEX
  8
0
  6
CONTINUOUS
 10
4.227520
 20
5.097840
  0
VERTEX
  8
0
  6
CONTINUOUS
 10
4.156680
 20
4.995320
  0
VERTEX
  8
0
  6
CONTINUOUS
 10
4.077040
 20
4.916560
  0
VERTEX
  8
0
  6
CONTINUOUS
 10
3.988600
 20
4.858480
  0
VERTEX
  8
0
  6
CONTINUOUS
 10
3.890040
 20
4.819760
  0
VERTEX
  8
0
  6
CONTINUOUS
 10
3.781360
 20
4.798200
  0
VERTEX
  8
0
  6
CONTINUOUS
 10
3.661240
 20
4.792040
  0
VERTEX
  8
0
  6
CONTINUOUS
 10
3.660800
 20
4.537720
  0
VERTEX
  8
0
  6
CONTINUOUS
 10
3.453560
 20
4.537280
  0
VERTEX
  8
0
  6
CONTINUOUS
 10
3.450920
 20
4.454560
  0
VERTEX
  8
0
  6
CONTINUOUS
 10
3.436840
 20
4.385920
  0
VERTEX
  8
0
  6
CONTINUOUS
 10
3.413080
 20
4.330040
  0
VERTEX
  8
0
  6
CONTINUOUS
 10
3.380520
 20
4.285160
  0
VERTEX
  8
0
  6
CONTINUOUS
 10
3.296480
 20
4.221800
  0
VERTEX
  8
0
  6
CONTINUOUS
 10
3.197040
 20
4.183080
  0
VERTEX
  8
0
  6
CONTINUOUS
 10
3.102880
 20
4.151400
  0
VERTEX
  8
0
  6
CONTINUOUS
 10
3.027200
 20
4.104760
  0
VERTEX
  8
0
  6
CONTINUOUS
 10
2.995080
 20
4.070440
  0
VERTEX
  8
0
  6
CONTINUOUS
 10
2.967360
 20
4.025120
  0
VERTEX
  8
0
  6
CONTINUOUS
 10
2.942720
 20
3.967480
  0
VERTEX
  8
0
  6
CONTINUOUS
 10
2.921600
 20
3.894440
  0
VERTEX
  8
0
  6
CONTINUOUS
 10
2.742520
 20
3.893560
  0
VERTEX
  8
0
  6
CONTINUOUS
 10
2.783440
 20
4.748040
  0
VERTEX
  8
0
  6
CONTINUOUS
 10
2.783440
 20
4.748480
  0
SEQEND
  8
0
  0
TEXT
  8
0
 10
4.474360
 20
3.688960
 40
0.138031
  1
BA  1328
 41
1.000000
  7
SN0
 71
     0
 72
     5
 11
5.107764
 21
3.688960
  0
TEXT
  8
0
 10
4.381960
 20
3.536280
 40
0.138031
  1
3/4" x 3-3/8"
 41
1.000000
  7
SN0
 71
     0
 72
     5
 11
5.198292
 21
3.536280
  0
TEXT
  8
0
 10
3.916880
 20
6.909320
 40
0.138031
  1
BA  1328
 41
1.000000
  7
SN0
 71
     0
 72
     5
 11
4.550284
 21
6.909320
  0
TEXT
  8
0
 10
3.824480
 20
6.756640
 40
0.138031
  1
3/4" x 3-3/8"
 41
1.000000
  7
SN0
 71
     0
 72
     5
 11
4.640812
 21
6.756640
  0
ENDSEC
  0
EOF
