  0
SECTION
  2
HEADER
  9
$ACADVER
  1
AC1006
  9
$EXTMIN
 10
1.441880
 20
0.397320
  9
$EXTMAX
 10
6.802400
 20
10.236160
  9
$LTSCALE
 40
0.044000
  9
$PDMODE
 70
    35
  9
$PDSIZE
 40
0.035200
  0
ENDSEC
  0
SECTION
  2
TABLES
  0
TABLE
  2
LTYPE
 70
     9
  0
LTYPE
  2
CONTINUOUS
 70
    64
  3
Solid line
 72
    65
 73
     0
 40
0.000000
  0
LTYPE
  2
DASHED
 70
    64
  3
__ __ __ __ __ __ __ __ __ __ __ __ __ __ __
 72
    65
 73
     2
 40
0.000330
 49
0.000220
 49
-0.000110
  0
LTYPE
  2
HIDDEN
 70
    64
  3
 _ _ _ _ _ _ _ _ _ _ _ _ _ _ _ _ _ _ _ _ _ _
 72
    65
 73
     2
 40
0.000165
 49
0.000110
 49
-0.000055
  0
LTYPE
  2
CENTER
 70
    64
  3
____ _ ____ _ ____ _ ____ _ ____ _ ____ _ ____
 72
    65
 73
     4
 40
0.000880
 49
0.000550
 49
-0.000110
 49
0.000110
 49
-0.000110
  0
LTYPE
  2
PHANTOM
 70
    64
  3
_____ _ _ _____ _ _ _____ _ _ _____ _ _ ____
 72
    65
 73
     6
 40
0.001100
 49
0.000550
 49
-0.000110
 49
0.000110
 49
-0.000110
 49
0.000110
 49
-0.000110
  0
LTYPE
  2
DOT
 70
    64
  3
...............................................
 72
    65
 73
     2
 40
0.000110
 49
0.000000
 49
-0.000110
  0
LTYPE
  2
DASHDOT
 70
    64
  3
__ . __ . __ . __ . __ . __ . __ . __ . __ . __
 72
    65
 73
     4
 40
0.000440
 49
0.000220
 49
-0.000110
 49
0.000000
 49
-0.000110
  0
LTYPE
  2
BORDER
 70
    64
  3
__ __ . __ __ . __ __ . __ __ . __ __ . __ __
 72
    65
 73
     6
 40
0.000770
 49
0.000220
 49
-0.000110
 49
0.000220
 49
-0.000110
 49
0.000000
 49
-0.000110
  0
LTYPE
  2
DIVIDE
 70
    64
  3
__ . . __ . . __ . . __ . . __ . . __ . . __
 72
    65
 73
     6
 40
0.000550
 49
0.000220
 49
-0.000110
 49
0.000000
 49
-0.000110
 49
0.000000
 49
-0.000110
  0
LTYPE
  2
DOTDOT
 70
    64
  3
 . .  . .  . .  . .  . .  . . 
 72
    65
 73
     5
 40
0.000242
 49
-0.000110
 49
0.000000
 49
-0.000110
 49
0.000000
 49
-0.000110
  0
ENDTAB
  0
TABLE
  2
STYLE
 70
     2
  0
STYLE
 70
     0
  2
SN0
 40
0.000000
 41
0.000440
 50
0.000000
 71
     0
 42
0.000000
  3
ROMAND
  0
STYLE
 70
    68
  2
SV0
 40
0.000000
 41
0.000440
 50
0.000000
 71
     0
 42
0.000000
  3
ROMAND
  0
ENDTAB
  0
TABLE
  2
LAYER
 70
     3
  0
LAYER
  2
FOREGROUND
 70
    64
 62
     7
  6
CONTINUOUS
  0
LAYER
  2
BACKGROUND
 70
    65
 62
    -7
  6
CONTINUOUS
  0
LAYER
  2
0
 70
    64
 62
     7
  6
CONTINUOUS
  0
ENDTAB
  0
ENDSEC
  0
SECTION
  2
ENTITIES
  0
POLYLINE
  8
FOREGROUND
  6
CONTINUOUS
 66
     1
 40
0.000000
 41
0.000000
  0
VERTEX
  8
FOREGROUND
  6
CONTINUOUS
 10
0.000000
 20
10.633480
  0
VERTEX
  8
FOREGROUND
  6
CONTINUOUS
 10
8.499920
 20
10.633480
  0
VERTEX
  8
FOREGROUND
  6
CONTINUOUS
 10
8.499920
 20
-0.366520
  0
VERTEX
  8
FOREGROUND
  6
CONTINUOUS
 10
0.000000
 20
-0.366520
  0
VERTEX
  8
FOREGROUND
  6
CONTINUOUS
 10
0.000000
 20
10.633480
  0
SEQEND
  8
0
  0
POLYLINE
  8
FOREGROUND
  6
CONTINUOUS
 66
     1
 40
0.000000
 41
0.000000
  0
VERTEX
  8
FOREGROUND
  6
CONTINUOUS
 10
0.000000
 20
10.633480
  0
VERTEX
  8
FOREGROUND
  6
CONTINUOUS
 10
8.499920
 20
10.633480
  0
VERTEX
  8
FOREGROUND
  6
CONTINUOUS
 10
8.499920
 20
-0.366520
  0
VERTEX
  8
FOREGROUND
  6
CONTINUOUS
 10
0.000000
 20
-0.366520
  0
VERTEX
  8
FOREGROUND
  6
CONTINUOUS
 10
0.000000
 20
10.633480
  0
SEQEND
  8
0
  0
POLYLINE
  8
0
  6
CONTINUOUS
 66
     1
 40
0.014080
 41
0.014080
  0
VERTEX
  8
0
  6
CONTINUOUS
 10
6.284520
 20
8.808800
  0
VERTEX
  8
0
  6
CONTINUOUS
 10
2.084280
 20
8.808800
  0
VERTEX
  8
0
  6
CONTINUOUS
 10
1.672000
 20
9.053000
  0
VERTEX
  8
0
  6
CONTINUOUS
 10
1.958440
 20
9.239120
  0
VERTEX
  8
0
  6
CONTINUOUS
 10
2.259400
 20
9.437120
  0
VERTEX
  8
0
  6
CONTINUOUS
 10
2.467960
 20
9.569560
  0
VERTEX
  8
0
  6
CONTINUOUS
 10
2.683560
 20
9.698920
  0
VERTEX
  8
0
  6
CONTINUOUS
 10
2.849000
 20
9.791760
  0
VERTEX
  8
0
  6
CONTINUOUS
 10
2.961640
 20
9.850720
  0
VERTEX
  8
0
  6
CONTINUOUS
 10
3.075600
 20
9.907040
  0
VERTEX
  8
0
  6
CONTINUOUS
 10
3.190880
 20
9.960280
  0
VERTEX
  8
0
  6
CONTINUOUS
 10
3.307920
 20
10.010000
  0
VERTEX
  8
0
  6
CONTINUOUS
 10
3.426720
 20
10.055320
  0
VERTEX
  8
0
  6
CONTINUOUS
 10
3.486560
 20
10.076880
  0
VERTEX
  8
0
  6
CONTINUOUS
 10
3.607560
 20
10.115600
  0
VERTEX
  8
0
  6
CONTINUOUS
 10
3.730320
 20
10.149480
  0
VERTEX
  8
0
  6
CONTINUOUS
 10
3.791920
 20
10.164440
  0
VERTEX
  8
0
  6
CONTINUOUS
 10
3.916880
 20
10.189960
  0
VERTEX
  8
0
  6
CONTINUOUS
 10
3.979800
 20
10.200520
  0
VERTEX
  8
0
  6
CONTINUOUS
 10
4.043160
 20
10.209320
  0
VERTEX
  8
0
  6
CONTINUOUS
 10
4.171200
 20
10.222080
  0
VERTEX
  8
0
  6
CONTINUOUS
 10
4.235440
 20
10.226040
  0
VERTEX
  8
0
  6
CONTINUOUS
 10
4.300560
 20
10.228240
  0
VERTEX
  8
0
  6
CONTINUOUS
 10
4.431240
 20
10.226920
  0
VERTEX
  8
0
  6
CONTINUOUS
 10
4.563680
 20
10.217680
  0
VERTEX
  8
0
  6
CONTINUOUS
 10
4.630120
 20
10.209760
  0
VERTEX
  8
0
  6
CONTINUOUS
 10
4.697440
 20
10.200080
  0
VERTEX
  8
0
  6
CONTINUOUS
 10
4.764760
 20
10.188200
  0
VERTEX
  8
0
  6
CONTINUOUS
 10
4.832520
 20
10.174120
  0
VERTEX
  8
0
  6
CONTINUOUS
 10
4.900720
 20
10.157840
  0
VERTEX
  8
0
  6
CONTINUOUS
 10
4.969360
 20
10.139360
  0
VERTEX
  8
0
  6
CONTINUOUS
 10
5.038440
 20
10.118240
  0
VERTEX
  8
0
  6
CONTINUOUS
 10
5.142280
 20
10.082160
  0
VERTEX
  8
0
  6
CONTINUOUS
 10
5.247440
 20
10.040360
  0
VERTEX
  8
0
  6
CONTINUOUS
 10
5.317840
 20
10.009560
  0
VERTEX
  8
0
  6
CONTINUOUS
 10
5.423880
 20
9.958080
  0
VERTEX
  8
0
  6
CONTINUOUS
 10
5.509680
 20
9.913640
  0
VERTEX
  8
0
  6
CONTINUOUS
 10
5.558520
 20
9.891200
  0
VERTEX
  8
0
  6
CONTINUOUS
 10
5.607800
 20
9.874040
  0
VERTEX
  8
0
  6
CONTINUOUS
 10
5.632880
 20
9.867440
  0
VERTEX
  8
0
  6
CONTINUOUS
 10
5.657960
 20
9.863040
  0
VERTEX
  8
0
  6
CONTINUOUS
 10
5.697120
 20
9.859960
  0
VERTEX
  8
0
  6
CONTINUOUS
 10
5.737600
 20
9.862600
  0
VERTEX
  8
0
  6
CONTINUOUS
 10
5.779840
 20
9.870960
  0
VERTEX
  8
0
  6
CONTINUOUS
 10
5.809760
 20
9.880200
  0
VERTEX
  8
0
  6
CONTINUOUS
 10
5.856400
 20
9.900440
  0
VERTEX
  8
0
  6
CONTINUOUS
 10
5.888960
 20
9.918040
  0
VERTEX
  8
0
  6
CONTINUOUS
 10
6.791840
 20
9.658880
  0
VERTEX
  8
0
  6
CONTINUOUS
 10
6.284520
 20
8.808800
  0
SEQEND
  8
0
  0
POLYLINE
  8
0
  6
CONTINUOUS
 66
     1
 40
0.000000
 41
0.000000
  0
VERTEX
  8
0
  6
CONTINUOUS
 10
6.054840
 20
2.134000
  0
VERTEX
  8
0
  6
CONTINUOUS
 10
1.854600
 20
2.134000
  0
VERTEX
  8
0
  6
CONTINUOUS
 10
1.442320
 20
2.378200
  0
VERTEX
  8
0
  6
CONTINUOUS
 10
1.631520
 20
2.500520
  0
VERTEX
  8
0
  6
CONTINUOUS
 10
2.029280
 20
2.762320
  0
VERTEX
  8
0
  6
CONTINUOUS
 10
2.238280
 20
2.895200
  0
VERTEX
  8
0
  6
CONTINUOUS
 10
2.453440
 20
3.024560
  0
VERTEX
  8
0
  6
CONTINUOUS
 10
2.618880
 20
3.116960
  0
VERTEX
  8
0
  6
CONTINUOUS
 10
2.788280
 20
3.204960
  0
VERTEX
  8
0
  6
CONTINUOUS
 10
2.960760
 20
3.285920
  0
VERTEX
  8
0
  6
CONTINUOUS
 10
3.078240
 20
3.335200
  0
VERTEX
  8
0
  6
CONTINUOUS
 10
3.196600
 20
3.380960
  0
VERTEX
  8
0
  6
CONTINUOUS
 10
3.316720
 20
3.422320
  0
VERTEX
  8
0
  6
CONTINUOUS
 10
3.438600
 20
3.458840
  0
VERTEX
  8
0
  6
CONTINUOUS
 10
3.500200
 20
3.475120
  0
VERTEX
  8
0
  6
CONTINUOUS
 10
3.624280
 20
3.503280
  0
VERTEX
  8
0
  6
CONTINUOUS
 10
3.749680
 20
3.525720
  0
VERTEX
  8
0
  6
CONTINUOUS
 10
3.876840
 20
3.542000
  0
VERTEX
  8
0
  6
CONTINUOUS
 10
3.941080
 20
3.547720
  0
VERTEX
  8
0
  6
CONTINUOUS
 10
4.005320
 20
3.551680
  0
VERTEX
  8
0
  6
CONTINUOUS
 10
4.135560
 20
3.553880
  0
VERTEX
  8
0
  6
CONTINUOUS
 10
4.201120
 20
3.552120
  0
VERTEX
  8
0
  6
CONTINUOUS
 10
4.267120
 20
3.548600
  0
VERTEX
  8
0
  6
CONTINUOUS
 10
4.333560
 20
3.542880
  0
VERTEX
  8
0
  6
CONTINUOUS
 10
4.400000
 20
3.535400
  0
VERTEX
  8
0
  6
CONTINUOUS
 10
4.467320
 20
3.525720
  0
VERTEX
  8
0
  6
CONTINUOUS
 10
4.534640
 20
3.513840
  0
VERTEX
  8
0
  6
CONTINUOUS
 10
4.602400
 20
3.499760
  0
VERTEX
  8
0
  6
CONTINUOUS
 10
4.670600
 20
3.483480
  0
VERTEX
  8
0
  6
CONTINUOUS
 10
4.739240
 20
3.464560
  0
VERTEX
  8
0
  6
CONTINUOUS
 10
4.808320
 20
3.443440
  0
VERTEX
  8
0
  6
CONTINUOUS
 10
4.912160
 20
3.407360
  0
VERTEX
  8
0
  6
CONTINUOUS
 10
5.017320
 20
3.366000
  0
VERTEX
  8
0
  6
CONTINUOUS
 10
5.122920
 20
3.318480
  0
VERTEX
  8
0
  6
CONTINUOUS
 10
5.304200
 20
3.227400
  0
VERTEX
  8
0
  6
CONTINUOUS
 10
5.328400
 20
3.216400
  0
VERTEX
  8
0
  6
CONTINUOUS
 10
5.377680
 20
3.199240
  0
VERTEX
  8
0
  6
CONTINUOUS
 10
5.402760
 20
3.192640
  0
VERTEX
  8
0
  6
CONTINUOUS
 10
5.427840
 20
3.188240
  0
VERTEX
  8
0
  6
CONTINUOUS
 10
5.467000
 20
3.185160
  0
VERTEX
  8
0
  6
CONTINUOUS
 10
5.507480
 20
3.187800
  0
VERTEX
  8
0
  6
CONTINUOUS
 10
5.550160
 20
3.196160
  0
VERTEX
  8
0
  6
CONTINUOUS
 10
5.595040
 20
3.211560
  0
VERTEX
  8
0
  6
CONTINUOUS
 10
5.642560
 20
3.234000
  0
VERTEX
  8
0
  6
CONTINUOUS
 10
5.659280
 20
3.243240
  0
VERTEX
  8
0
  6
CONTINUOUS
 10
6.561720
 20
2.984080
  0
VERTEX
  8
0
  6
CONTINUOUS
 10
6.054840
 20
2.134000
  0
SEQEND
  8
0
  0
POLYLINE
  8
0
  6
CONTINUOUS
 66
     1
 40
0.000000
 41
0.000000
  0
VERTEX
  8
0
  6
CONTINUOUS
 10
2.140160
 20
0.397760
  0
VERTEX
  8
0
  6
CONTINUOUS
 10
6.340400
 20
0.397760
  0
VERTEX
  8
0
  6
CONTINUOUS
 10
6.752680
 20
0.641960
  0
VERTEX
  8
0
  6
CONTINUOUS
 10
6.466240
 20
0.828080
  0
VERTEX
  8
0
  6
CONTINUOUS
 10
6.165280
 20
1.026080
  0
VERTEX
  8
0
  6
CONTINUOUS
 10
5.956720
 20
1.158520
  0
VERTEX
  8
0
  6
CONTINUOUS
 10
5.849800
 20
1.224080
  0
VERTEX
  8
0
  6
CONTINUOUS
 10
5.631120
 20
1.350360
  0
VERTEX
  8
0
  6
CONTINUOUS
 10
5.519800
 20
1.410640
  0
VERTEX
  8
0
  6
CONTINUOUS
 10
5.349080
 20
1.496000
  0
VERTEX
  8
0
  6
CONTINUOUS
 10
5.233800
 20
1.549240
  0
VERTEX
  8
0
  6
CONTINUOUS
 10
5.116760
 20
1.598960
  0
VERTEX
  8
0
  6
CONTINUOUS
 10
4.997960
 20
1.644720
  0
VERTEX
  8
0
  6
CONTINUOUS
 10
4.877840
 20
1.686080
  0
VERTEX
  8
0
  6
CONTINUOUS
 10
4.755960
 20
1.722160
  0
VERTEX
  8
0
  6
CONTINUOUS
 10
4.632760
 20
1.753400
  0
VERTEX
  8
0
  6
CONTINUOUS
 10
4.570280
 20
1.767040
  0
VERTEX
  8
0
  6
CONTINUOUS
 10
4.444880
 20
1.789480
  0
VERTEX
  8
0
  6
CONTINUOUS
 10
4.317720
 20
1.805760
  0
VERTEX
  8
0
  6
CONTINUOUS
 10
4.253480
 20
1.811480
  0
VERTEX
  8
0
  6
CONTINUOUS
 10
4.124120
 20
1.817200
  0
VERTEX
  8
0
  6
CONTINUOUS
 10
4.059000
 20
1.817640
  0
VERTEX
  8
0
  6
CONTINUOUS
 10
3.993440
 20
1.815880
  0
VERTEX
  8
0
  6
CONTINUOUS
 10
3.927440
 20
1.812360
  0
VERTEX
  8
0
  6
CONTINUOUS
 10
3.861000
 20
1.806640
  0
VERTEX
  8
0
  6
CONTINUOUS
 10
3.794560
 20
1.799160
  0
VERTEX
  8
0
  6
CONTINUOUS
 10
3.727240
 20
1.789480
  0
VERTEX
  8
0
  6
CONTINUOUS
 10
3.659920
 20
1.777600
  0
VERTEX
  8
0
  6
CONTINUOUS
 10
3.592160
 20
1.763520
  0
VERTEX
  8
0
  6
CONTINUOUS
 10
3.523960
 20
1.747240
  0
VERTEX
  8
0
  6
CONTINUOUS
 10
3.455320
 20
1.728320
  0
VERTEX
  8
0
  6
CONTINUOUS
 10
3.386240
 20
1.707200
  0
VERTEX
  8
0
  6
CONTINUOUS
 10
3.282400
 20
1.671120
  0
VERTEX
  8
0
  6
CONTINUOUS
 10
3.177240
 20
1.629760
  0
VERTEX
  8
0
  6
CONTINUOUS
 10
3.071640
 20
1.582240
  0
VERTEX
  8
0
  6
CONTINUOUS
 10
2.890360
 20
1.491160
  0
VERTEX
  8
0
  6
CONTINUOUS
 10
2.866160
 20
1.480160
  0
VERTEX
  8
0
  6
CONTINUOUS
 10
2.816880
 20
1.463000
  0
VERTEX
  8
0
  6
CONTINUOUS
 10
2.791800
 20
1.456400
  0
VERTEX
  8
0
  6
CONTINUOUS
 10
2.766720
 20
1.452000
  0
VERTEX
  8
0
  6
CONTINUOUS
 10
2.727560
 20
1.448920
  0
VERTEX
  8
0
  6
CONTINUOUS
 10
2.687080
 20
1.451560
  0
VERTEX
  8
0
  6
CONTINUOUS
 10
2.644840
 20
1.459920
  0
VERTEX
  8
0
  6
CONTINUOUS
 10
2.614920
 20
1.469160
  0
VERTEX
  8
0
  6
CONTINUOUS
 10
2.568280
 20
1.489400
  0
VERTEX
  8
0
  6
CONTINUOUS
 10
2.535720
 20
1.507000
  0
VERTEX
  8
0
  6
CONTINUOUS
 10
1.632840
 20
1.247840
  0
VERTEX
  8
0
  6
CONTINUOUS
 10
2.140160
 20
0.397760
  0
SEQEND
  8
0
  0
TEXT
  8
0
 10
4.006200
 20
9.068840
 40
0.137995
  1
BA  1327
 41
1.000000
  7
SN0
 71
     0
 72
     5
 11
4.638345
 21
9.068840
  0
TEXT
  8
0
 10
3.803800
 20
8.916160
 40
0.137995
  1
1-7/16" x 5-1/8"
 41
1.000000
  7
SN0
 71
     0
 72
     5
 11
4.837862
 21
8.916160
  0
SOLID
  8
0
 62
    15
 10
4.645520
 20
5.983120
 11
5.289240
 21
5.613080
 12
4.506480
 22
5.764880
 13
5.149760
 23
5.394400
  0
POLYLINE
  8
0
  6
CONTINUOUS
 66
     1
 40
0.000000
 41
0.000000
  0
VERTEX
  8
0
  6
CONTINUOUS
 10
4.645520
 20
5.983120
  0
VERTEX
  8
0
  6
CONTINUOUS
 10
5.289240
 20
5.613080
  0
VERTEX
  8
0
  6
CONTINUOUS
 10
5.149760
 20
5.394400
  0
VERTEX
  8
0
  6
CONTINUOUS
 10
4.506480
 20
5.764880
  0
VERTEX
  8
0
  6
CONTINUOUS
 10
4.645520
 20
5.983120
  0
SEQEND
  8
0
  0
SOLID
  8
0
 62
    15
 10
5.136120
 20
7.458440
 11
5.779400
 21
7.088400
 12
5.030520
 22
7.376600
 13
5.674240
 23
7.006560
  0
POLYLINE
  8
0
  6
CONTINUOUS
 66
     1
 40
0.000000
 41
0.000000
  0
VERTEX
  8
0
  6
CONTINUOUS
 10
5.136120
 20
7.458440
  0
VERTEX
  8
0
  6
CONTINUOUS
 10
5.779400
 20
7.088400
  0
VERTEX
  8
0
  6
CONTINUOUS
 10
5.674240
 20
7.006560
  0
VERTEX
  8
0
  6
CONTINUOUS
 10
5.030520
 20
7.376600
  0
VERTEX
  8
0
  6
CONTINUOUS
 10
5.136120
 20
7.458440
  0
SEQEND
  8
0
  0
SOLID
  8
0
 62
    15
 10
5.030520
 20
7.376600
 11
5.674240
 21
7.006560
 12
4.972880
 22
7.285520
 13
5.616600
 23
6.915480
  0
POLYLINE
  8
0
  6
CONTINUOUS
 66
     1
 40
0.000000
 41
0.000000
  0
VERTEX
  8
0
  6
CONTINUOUS
 10
5.030520
 20
7.376600
  0
VERTEX
  8
0
  6
CONTINUOUS
 10
5.674240
 20
7.006560
  0
VERTEX
  8
0
  6
CONTINUOUS
 10
5.616600
 20
6.915480
  0
VERTEX
  8
0
  6
CONTINUOUS
 10
4.972880
 20
7.285520
  0
VERTEX
  8
0
  6
CONTINUOUS
 10
5.030520
 20
7.376600
  0
SEQEND
  8
0
  0
SOLID
  8
0
 62
    15
 10
4.972880
 20
7.285520
 11
5.616600
 21
6.915480
 12
4.948240
 22
7.185200
 13
5.591520
 23
6.815160
  0
POLYLINE
  8
0
  6
CONTINUOUS
 66
     1
 40
0.000000
 41
0.000000
  0
VERTEX
  8
0
  6
CONTINUOUS
 10
4.972880
 20
7.285520
  0
VERTEX
  8
0
  6
CONTINUOUS
 10
5.616600
 20
6.915480
  0
VERTEX
  8
0
  6
CONTINUOUS
 10
5.591520
 20
6.815160
  0
VERTEX
  8
0
  6
CONTINUOUS
 10
4.948240
 20
7.185200
  0
VERTEX
  8
0
  6
CONTINUOUS
 10
4.972880
 20
7.285520
  0
SEQEND
  8
0
  0
SOLID
  8
0
 62
    15
 10
4.948240
 20
7.185200
 11
5.591520
 21
6.815160
 12
4.940320
 22
7.075200
 13
5.584040
 23
6.705160
  0
POLYLINE
  8
0
  6
CONTINUOUS
 66
     1
 40
0.000000
 41
0.000000
  0
VERTEX
  8
0
  6
CONTINUOUS
 10
4.948240
 20
7.185200
  0
VERTEX
  8
0
  6
CONTINUOUS
 10
5.591520
 20
6.815160
  0
VERTEX
  8
0
  6
CONTINUOUS
 10
5.584040
 20
6.705160
  0
VERTEX
  8
0
  6
CONTINUOUS
 10
4.940320
 20
7.075200
  0
VERTEX
  8
0
  6
CONTINUOUS
 10
4.948240
 20
7.185200
  0
SEQEND
  8
0
  0
SOLID
  8
0
 62
    15
 10
4.940320
 20
7.075200
 11
5.584040
 21
6.705160
 12
4.911720
 22
6.766320
 13
5.555440
 23
6.396280
  0
POLYLINE
  8
0
  6
CONTINUOUS
 66
     1
 40
0.000000
 41
0.000000
  0
VERTEX
  8
0
  6
CONTINUOUS
 10
4.940320
 20
7.075200
  0
VERTEX
  8
0
  6
CONTINUOUS
 10
5.584040
 20
6.705160
  0
VERTEX
  8
0
  6
CONTINUOUS
 10
5.555440
 20
6.396280
  0
VERTEX
  8
0
  6
CONTINUOUS
 10
4.911720
 20
6.766320
  0
VERTEX
  8
0
  6
CONTINUOUS
 10
4.940320
 20
7.075200
  0
SEQEND
  8
0
  0
SOLID
  8
0
 62
    15
 10
4.911720
 20
6.766320
 11
5.555440
 21
6.396280
 12
4.851440
 22
6.482080
 13
5.494720
 23
6.112040
  0
POLYLINE
  8
0
  6
CONTINUOUS
 66
     1
 40
0.000000
 41
0.000000
  0
VERTEX
  8
0
  6
CONTINUOUS
 10
4.911720
 20
6.766320
  0
VERTEX
  8
0
  6
CONTINUOUS
 10
5.555440
 20
6.396280
  0
VERTEX
  8
0
  6
CONTINUOUS
 10
5.494720
 20
6.112040
  0
VERTEX
  8
0
  6
CONTINUOUS
 10
4.851440
 20
6.482080
  0
VERTEX
  8
0
  6
CONTINUOUS
 10
4.911720
 20
6.766320
  0
SEQEND
  8
0
  0
SOLID
  8
0
 62
    15
 10
4.851440
 20
6.482080
 11
5.494720
 21
6.112040
 12
4.761680
 22
6.221600
 13
5.404960
 23
5.851560
  0
POLYLINE
  8
0
  6
CONTINUOUS
 66
     1
 40
0.000000
 41
0.000000
  0
VERTEX
  8
0
  6
CONTINUOUS
 10
4.851440
 20
6.482080
  0
VERTEX
  8
0
  6
CONTINUOUS
 10
5.494720
 20
6.112040
  0
VERTEX
  8
0
  6
CONTINUOUS
 10
5.404960
 20
5.851560
  0
VERTEX
  8
0
  6
CONTINUOUS
 10
4.761680
 20
6.221600
  0
VERTEX
  8
0
  6
CONTINUOUS
 10
4.851440
 20
6.482080
  0
SEQEND
  8
0
  0
SOLID
  8
0
 62
    15
 10
4.761680
 20
6.221600
 11
5.404960
 21
5.851560
 12
4.645520
 22
5.983120
 13
5.289240
 23
5.613080
  0
POLYLINE
  8
0
  6
CONTINUOUS
 66
     1
 40
0.000000
 41
0.000000
  0
VERTEX
  8
0
  6
CONTINUOUS
 10
4.761680
 20
6.221600
  0
VERTEX
  8
0
  6
CONTINUOUS
 10
5.404960
 20
5.851560
  0
VERTEX
  8
0
  6
CONTINUOUS
 10
5.289240
 20
5.613080
  0
VERTEX
  8
0
  6
CONTINUOUS
 10
4.645520
 20
5.983120
  0
VERTEX
  8
0
  6
CONTINUOUS
 10
4.761680
 20
6.221600
  0
SEQEND
  8
0
  0
SOLID
  8
0
 62
    15
 10
5.360960
 20
8.370120
 11
6.004680
 21
8.000080
 12
5.136120
 22
7.458440
 13
5.779400
 23
7.088400
  0
POLYLINE
  8
0
  6
CONTINUOUS
 66
     1
 40
0.000000
 41
0.000000
  0
VERTEX
  8
0
  6
CONTINUOUS
 10
5.360960
 20
8.370120
  0
VERTEX
  8
0
  6
CONTINUOUS
 10
6.004680
 20
8.000080
  0
VERTEX
  8
0
  6
CONTINUOUS
 10
5.779400
 20
7.088400
  0
VERTEX
  8
0
  6
CONTINUOUS
 10
5.136120
 20
7.458440
  0
VERTEX
  8
0
  6
CONTINUOUS
 10
5.360960
 20
8.370120
  0
SEQEND
  8
0
  0
SOLID
  8
0
 62
    15
 10
4.506480
 20
5.764880
 11
5.149760
 21
5.394400
 12
4.346760
 22
5.565120
 13
4.990480
 23
5.194640
  0
POLYLINE
  8
0
  6
CONTINUOUS
 66
     1
 40
0.000000
 41
0.000000
  0
VERTEX
  8
0
  6
CONTINUOUS
 10
4.506480
 20
5.764880
  0
VERTEX
  8
0
  6
CONTINUOUS
 10
5.149760
 20
5.394400
  0
VERTEX
  8
0
  6
CONTINUOUS
 10
4.990480
 20
5.194640
  0
VERTEX
  8
0
  6
CONTINUOUS
 10
4.346760
 20
5.565120
  0
VERTEX
  8
0
  6
CONTINUOUS
 10
4.506480
 20
5.764880
  0
SEQEND
  8
0
  0
SOLID
  8
0
 62
    15
 10
4.346760
 20
5.565120
 11
4.990480
 21
5.194640
 12
4.169880
 22
5.382080
 13
4.813600
 23
5.012040
  0
POLYLINE
  8
0
  6
CONTINUOUS
 66
     1
 40
0.000000
 41
0.000000
  0
VERTEX
  8
0
  6
CONTINUOUS
 10
4.346760
 20
5.565120
  0
VERTEX
  8
0
  6
CONTINUOUS
 10
4.990480
 20
5.194640
  0
VERTEX
  8
0
  6
CONTINUOUS
 10
4.813600
 20
5.012040
  0
VERTEX
  8
0
  6
CONTINUOUS
 10
4.169880
 20
5.382080
  0
VERTEX
  8
0
  6
CONTINUOUS
 10
4.346760
 20
5.565120
  0
SEQEND
  8
0
  0
SOLID
  8
0
 62
    15
 10
4.169880
 20
5.382080
 11
4.813600
 21
5.012040
 12
3.978920
 22
5.214880
 13
4.622200
 23
4.844840
  0
POLYLINE
  8
0
  6
CONTINUOUS
 66
     1
 40
0.000000
 41
0.000000
  0
VERTEX
  8
0
  6
CONTINUOUS
 10
4.169880
 20
5.382080
  0
VERTEX
  8
0
  6
CONTINUOUS
 10
4.813600
 20
5.012040
  0
VERTEX
  8
0
  6
CONTINUOUS
 10
4.622200
 20
4.844840
  0
VERTEX
  8
0
  6
CONTINUOUS
 10
3.978920
 20
5.214880
  0
VERTEX
  8
0
  6
CONTINUOUS
 10
4.169880
 20
5.382080
  0
SEQEND
  8
0
  0
SOLID
  8
0
 62
    15
 10
3.978920
 20
5.214880
 11
4.622200
 21
4.844840
 12
3.776080
 22
5.061320
 13
4.419360
 23
4.691280
  0
POLYLINE
  8
0
  6
CONTINUOUS
 66
     1
 40
0.000000
 41
0.000000
  0
VERTEX
  8
0
  6
CONTINUOUS
 10
3.978920
 20
5.214880
  0
VERTEX
  8
0
  6
CONTINUOUS
 10
4.622200
 20
4.844840
  0
VERTEX
  8
0
  6
CONTINUOUS
 10
4.419360
 20
4.691280
  0
VERTEX
  8
0
  6
CONTINUOUS
 10
3.776080
 20
5.061320
  0
VERTEX
  8
0
  6
CONTINUOUS
 10
3.978920
 20
5.214880
  0
SEQEND
  8
0
  0
SOLID
  8
0
 62
    15
 10
3.776080
 20
5.061320
 11
4.419360
 21
4.691280
 12
3.564880
 22
4.919640
 13
4.208160
 23
4.549600
  0
POLYLINE
  8
0
  6
CONTINUOUS
 66
     1
 40
0.000000
 41
0.000000
  0
VERTEX
  8
0
  6
CONTINUOUS
 10
3.776080
 20
5.061320
  0
VERTEX
  8
0
  6
CONTINUOUS
 10
4.419360
 20
4.691280
  0
VERTEX
  8
0
  6
CONTINUOUS
 10
4.208160
 20
4.549600
  0
VERTEX
  8
0
  6
CONTINUOUS
 10
3.564880
 20
4.919640
  0
VERTEX
  8
0
  6
CONTINUOUS
 10
3.776080
 20
5.061320
  0
SEQEND
  8
0
  0
SOLID
  8
0
 62
    15
 10
3.564880
 20
4.919640
 11
4.208160
 21
4.549600
 12
3.128840
 22
4.666640
 13
3.772120
 23
4.296600
  0
POLYLINE
  8
0
  6
CONTINUOUS
 66
     1
 40
0.000000
 41
0.000000
  0
VERTEX
  8
0
  6
CONTINUOUS
 10
3.564880
 20
4.919640
  0
VERTEX
  8
0
  6
CONTINUOUS
 10
4.208160
 20
4.549600
  0
VERTEX
  8
0
  6
CONTINUOUS
 10
3.772120
 20
4.296600
  0
VERTEX
  8
0
  6
CONTINUOUS
 10
3.128840
 20
4.666640
  0
VERTEX
  8
0
  6
CONTINUOUS
 10
3.564880
 20
4.919640
  0
SEQEND
  8
0
  0
SOLID
  8
0
 62
    15
 10
3.128840
 20
4.666640
 11
3.772120
 21
4.296600
 12
2.694120
 22
4.442680
 13
3.337400
 23
4.072200
  0
POLYLINE
  8
0
  6
CONTINUOUS
 66
     1
 40
0.000000
 41
0.000000
  0
VERTEX
  8
0
  6
CONTINUOUS
 10
3.128840
 20
4.666640
  0
VERTEX
  8
0
  6
CONTINUOUS
 10
3.772120
 20
4.296600
  0
VERTEX
  8
0
  6
CONTINUOUS
 10
3.337400
 20
4.072200
  0
VERTEX
  8
0
  6
CONTINUOUS
 10
2.694120
 20
4.442680
  0
VERTEX
  8
0
  6
CONTINUOUS
 10
3.128840
 20
4.666640
  0
SEQEND
  8
0
  0
SOLID
  8
0
 62
    15
 10
2.694120
 20
4.442680
 11
3.337400
 21
4.072200
 12
2.284040
 22
4.234120
 13
2.927320
 23
3.864080
  0
POLYLINE
  8
0
  6
CONTINUOUS
 66
     1
 40
0.000000
 41
0.000000
  0
VERTEX
  8
0
  6
CONTINUOUS
 10
2.694120
 20
4.442680
  0
VERTEX
  8
0
  6
CONTINUOUS
 10
3.337400
 20
4.072200
  0
VERTEX
  8
0
  6
CONTINUOUS
 10
2.927320
 20
3.864080
  0
VERTEX
  8
0
  6
CONTINUOUS
 10
2.284040
 20
4.234120
  0
VERTEX
  8
0
  6
CONTINUOUS
 10
2.694120
 20
4.442680
  0
SEQEND
  8
0
  0
POLYLINE
  8
0
  6
CONTINUOUS
 66
     1
 40
0.000000
 41
0.000000
  0
VERTEX
  8
0
  6
CONTINUOUS
 10
4.371840
 20
8.354720
  0
VERTEX
  8
0
  6
CONTINUOUS
 10
5.360960
 20
8.370120
  0
VERTEX
  8
0
  6
CONTINUOUS
 10
5.136120
 20
7.458440
  0
VERTEX
  8
0
  6
CONTINUOUS
 10
5.030520
 20
7.376600
  0
VERTEX
  8
0
  6
CONTINUOUS
 10
4.972880
 20
7.285520
  0
VERTEX
  8
0
  6
CONTINUOUS
 10
4.948240
 20
7.185200
  0
VERTEX
  8
0
  6
CONTINUOUS
 10
4.940320
 20
7.075200
  0
VERTEX
  8
0
  6
CONTINUOUS
 10
4.911720
 20
6.766320
  0
VERTEX
  8
0
  6
CONTINUOUS
 10
4.851440
 20
6.482080
  0
VERTEX
  8
0
  6
CONTINUOUS
 10
4.761680
 20
6.221600
  0
VERTEX
  8
0
  6
CONTINUOUS
 10
4.645520
 20
5.983120
  0
VERTEX
  8
0
  6
CONTINUOUS
 10
4.506480
 20
5.764880
  0
VERTEX
  8
0
  6
CONTINUOUS
 10
4.346760
 20
5.565120
  0
VERTEX
  8
0
  6
CONTINUOUS
 10
4.169880
 20
5.382080
  0
VERTEX
  8
0
  6
CONTINUOUS
 10
3.978920
 20
5.214880
  0
VERTEX
  8
0
  6
CONTINUOUS
 10
3.776080
 20
5.061320
  0
VERTEX
  8
0
  6
CONTINUOUS
 10
3.564880
 20
4.919640
  0
VERTEX
  8
0
  6
CONTINUOUS
 10
3.128840
 20
4.666640
  0
VERTEX
  8
0
  6
CONTINUOUS
 10
2.694120
 20
4.442680
  0
VERTEX
  8
0
  6
CONTINUOUS
 10
2.284040
 20
4.234120
  0
VERTEX
  8
0
  6
CONTINUOUS
 10
2.277880
 20
4.713280
  0
VERTEX
  8
0
  6
CONTINUOUS
 10
4.371400
 20
8.354280
  0
VERTEX
  8
0
  6
CONTINUOUS
 10
4.371840
 20
8.354720
  0
SEQEND
  8
0
  0
TEXT
  8
0
 10
4.553560
 20
4.052840
 40
0.137995
  1
BA  1327
 41
1.000000
  7
SN0
 71
     0
 72
     5
 11
5.185705
 21
4.052840
  0
TEXT
  8
0
 10
4.351600
 20
3.900160
 40
0.137995
  1
1-7/16" x 5-1/8"
 41
1.000000
  7
SN0
 71
     0
 72
     5
 11
5.385662
 21
3.900160
  0
ENDSEC
  0
EOF
