  0
SECTION
  2
HEADER
  9
$ACADVER
  1
AC1006
  9
$EXTMIN
 10
3.308800
 20
1.459920
  9
$EXTMAX
 10
5.489440
 20
7.454040
  9
$LTSCALE
 40
0.044000
  9
$PDMODE
 70
    35
  9
$PDSIZE
 40
0.035200
  0
ENDSEC
  0
SECTION
  2
TABLES
  0
TABLE
  2
LTYPE
 70
     9
  0
LTYPE
  2
CONTINUOUS
 70
    64
  3
Solid line
 72
    65
 73
     0
 40
0.000000
  0
LTYPE
  2
DASHED
 70
    64
  3
__ __ __ __ __ __ __ __ __ __ __ __ __ __ __
 72
    65
 73
     2
 40
0.000330
 49
0.000220
 49
-0.000110
  0
LTYPE
  2
HIDDEN
 70
    64
  3
 _ _ _ _ _ _ _ _ _ _ _ _ _ _ _ _ _ _ _ _ _ _
 72
    65
 73
     2
 40
0.000165
 49
0.000110
 49
-0.000055
  0
LTYPE
  2
CENTER
 70
    64
  3
____ _ ____ _ ____ _ ____ _ ____ _ ____ _ ____
 72
    65
 73
     4
 40
0.000880
 49
0.000550
 49
-0.000110
 49
0.000110
 49
-0.000110
  0
LTYPE
  2
PHANTOM
 70
    64
  3
_____ _ _ _____ _ _ _____ _ _ _____ _ _ ____
 72
    65
 73
     6
 40
0.001100
 49
0.000550
 49
-0.000110
 49
0.000110
 49
-0.000110
 49
0.000110
 49
-0.000110
  0
LTYPE
  2
DOT
 70
    64
  3
...............................................
 72
    65
 73
     2
 40
0.000110
 49
0.000000
 49
-0.000110
  0
LTYPE
  2
DASHDOT
 70
    64
  3
__ . __ . __ . __ . __ . __ . __ . __ . __ . __
 72
    65
 73
     4
 40
0.000440
 49
0.000220
 49
-0.000110
 49
0.000000
 49
-0.000110
  0
LTYPE
  2
BORDER
 70
    64
  3
__ __ . __ __ . __ __ . __ __ . __ __ . __ __
 72
    65
 73
     6
 40
0.000770
 49
0.000220
 49
-0.000110
 49
0.000220
 49
-0.000110
 49
0.000000
 49
-0.000110
  0
LTYPE
  2
DIVIDE
 70
    64
  3
__ . . __ . . __ . . __ . . __ . . __ . . __
 72
    65
 73
     6
 40
0.000550
 49
0.000220
 49
-0.000110
 49
0.000000
 49
-0.000110
 49
0.000000
 49
-0.000110
  0
LTYPE
  2
DOTDOT
 70
    64
  3
 . .  . .  . .  . .  . .  . . 
 72
    65
 73
     5
 40
0.000242
 49
-0.000110
 49
0.000000
 49
-0.000110
 49
0.000000
 49
-0.000110
  0
ENDTAB
  0
TABLE
  2
STYLE
 70
     2
  0
STYLE
 70
     0
  2
SN0
 40
0.000000
 41
0.000440
 50
0.000000
 71
     0
 42
0.000000
  3
ROMAND
  0
STYLE
 70
    68
  2
SV0
 40
0.000000
 41
0.000440
 50
0.000000
 71
     0
 42
0.000000
  3
ROMAND
  0
ENDTAB
  0
TABLE
  2
LAYER
 70
     3
  0
LAYER
  2
FOREGROUND
 70
    64
 62
     7
  6
CONTINUOUS
  0
LAYER
  2
BACKGROUND
 70
    65
 62
    -7
  6
CONTINUOUS
  0
LAYER
  2
0
 70
    64
 62
     7
  6
CONTINUOUS
  0
ENDTAB
  0
ENDSEC
  0
SECTION
  2
ENTITIES
  0
POLYLINE
  8
FOREGROUND
  6
CONTINUOUS
 66
     1
 40
0.000000
 41
0.000000
  0
VERTEX
  8
FOREGROUND
  6
CONTINUOUS
 10
0.000000
 20
8.913960
  0
VERTEX
  8
FOREGROUND
  6
CONTINUOUS
 10
8.499920
 20
8.913960
  0
VERTEX
  8
FOREGROUND
  6
CONTINUOUS
 10
8.499920
 20
-2.086040
  0
VERTEX
  8
FOREGROUND
  6
CONTINUOUS
 10
0.000000
 20
-2.086040
  0
VERTEX
  8
FOREGROUND
  6
CONTINUOUS
 10
0.000000
 20
8.913960
  0
SEQEND
  8
0
  0
POLYLINE
  8
FOREGROUND
  6
CONTINUOUS
 66
     1
 40
0.000000
 41
0.000000
  0
VERTEX
  8
FOREGROUND
  6
CONTINUOUS
 10
0.000000
 20
8.913960
  0
VERTEX
  8
FOREGROUND
  6
CONTINUOUS
 10
8.499920
 20
8.913960
  0
VERTEX
  8
FOREGROUND
  6
CONTINUOUS
 10
8.499920
 20
-2.086040
  0
VERTEX
  8
FOREGROUND
  6
CONTINUOUS
 10
0.000000
 20
-2.086040
  0
VERTEX
  8
FOREGROUND
  6
CONTINUOUS
 10
0.000000
 20
8.913960
  0
SEQEND
  8
0
  0
POLYLINE
  8
0
  6
CONTINUOUS
 66
     1
 40
0.014080
 41
0.014080
  0
VERTEX
  8
0
  6
CONTINUOUS
 10
5.275160
 20
6.706040
  0
VERTEX
  8
0
  6
CONTINUOUS
 10
5.275160
 20
6.814280
  0
VERTEX
  8
0
  6
CONTINUOUS
 10
5.218400
 20
6.819560
  0
VERTEX
  8
0
  6
CONTINUOUS
 10
5.166480
 20
6.830120
  0
VERTEX
  8
0
  6
CONTINUOUS
 10
5.141400
 20
6.837160
  0
VERTEX
  8
0
  6
CONTINUOUS
 10
5.094320
 20
6.855200
  0
VERTEX
  8
0
  6
CONTINUOUS
 10
5.049880
 20
6.877640
  0
VERTEX
  8
0
  6
CONTINUOUS
 10
5.007200
 20
6.905360
  0
VERTEX
  8
0
  6
CONTINUOUS
 10
4.965840
 20
6.937480
  0
VERTEX
  8
0
  6
CONTINUOUS
 10
4.903800
 20
6.994680
  0
VERTEX
  8
0
  6
CONTINUOUS
 10
4.820640
 20
7.078720
  0
VERTEX
  8
0
  6
CONTINUOUS
 10
4.792920
 20
7.101600
  0
VERTEX
  8
0
  6
CONTINUOUS
 10
4.763880
 20
7.119200
  0
VERTEX
  8
0
  6
CONTINUOUS
 10
4.730880
 20
7.131960
  0
VERTEX
  8
0
  6
CONTINUOUS
 10
4.701400
 20
7.138560
  0
VERTEX
  8
0
  6
CONTINUOUS
 10
4.653440
 20
7.143400
  0
VERTEX
  8
0
  6
CONTINUOUS
 10
4.609440
 20
7.144280
  0
VERTEX
  8
0
  6
CONTINUOUS
 10
4.591400
 20
7.255160
  0
VERTEX
  8
0
  6
CONTINUOUS
 10
4.527600
 20
7.260440
  0
VERTEX
  8
0
  6
CONTINUOUS
 10
4.476120
 20
7.269680
  0
VERTEX
  8
0
  6
CONTINUOUS
 10
4.435640
 20
7.282880
  0
VERTEX
  8
0
  6
CONTINUOUS
 10
4.404400
 20
7.299160
  0
VERTEX
  8
0
  6
CONTINUOUS
 10
4.381080
 20
7.318080
  0
VERTEX
  8
0
  6
CONTINUOUS
 10
4.364360
 20
7.338760
  0
VERTEX
  8
0
  6
CONTINUOUS
 10
4.356440
 20
7.353280
  0
VERTEX
  8
0
  6
CONTINUOUS
 10
4.346320
 20
7.384080
  0
VERTEX
  8
0
  6
CONTINUOUS
 10
4.336200
 20
7.446120
  0
VERTEX
  8
0
  6
CONTINUOUS
 10
3.523520
 20
7.446120
  0
VERTEX
  8
0
  6
CONTINUOUS
 10
3.523520
 20
6.706040
  0
VERTEX
  8
0
  6
CONTINUOUS
 10
5.275160
 20
6.706040
  0
SEQEND
  8
0
  0
POLYLINE
  8
0
  6
CONTINUOUS
 66
     1
 40
0.000000
 41
0.000000
  0
VERTEX
  8
0
  6
CONTINUOUS
 10
3.523520
 20
1.460360
  0
VERTEX
  8
0
  6
CONTINUOUS
 10
3.523520
 20
1.568600
  0
VERTEX
  8
0
  6
CONTINUOUS
 10
3.580280
 20
1.573880
  0
VERTEX
  8
0
  6
CONTINUOUS
 10
3.632200
 20
1.584440
  0
VERTEX
  8
0
  6
CONTINUOUS
 10
3.681040
 20
1.599840
  0
VERTEX
  8
0
  6
CONTINUOUS
 10
3.704360
 20
1.609080
  0
VERTEX
  8
0
  6
CONTINUOUS
 10
3.748800
 20
1.631960
  0
VERTEX
  8
0
  6
CONTINUOUS
 10
3.791480
 20
1.659680
  0
VERTEX
  8
0
  6
CONTINUOUS
 10
3.832840
 20
1.691800
  0
VERTEX
  8
0
  6
CONTINUOUS
 10
3.894880
 20
1.749000
  0
VERTEX
  8
0
  6
CONTINUOUS
 10
3.978040
 20
1.833040
  0
VERTEX
  8
0
  6
CONTINUOUS
 10
4.005760
 20
1.855920
  0
VERTEX
  8
0
  6
CONTINUOUS
 10
4.034800
 20
1.873520
  0
VERTEX
  8
0
  6
CONTINUOUS
 10
4.050640
 20
1.880560
  0
VERTEX
  8
0
  6
CONTINUOUS
 10
4.067800
 20
1.886280
  0
VERTEX
  8
0
  6
CONTINUOUS
 10
4.097280
 20
1.892880
  0
VERTEX
  8
0
  6
CONTINUOUS
 10
4.145240
 20
1.897720
  0
VERTEX
  8
0
  6
CONTINUOUS
 10
4.189240
 20
1.898600
  0
VERTEX
  8
0
  6
CONTINUOUS
 10
4.207280
 20
2.009480
  0
VERTEX
  8
0
  6
CONTINUOUS
 10
4.271080
 20
2.014760
  0
VERTEX
  8
0
  6
CONTINUOUS
 10
4.322560
 20
2.024000
  0
VERTEX
  8
0
  6
CONTINUOUS
 10
4.363040
 20
2.037200
  0
VERTEX
  8
0
  6
CONTINUOUS
 10
4.394280
 20
2.053480
  0
VERTEX
  8
0
  6
CONTINUOUS
 10
4.410560
 20
2.065800
  0
VERTEX
  8
0
  6
CONTINUOUS
 10
4.429480
 20
2.085600
  0
VERTEX
  8
0
  6
CONTINUOUS
 10
4.442240
 20
2.107600
  0
VERTEX
  8
0
  6
CONTINUOUS
 10
4.452360
 20
2.138400
  0
VERTEX
  8
0
  6
CONTINUOUS
 10
4.462480
 20
2.200440
  0
VERTEX
  8
0
  6
CONTINUOUS
 10
5.275160
 20
2.200440
  0
VERTEX
  8
0
  6
CONTINUOUS
 10
5.275160
 20
1.460360
  0
VERTEX
  8
0
  6
CONTINUOUS
 10
3.523520
 20
1.460360
  0
SEQEND
  8
0
  0
POLYLINE
  8
0
  6
CONTINUOUS
 66
     1
 40
0.000000
 41
0.000000
  0
VERTEX
  8
0
  6
CONTINUOUS
 10
5.275160
 20
2.452560
  0
VERTEX
  8
0
  6
CONTINUOUS
 10
5.275160
 20
2.560800
  0
VERTEX
  8
0
  6
CONTINUOUS
 10
5.218400
 20
2.566080
  0
VERTEX
  8
0
  6
CONTINUOUS
 10
5.166480
 20
2.576640
  0
VERTEX
  8
0
  6
CONTINUOUS
 10
5.141400
 20
2.583680
  0
VERTEX
  8
0
  6
CONTINUOUS
 10
5.094320
 20
2.601280
  0
VERTEX
  8
0
  6
CONTINUOUS
 10
5.049880
 20
2.624160
  0
VERTEX
  8
0
  6
CONTINUOUS
 10
5.007200
 20
2.651880
  0
VERTEX
  8
0
  6
CONTINUOUS
 10
4.965840
 20
2.684000
  0
VERTEX
  8
0
  6
CONTINUOUS
 10
4.903800
 20
2.741200
  0
VERTEX
  8
0
  6
CONTINUOUS
 10
4.820640
 20
2.825240
  0
VERTEX
  8
0
  6
CONTINUOUS
 10
4.792920
 20
2.848120
  0
VERTEX
  8
0
  6
CONTINUOUS
 10
4.763880
 20
2.865720
  0
VERTEX
  8
0
  6
CONTINUOUS
 10
4.730880
 20
2.878480
  0
VERTEX
  8
0
  6
CONTINUOUS
 10
4.701400
 20
2.885080
  0
VERTEX
  8
0
  6
CONTINUOUS
 10
4.653440
 20
2.889920
  0
VERTEX
  8
0
  6
CONTINUOUS
 10
4.609440
 20
2.890800
  0
VERTEX
  8
0
  6
CONTINUOUS
 10
4.591400
 20
3.001680
  0
VERTEX
  8
0
  6
CONTINUOUS
 10
4.527600
 20
3.006960
  0
VERTEX
  8
0
  6
CONTINUOUS
 10
4.476120
 20
3.016200
  0
VERTEX
  8
0
  6
CONTINUOUS
 10
4.435640
 20
3.029400
  0
VERTEX
  8
0
  6
CONTINUOUS
 10
4.404400
 20
3.045680
  0
VERTEX
  8
0
  6
CONTINUOUS
 10
4.388120
 20
3.058000
  0
VERTEX
  8
0
  6
CONTINUOUS
 10
4.369200
 20
3.077800
  0
VERTEX
  8
0
  6
CONTINUOUS
 10
4.356440
 20
3.099800
  0
VERTEX
  8
0
  6
CONTINUOUS
 10
4.346320
 20
3.130600
  0
VERTEX
  8
0
  6
CONTINUOUS
 10
4.336200
 20
3.192640
  0
VERTEX
  8
0
  6
CONTINUOUS
 10
3.523520
 20
3.192640
  0
VERTEX
  8
0
  6
CONTINUOUS
 10
3.523520
 20
2.452560
  0
VERTEX
  8
0
  6
CONTINUOUS
 10
5.275160
 20
2.452560
  0
SEQEND
  8
0
  0
SOLID
  8
0
 62
    15
 10
3.746160
 20
4.599320
 11
4.367440
 21
4.236760
 12
3.740000
 22
4.554000
 13
4.361280
 23
4.191440
  0
POLYLINE
  8
0
  6
CONTINUOUS
 66
     1
 40
0.000000
 41
0.000000
  0
VERTEX
  8
0
  6
CONTINUOUS
 10
3.746160
 20
4.599320
  0
VERTEX
  8
0
  6
CONTINUOUS
 10
4.367440
 20
4.236760
  0
VERTEX
  8
0
  6
CONTINUOUS
 10
4.361280
 20
4.191440
  0
VERTEX
  8
0
  6
CONTINUOUS
 10
3.740000
 20
4.554000
  0
VERTEX
  8
0
  6
CONTINUOUS
 10
3.746160
 20
4.599320
  0
SEQEND
  8
0
  0
SOLID
  8
0
 62
    15
 10
4.049760
 20
4.929760
 11
4.671040
 21
4.567200
 12
4.034360
 22
4.927560
 13
4.655640
 23
4.565000
  0
POLYLINE
  8
0
  6
CONTINUOUS
 66
     1
 40
0.000000
 41
0.000000
  0
VERTEX
  8
0
  6
CONTINUOUS
 10
4.049760
 20
4.929760
  0
VERTEX
  8
0
  6
CONTINUOUS
 10
4.671040
 20
4.567200
  0
VERTEX
  8
0
  6
CONTINUOUS
 10
4.655640
 20
4.565000
  0
VERTEX
  8
0
  6
CONTINUOUS
 10
4.034360
 20
4.927560
  0
VERTEX
  8
0
  6
CONTINUOUS
 10
4.049760
 20
4.929760
  0
SEQEND
  8
0
  0
SOLID
  8
0
 62
    15
 10
4.034360
 20
4.927560
 11
4.655640
 21
4.565000
 12
4.018960
 22
4.925360
 13
4.640240
 23
4.562800
  0
POLYLINE
  8
0
  6
CONTINUOUS
 66
     1
 40
0.000000
 41
0.000000
  0
VERTEX
  8
0
  6
CONTINUOUS
 10
4.034360
 20
4.927560
  0
VERTEX
  8
0
  6
CONTINUOUS
 10
4.655640
 20
4.565000
  0
VERTEX
  8
0
  6
CONTINUOUS
 10
4.640240
 20
4.562800
  0
VERTEX
  8
0
  6
CONTINUOUS
 10
4.018960
 20
4.925360
  0
VERTEX
  8
0
  6
CONTINUOUS
 10
4.034360
 20
4.927560
  0
SEQEND
  8
0
  0
SOLID
  8
0
 62
    15
 10
4.018960
 20
4.925360
 11
4.640240
 21
4.562800
 12
3.987720
 22
4.919640
 13
4.609000
 23
4.557080
  0
POLYLINE
  8
0
  6
CONTINUOUS
 66
     1
 40
0.000000
 41
0.000000
  0
VERTEX
  8
0
  6
CONTINUOUS
 10
4.018960
 20
4.925360
  0
VERTEX
  8
0
  6
CONTINUOUS
 10
4.640240
 20
4.562800
  0
VERTEX
  8
0
  6
CONTINUOUS
 10
4.609000
 20
4.557080
  0
VERTEX
  8
0
  6
CONTINUOUS
 10
3.987720
 20
4.919640
  0
VERTEX
  8
0
  6
CONTINUOUS
 10
4.018960
 20
4.925360
  0
SEQEND
  8
0
  0
SOLID
  8
0
 62
    15
 10
3.987720
 20
4.919640
 11
4.609000
 21
4.557080
 12
3.956920
 22
4.909520
 13
4.578200
 23
4.546520
  0
POLYLINE
  8
0
  6
CONTINUOUS
 66
     1
 40
0.000000
 41
0.000000
  0
VERTEX
  8
0
  6
CONTINUOUS
 10
3.987720
 20
4.919640
  0
VERTEX
  8
0
  6
CONTINUOUS
 10
4.609000
 20
4.557080
  0
VERTEX
  8
0
  6
CONTINUOUS
 10
4.578200
 20
4.546520
  0
VERTEX
  8
0
  6
CONTINUOUS
 10
3.956920
 20
4.909520
  0
VERTEX
  8
0
  6
CONTINUOUS
 10
3.987720
 20
4.919640
  0
SEQEND
  8
0
  0
SOLID
  8
0
 62
    15
 10
3.956920
 20
4.909520
 11
4.578200
 21
4.546520
 12
3.927880
 22
4.891040
 13
4.549600
 23
4.528480
  0
POLYLINE
  8
0
  6
CONTINUOUS
 66
     1
 40
0.000000
 41
0.000000
  0
VERTEX
  8
0
  6
CONTINUOUS
 10
3.956920
 20
4.909520
  0
VERTEX
  8
0
  6
CONTINUOUS
 10
4.578200
 20
4.546520
  0
VERTEX
  8
0
  6
CONTINUOUS
 10
4.549600
 20
4.528480
  0
VERTEX
  8
0
  6
CONTINUOUS
 10
3.927880
 20
4.891040
  0
VERTEX
  8
0
  6
CONTINUOUS
 10
3.956920
 20
4.909520
  0
SEQEND
  8
0
  0
SOLID
  8
0
 62
    15
 10
3.927880
 20
4.891040
 11
4.549600
 21
4.528480
 12
3.902800
 22
4.862000
 13
4.524080
 23
4.499000
  0
POLYLINE
  8
0
  6
CONTINUOUS
 66
     1
 40
0.000000
 41
0.000000
  0
VERTEX
  8
0
  6
CONTINUOUS
 10
3.927880
 20
4.891040
  0
VERTEX
  8
0
  6
CONTINUOUS
 10
4.549600
 20
4.528480
  0
VERTEX
  8
0
  6
CONTINUOUS
 10
4.524080
 20
4.499000
  0
VERTEX
  8
0
  6
CONTINUOUS
 10
3.902800
 20
4.862000
  0
VERTEX
  8
0
  6
CONTINUOUS
 10
3.927880
 20
4.891040
  0
SEQEND
  8
0
  0
SOLID
  8
0
 62
    15
 10
3.902800
 20
4.862000
 11
4.524080
 21
4.499000
 12
3.891360
 22
4.841760
 13
4.513080
 23
4.479200
  0
POLYLINE
  8
0
  6
CONTINUOUS
 66
     1
 40
0.000000
 41
0.000000
  0
VERTEX
  8
0
  6
CONTINUOUS
 10
3.902800
 20
4.862000
  0
VERTEX
  8
0
  6
CONTINUOUS
 10
4.524080
 20
4.499000
  0
VERTEX
  8
0
  6
CONTINUOUS
 10
4.513080
 20
4.479200
  0
VERTEX
  8
0
  6
CONTINUOUS
 10
3.891360
 20
4.841760
  0
VERTEX
  8
0
  6
CONTINUOUS
 10
3.902800
 20
4.862000
  0
SEQEND
  8
0
  0
SOLID
  8
0
 62
    15
 10
3.891360
 20
4.841760
 11
4.513080
 21
4.479200
 12
3.881680
 22
4.818000
 13
4.502960
 23
4.455440
  0
POLYLINE
  8
0
  6
CONTINUOUS
 66
     1
 40
0.000000
 41
0.000000
  0
VERTEX
  8
0
  6
CONTINUOUS
 10
3.891360
 20
4.841760
  0
VERTEX
  8
0
  6
CONTINUOUS
 10
4.513080
 20
4.479200
  0
VERTEX
  8
0
  6
CONTINUOUS
 10
4.502960
 20
4.455440
  0
VERTEX
  8
0
  6
CONTINUOUS
 10
3.881680
 20
4.818000
  0
VERTEX
  8
0
  6
CONTINUOUS
 10
3.891360
 20
4.841760
  0
SEQEND
  8
0
  0
SOLID
  8
0
 62
    15
 10
3.881680
 20
4.818000
 11
4.502960
 21
4.455440
 12
3.873320
 22
4.789840
 13
4.494600
 23
4.427280
  0
POLYLINE
  8
0
  6
CONTINUOUS
 66
     1
 40
0.000000
 41
0.000000
  0
VERTEX
  8
0
  6
CONTINUOUS
 10
3.881680
 20
4.818000
  0
VERTEX
  8
0
  6
CONTINUOUS
 10
4.502960
 20
4.455440
  0
VERTEX
  8
0
  6
CONTINUOUS
 10
4.494600
 20
4.427280
  0
VERTEX
  8
0
  6
CONTINUOUS
 10
3.873320
 20
4.789840
  0
VERTEX
  8
0
  6
CONTINUOUS
 10
3.881680
 20
4.818000
  0
SEQEND
  8
0
  0
SOLID
  8
0
 62
    15
 10
3.873320
 20
4.789840
 11
4.494600
 21
4.427280
 12
3.866720
 22
4.756840
 13
4.488000
 23
4.393840
  0
POLYLINE
  8
0
  6
CONTINUOUS
 66
     1
 40
0.000000
 41
0.000000
  0
VERTEX
  8
0
  6
CONTINUOUS
 10
3.873320
 20
4.789840
  0
VERTEX
  8
0
  6
CONTINUOUS
 10
4.494600
 20
4.427280
  0
VERTEX
  8
0
  6
CONTINUOUS
 10
4.488000
 20
4.393840
  0
VERTEX
  8
0
  6
CONTINUOUS
 10
3.866720
 20
4.756840
  0
VERTEX
  8
0
  6
CONTINUOUS
 10
3.873320
 20
4.789840
  0
SEQEND
  8
0
  0
SOLID
  8
0
 62
    15
 10
3.866720
 20
4.756840
 11
4.488000
 21
4.393840
 12
3.861880
 22
4.718560
 13
4.483160
 23
4.355560
  0
POLYLINE
  8
0
  6
CONTINUOUS
 66
     1
 40
0.000000
 41
0.000000
  0
VERTEX
  8
0
  6
CONTINUOUS
 10
3.866720
 20
4.756840
  0
VERTEX
  8
0
  6
CONTINUOUS
 10
4.488000
 20
4.393840
  0
VERTEX
  8
0
  6
CONTINUOUS
 10
4.483160
 20
4.355560
  0
VERTEX
  8
0
  6
CONTINUOUS
 10
3.861880
 20
4.718560
  0
VERTEX
  8
0
  6
CONTINUOUS
 10
3.866720
 20
4.756840
  0
SEQEND
  8
0
  0
SOLID
  8
0
 62
    15
 10
3.861880
 20
4.718560
 11
4.483160
 21
4.355560
 12
3.858800
 22
4.674560
 13
4.480080
 23
4.311560
  0
POLYLINE
  8
0
  6
CONTINUOUS
 66
     1
 40
0.000000
 41
0.000000
  0
VERTEX
  8
0
  6
CONTINUOUS
 10
3.861880
 20
4.718560
  0
VERTEX
  8
0
  6
CONTINUOUS
 10
4.483160
 20
4.355560
  0
VERTEX
  8
0
  6
CONTINUOUS
 10
4.480080
 20
4.311560
  0
VERTEX
  8
0
  6
CONTINUOUS
 10
3.858800
 20
4.674560
  0
VERTEX
  8
0
  6
CONTINUOUS
 10
3.861880
 20
4.718560
  0
SEQEND
  8
0
  0
SOLID
  8
0
 62
    15
 10
3.858800
 20
4.674560
 11
4.480080
 21
4.311560
 12
3.747920
 22
4.656520
 13
4.369200
 23
4.293520
  0
POLYLINE
  8
0
  6
CONTINUOUS
 66
     1
 40
0.000000
 41
0.000000
  0
VERTEX
  8
0
  6
CONTINUOUS
 10
3.858800
 20
4.674560
  0
VERTEX
  8
0
  6
CONTINUOUS
 10
4.480080
 20
4.311560
  0
VERTEX
  8
0
  6
CONTINUOUS
 10
4.369200
 20
4.293520
  0
VERTEX
  8
0
  6
CONTINUOUS
 10
3.747920
 20
4.656520
  0
VERTEX
  8
0
  6
CONTINUOUS
 10
3.858800
 20
4.674560
  0
SEQEND
  8
0
  0
SOLID
  8
0
 62
    15
 10
3.747920
 20
4.656520
 11
4.369200
 21
4.293520
 12
3.747480
 22
4.626160
 13
4.368760
 23
4.263600
  0
POLYLINE
  8
0
  6
CONTINUOUS
 66
     1
 40
0.000000
 41
0.000000
  0
VERTEX
  8
0
  6
CONTINUOUS
 10
3.747920
 20
4.656520
  0
VERTEX
  8
0
  6
CONTINUOUS
 10
4.369200
 20
4.293520
  0
VERTEX
  8
0
  6
CONTINUOUS
 10
4.368760
 20
4.263600
  0
VERTEX
  8
0
  6
CONTINUOUS
 10
3.747480
 20
4.626160
  0
VERTEX
  8
0
  6
CONTINUOUS
 10
3.747920
 20
4.656520
  0
SEQEND
  8
0
  0
SOLID
  8
0
 62
    15
 10
3.747480
 20
4.626160
 11
4.368760
 21
4.263600
 12
3.746160
 22
4.599320
 13
4.367440
 23
4.236760
  0
POLYLINE
  8
0
  6
CONTINUOUS
 66
     1
 40
0.000000
 41
0.000000
  0
VERTEX
  8
0
  6
CONTINUOUS
 10
3.747480
 20
4.626160
  0
VERTEX
  8
0
  6
CONTINUOUS
 10
4.368760
 20
4.263600
  0
VERTEX
  8
0
  6
CONTINUOUS
 10
4.367440
 20
4.236760
  0
VERTEX
  8
0
  6
CONTINUOUS
 10
3.746160
 20
4.599320
  0
VERTEX
  8
0
  6
CONTINUOUS
 10
3.747480
 20
4.626160
  0
SEQEND
  8
0
  0
SOLID
  8
0
 62
    15
 10
4.049760
 20
5.742440
 11
4.671040
 21
5.379880
 12
4.049760
 22
4.929760
 13
4.671040
 23
4.567200
  0
POLYLINE
  8
0
  6
CONTINUOUS
 66
     1
 40
0.000000
 41
0.000000
  0
VERTEX
  8
0
  6
CONTINUOUS
 10
4.049760
 20
5.742440
  0
VERTEX
  8
0
  6
CONTINUOUS
 10
4.671040
 20
5.379880
  0
VERTEX
  8
0
  6
CONTINUOUS
 10
4.671040
 20
4.567200
  0
VERTEX
  8
0
  6
CONTINUOUS
 10
4.049760
 20
4.929760
  0
VERTEX
  8
0
  6
CONTINUOUS
 10
4.049760
 20
5.742440
  0
SEQEND
  8
0
  0
SOLID
  8
0
 62
    15
 10
3.740000
 20
4.554000
 11
4.361280
 21
4.191440
 12
3.729880
 22
4.517920
 13
4.351160
 23
4.154920
  0
POLYLINE
  8
0
  6
CONTINUOUS
 66
     1
 40
0.000000
 41
0.000000
  0
VERTEX
  8
0
  6
CONTINUOUS
 10
3.740000
 20
4.554000
  0
VERTEX
  8
0
  6
CONTINUOUS
 10
4.361280
 20
4.191440
  0
VERTEX
  8
0
  6
CONTINUOUS
 10
4.351160
 20
4.154920
  0
VERTEX
  8
0
  6
CONTINUOUS
 10
3.729880
 20
4.517920
  0
VERTEX
  8
0
  6
CONTINUOUS
 10
3.740000
 20
4.554000
  0
SEQEND
  8
0
  0
SOLID
  8
0
 62
    15
 10
3.729880
 20
4.517920
 11
4.351160
 21
4.154920
 12
3.714480
 22
4.487120
 13
4.336200
 23
4.124560
  0
POLYLINE
  8
0
  6
CONTINUOUS
 66
     1
 40
0.000000
 41
0.000000
  0
VERTEX
  8
0
  6
CONTINUOUS
 10
3.729880
 20
4.517920
  0
VERTEX
  8
0
  6
CONTINUOUS
 10
4.351160
 20
4.154920
  0
VERTEX
  8
0
  6
CONTINUOUS
 10
4.336200
 20
4.124560
  0
VERTEX
  8
0
  6
CONTINUOUS
 10
3.714480
 20
4.487120
  0
VERTEX
  8
0
  6
CONTINUOUS
 10
3.729880
 20
4.517920
  0
SEQEND
  8
0
  0
SOLID
  8
0
 62
    15
 10
3.714480
 20
4.487120
 11
4.336200
 21
4.124560
 12
3.694240
 22
4.459400
 13
4.315520
 23
4.096400
  0
POLYLINE
  8
0
  6
CONTINUOUS
 66
     1
 40
0.000000
 41
0.000000
  0
VERTEX
  8
0
  6
CONTINUOUS
 10
3.714480
 20
4.487120
  0
VERTEX
  8
0
  6
CONTINUOUS
 10
4.336200
 20
4.124560
  0
VERTEX
  8
0
  6
CONTINUOUS
 10
4.315520
 20
4.096400
  0
VERTEX
  8
0
  6
CONTINUOUS
 10
3.694240
 20
4.459400
  0
VERTEX
  8
0
  6
CONTINUOUS
 10
3.714480
 20
4.487120
  0
SEQEND
  8
0
  0
SOLID
  8
0
 62
    15
 10
3.694240
 20
4.459400
 11
4.315520
 21
4.096400
 12
3.668280
 22
4.431240
 13
4.289560
 23
4.068240
  0
POLYLINE
  8
0
  6
CONTINUOUS
 66
     1
 40
0.000000
 41
0.000000
  0
VERTEX
  8
0
  6
CONTINUOUS
 10
3.694240
 20
4.459400
  0
VERTEX
  8
0
  6
CONTINUOUS
 10
4.315520
 20
4.096400
  0
VERTEX
  8
0
  6
CONTINUOUS
 10
4.289560
 20
4.068240
  0
VERTEX
  8
0
  6
CONTINUOUS
 10
3.668280
 20
4.431240
  0
VERTEX
  8
0
  6
CONTINUOUS
 10
3.694240
 20
4.459400
  0
SEQEND
  8
0
  0
SOLID
  8
0
 62
    15
 10
3.668280
 20
4.431240
 11
4.289560
 21
4.068240
 12
3.636600
 22
4.400000
 13
4.257880
 23
4.037000
  0
POLYLINE
  8
0
  6
CONTINUOUS
 66
     1
 40
0.000000
 41
0.000000
  0
VERTEX
  8
0
  6
CONTINUOUS
 10
3.668280
 20
4.431240
  0
VERTEX
  8
0
  6
CONTINUOUS
 10
4.289560
 20
4.068240
  0
VERTEX
  8
0
  6
CONTINUOUS
 10
4.257880
 20
4.037000
  0
VERTEX
  8
0
  6
CONTINUOUS
 10
3.636600
 20
4.400000
  0
VERTEX
  8
0
  6
CONTINUOUS
 10
3.668280
 20
4.431240
  0
SEQEND
  8
0
  0
SOLID
  8
0
 62
    15
 10
3.636600
 20
4.400000
 11
4.257880
 21
4.037000
 12
3.618120
 22
4.381960
 13
4.239400
 23
4.019400
  0
POLYLINE
  8
0
  6
CONTINUOUS
 66
     1
 40
0.000000
 41
0.000000
  0
VERTEX
  8
0
  6
CONTINUOUS
 10
3.636600
 20
4.400000
  0
VERTEX
  8
0
  6
CONTINUOUS
 10
4.257880
 20
4.037000
  0
VERTEX
  8
0
  6
CONTINUOUS
 10
4.239400
 20
4.019400
  0
VERTEX
  8
0
  6
CONTINUOUS
 10
3.618120
 20
4.381960
  0
VERTEX
  8
0
  6
CONTINUOUS
 10
3.636600
 20
4.400000
  0
SEQEND
  8
0
  0
SOLID
  8
0
 62
    15
 10
3.618120
 20
4.381960
 11
4.239400
 21
4.019400
 12
3.598320
 22
4.362160
 13
4.219600
 23
3.999600
  0
POLYLINE
  8
0
  6
CONTINUOUS
 66
     1
 40
0.000000
 41
0.000000
  0
VERTEX
  8
0
  6
CONTINUOUS
 10
3.618120
 20
4.381960
  0
VERTEX
  8
0
  6
CONTINUOUS
 10
4.239400
 20
4.019400
  0
VERTEX
  8
0
  6
CONTINUOUS
 10
4.219600
 20
3.999600
  0
VERTEX
  8
0
  6
CONTINUOUS
 10
3.598320
 20
4.362160
  0
VERTEX
  8
0
  6
CONTINUOUS
 10
3.618120
 20
4.381960
  0
SEQEND
  8
0
  0
SOLID
  8
0
 62
    15
 10
3.598320
 20
4.362160
 11
4.219600
 21
3.999600
 12
3.558720
 22
4.320800
 13
4.180440
 23
3.958240
  0
POLYLINE
  8
0
  6
CONTINUOUS
 66
     1
 40
0.000000
 41
0.000000
  0
VERTEX
  8
0
  6
CONTINUOUS
 10
3.598320
 20
4.362160
  0
VERTEX
  8
0
  6
CONTINUOUS
 10
4.219600
 20
3.999600
  0
VERTEX
  8
0
  6
CONTINUOUS
 10
4.180440
 20
3.958240
  0
VERTEX
  8
0
  6
CONTINUOUS
 10
3.558720
 20
4.320800
  0
VERTEX
  8
0
  6
CONTINUOUS
 10
3.598320
 20
4.362160
  0
SEQEND
  8
0
  0
SOLID
  8
0
 62
    15
 10
3.558720
 20
4.320800
 11
4.180440
 21
3.958240
 12
3.524400
 22
4.279440
 13
4.145680
 23
3.916880
  0
POLYLINE
  8
0
  6
CONTINUOUS
 66
     1
 40
0.000000
 41
0.000000
  0
VERTEX
  8
0
  6
CONTINUOUS
 10
3.558720
 20
4.320800
  0
VERTEX
  8
0
  6
CONTINUOUS
 10
4.180440
 20
3.958240
  0
VERTEX
  8
0
  6
CONTINUOUS
 10
4.145680
 20
3.916880
  0
VERTEX
  8
0
  6
CONTINUOUS
 10
3.524400
 20
4.279440
  0
VERTEX
  8
0
  6
CONTINUOUS
 10
3.558720
 20
4.320800
  0
SEQEND
  8
0
  0
SOLID
  8
0
 62
    15
 10
3.524400
 20
4.279440
 11
4.145680
 21
3.916880
 12
3.494480
 22
4.237640
 13
4.115760
 23
3.874640
  0
POLYLINE
  8
0
  6
CONTINUOUS
 66
     1
 40
0.000000
 41
0.000000
  0
VERTEX
  8
0
  6
CONTINUOUS
 10
3.524400
 20
4.279440
  0
VERTEX
  8
0
  6
CONTINUOUS
 10
4.145680
 20
3.916880
  0
VERTEX
  8
0
  6
CONTINUOUS
 10
4.115760
 20
3.874640
  0
VERTEX
  8
0
  6
CONTINUOUS
 10
3.494480
 20
4.237640
  0
VERTEX
  8
0
  6
CONTINUOUS
 10
3.524400
 20
4.279440
  0
SEQEND
  8
0
  0
SOLID
  8
0
 62
    15
 10
3.494480
 20
4.237640
 11
4.115760
 21
3.874640
 12
3.469400
 22
4.194080
 13
4.090680
 23
3.831520
  0
POLYLINE
  8
0
  6
CONTINUOUS
 66
     1
 40
0.000000
 41
0.000000
  0
VERTEX
  8
0
  6
CONTINUOUS
 10
3.494480
 20
4.237640
  0
VERTEX
  8
0
  6
CONTINUOUS
 10
4.115760
 20
3.874640
  0
VERTEX
  8
0
  6
CONTINUOUS
 10
4.090680
 20
3.831520
  0
VERTEX
  8
0
  6
CONTINUOUS
 10
3.469400
 20
4.194080
  0
VERTEX
  8
0
  6
CONTINUOUS
 10
3.494480
 20
4.237640
  0
SEQEND
  8
0
  0
SOLID
  8
0
 62
    15
 10
3.469400
 20
4.194080
 11
4.090680
 21
3.831520
 12
3.448720
 22
4.148320
 13
4.070440
 23
3.785760
  0
POLYLINE
  8
0
  6
CONTINUOUS
 66
     1
 40
0.000000
 41
0.000000
  0
VERTEX
  8
0
  6
CONTINUOUS
 10
3.469400
 20
4.194080
  0
VERTEX
  8
0
  6
CONTINUOUS
 10
4.090680
 20
3.831520
  0
VERTEX
  8
0
  6
CONTINUOUS
 10
4.070440
 20
3.785760
  0
VERTEX
  8
0
  6
CONTINUOUS
 10
3.448720
 20
4.148320
  0
VERTEX
  8
0
  6
CONTINUOUS
 10
3.469400
 20
4.194080
  0
SEQEND
  8
0
  0
SOLID
  8
0
 62
    15
 10
3.448720
 20
4.148320
 11
4.070440
 21
3.785760
 12
3.433320
 22
4.099480
 13
4.055040
 23
3.736920
  0
POLYLINE
  8
0
  6
CONTINUOUS
 66
     1
 40
0.000000
 41
0.000000
  0
VERTEX
  8
0
  6
CONTINUOUS
 10
3.448720
 20
4.148320
  0
VERTEX
  8
0
  6
CONTINUOUS
 10
4.070440
 20
3.785760
  0
VERTEX
  8
0
  6
CONTINUOUS
 10
4.055040
 20
3.736920
  0
VERTEX
  8
0
  6
CONTINUOUS
 10
3.433320
 20
4.099480
  0
VERTEX
  8
0
  6
CONTINUOUS
 10
3.448720
 20
4.148320
  0
SEQEND
  8
0
  0
SOLID
  8
0
 62
    15
 10
3.433320
 20
4.099480
 11
4.055040
 21
3.736920
 12
3.423200
 22
4.047560
 13
4.044480
 23
3.684560
  0
POLYLINE
  8
0
  6
CONTINUOUS
 66
     1
 40
0.000000
 41
0.000000
  0
VERTEX
  8
0
  6
CONTINUOUS
 10
3.433320
 20
4.099480
  0
VERTEX
  8
0
  6
CONTINUOUS
 10
4.055040
 20
3.736920
  0
VERTEX
  8
0
  6
CONTINUOUS
 10
4.044480
 20
3.684560
  0
VERTEX
  8
0
  6
CONTINUOUS
 10
3.423200
 20
4.047560
  0
VERTEX
  8
0
  6
CONTINUOUS
 10
3.433320
 20
4.099480
  0
SEQEND
  8
0
  0
SOLID
  8
0
 62
    15
 10
3.423200
 20
4.047560
 11
4.044480
 21
3.684560
 12
3.417480
 22
3.990800
 13
4.039200
 23
3.628240
  0
POLYLINE
  8
0
  6
CONTINUOUS
 66
     1
 40
0.000000
 41
0.000000
  0
VERTEX
  8
0
  6
CONTINUOUS
 10
3.423200
 20
4.047560
  0
VERTEX
  8
0
  6
CONTINUOUS
 10
4.044480
 20
3.684560
  0
VERTEX
  8
0
  6
CONTINUOUS
 10
4.039200
 20
3.628240
  0
VERTEX
  8
0
  6
CONTINUOUS
 10
3.417480
 20
3.990800
  0
VERTEX
  8
0
  6
CONTINUOUS
 10
3.423200
 20
4.047560
  0
SEQEND
  8
0
  0
SOLID
  8
0
 62
    15
 10
3.417480
 20
3.990800
 11
4.039200
 21
3.628240
 12
3.309240
 22
3.990800
 13
3.930520
 23
3.628240
  0
POLYLINE
  8
0
  6
CONTINUOUS
 66
     1
 40
0.000000
 41
0.000000
  0
VERTEX
  8
0
  6
CONTINUOUS
 10
3.417480
 20
3.990800
  0
VERTEX
  8
0
  6
CONTINUOUS
 10
4.039200
 20
3.628240
  0
VERTEX
  8
0
  6
CONTINUOUS
 10
3.930520
 20
3.628240
  0
VERTEX
  8
0
  6
CONTINUOUS
 10
3.309240
 20
3.990800
  0
VERTEX
  8
0
  6
CONTINUOUS
 10
3.417480
 20
3.990800
  0
SEQEND
  8
0
  0
POLYLINE
  8
0
  6
CONTINUOUS
 66
     1
 40
0.000000
 41
0.000000
  0
VERTEX
  8
0
  6
CONTINUOUS
 10
3.309240
 20
5.742440
  0
VERTEX
  8
0
  6
CONTINUOUS
 10
4.049760
 20
5.742440
  0
VERTEX
  8
0
  6
CONTINUOUS
 10
4.049760
 20
4.929760
  0
VERTEX
  8
0
  6
CONTINUOUS
 10
4.034360
 20
4.927560
  0
VERTEX
  8
0
  6
CONTINUOUS
 10
4.018960
 20
4.925360
  0
VERTEX
  8
0
  6
CONTINUOUS
 10
3.987720
 20
4.919640
  0
VERTEX
  8
0
  6
CONTINUOUS
 10
3.956920
 20
4.909520
  0
VERTEX
  8
0
  6
CONTINUOUS
 10
3.927880
 20
4.891040
  0
VERTEX
  8
0
  6
CONTINUOUS
 10
3.902800
 20
4.862000
  0
VERTEX
  8
0
  6
CONTINUOUS
 10
3.891360
 20
4.841760
  0
VERTEX
  8
0
  6
CONTINUOUS
 10
3.881680
 20
4.818000
  0
VERTEX
  8
0
  6
CONTINUOUS
 10
3.873320
 20
4.789840
  0
VERTEX
  8
0
  6
CONTINUOUS
 10
3.866720
 20
4.756840
  0
VERTEX
  8
0
  6
CONTINUOUS
 10
3.861880
 20
4.718560
  0
VERTEX
  8
0
  6
CONTINUOUS
 10
3.858800
 20
4.674560
  0
VERTEX
  8
0
  6
CONTINUOUS
 10
3.747920
 20
4.656520
  0
VERTEX
  8
0
  6
CONTINUOUS
 10
3.747480
 20
4.626160
  0
VERTEX
  8
0
  6
CONTINUOUS
 10
3.746160
 20
4.599320
  0
VERTEX
  8
0
  6
CONTINUOUS
 10
3.740000
 20
4.554000
  0
VERTEX
  8
0
  6
CONTINUOUS
 10
3.729880
 20
4.517920
  0
VERTEX
  8
0
  6
CONTINUOUS
 10
3.714480
 20
4.487120
  0
VERTEX
  8
0
  6
CONTINUOUS
 10
3.694240
 20
4.459400
  0
VERTEX
  8
0
  6
CONTINUOUS
 10
3.668280
 20
4.431240
  0
VERTEX
  8
0
  6
CONTINUOUS
 10
3.636600
 20
4.400000
  0
VERTEX
  8
0
  6
CONTINUOUS
 10
3.618120
 20
4.381960
  0
VERTEX
  8
0
  6
CONTINUOUS
 10
3.598320
 20
4.362160
  0
VERTEX
  8
0
  6
CONTINUOUS
 10
3.558720
 20
4.320800
  0
VERTEX
  8
0
  6
CONTINUOUS
 10
3.524400
 20
4.279440
  0
VERTEX
  8
0
  6
CONTINUOUS
 10
3.494480
 20
4.237640
  0
VERTEX
  8
0
  6
CONTINUOUS
 10
3.469400
 20
4.194080
  0
VERTEX
  8
0
  6
CONTINUOUS
 10
3.448720
 20
4.148320
  0
VERTEX
  8
0
  6
CONTINUOUS
 10
3.433320
 20
4.099480
  0
VERTEX
  8
0
  6
CONTINUOUS
 10
3.423200
 20
4.047560
  0
VERTEX
  8
0
  6
CONTINUOUS
 10
3.417480
 20
3.990800
  0
VERTEX
  8
0
  6
CONTINUOUS
 10
3.309240
 20
3.990800
  0
VERTEX
  8
0
  6
CONTINUOUS
 10
3.309240
 20
5.742440
  0
SEQEND
  8
0
  0
TEXT
  8
0
 10
4.594920
 20
3.876840
 40
0.137920
  1
BA  1326
 41
1.000000
  7
SN0
 71
     0
 72
     5
 11
5.277351
 21
3.876840
  0
TEXT
  8
0
 10
4.485360
 20
3.685000
 40
0.137920
  1
3/4" x 1-3/4"
 41
1.000000
  7
SN0
 71
     0
 72
     5
 11
5.386276
 21
3.685000
  0
TEXT
  8
0
 10
3.835480
 20
6.971800
 40
0.137920
  1
BA  1326
 41
1.000000
  7
SN0
 71
     0
 72
     5
 11
4.517911
 21
6.971800
  0
TEXT
  8
0
 10
3.725920
 20
6.780400
 40
0.137920
  1
3/4" x 1-3/4"
 41
1.000000
  7
SN0
 71
     0
 72
     5
 11
4.626836
 21
6.780400
  0
ENDSEC
  0
EOF
