  0
SECTION
  2
HEADER
  9
$ACADVER
  1
AC1006
  9
$EXTMIN
 10
2.364560
 20
1.826440
  9
$EXTMAX
 10
6.096640
 20
6.781280
  9
$LTSCALE
 40
0.044000
  9
$PDMODE
 70
    35
  9
$PDSIZE
 40
0.035200
  0
ENDSEC
  0
SECTION
  2
TABLES
  0
TABLE
  2
LTYPE
 70
     9
  0
LTYPE
  2
CONTINUOUS
 70
    64
  3
Solid line
 72
    65
 73
     0
 40
0.000000
  0
LTYPE
  2
DASHED
 70
    64
  3
__ __ __ __ __ __ __ __ __ __ __ __ __ __ __
 72
    65
 73
     2
 40
0.000330
 49
0.000220
 49
-0.000110
  0
LTYPE
  2
HIDDEN
 70
    64
  3
 _ _ _ _ _ _ _ _ _ _ _ _ _ _ _ _ _ _ _ _ _ _
 72
    65
 73
     2
 40
0.000165
 49
0.000110
 49
-0.000055
  0
LTYPE
  2
CENTER
 70
    64
  3
____ _ ____ _ ____ _ ____ _ ____ _ ____ _ ____
 72
    65
 73
     4
 40
0.000880
 49
0.000550
 49
-0.000110
 49
0.000110
 49
-0.000110
  0
LTYPE
  2
PHANTOM
 70
    64
  3
_____ _ _ _____ _ _ _____ _ _ _____ _ _ ____
 72
    65
 73
     6
 40
0.001100
 49
0.000550
 49
-0.000110
 49
0.000110
 49
-0.000110
 49
0.000110
 49
-0.000110
  0
LTYPE
  2
DOT
 70
    64
  3
...............................................
 72
    65
 73
     2
 40
0.000110
 49
0.000000
 49
-0.000110
  0
LTYPE
  2
DASHDOT
 70
    64
  3
__ . __ . __ . __ . __ . __ . __ . __ . __ . __
 72
    65
 73
     4
 40
0.000440
 49
0.000220
 49
-0.000110
 49
0.000000
 49
-0.000110
  0
LTYPE
  2
BORDER
 70
    64
  3
__ __ . __ __ . __ __ . __ __ . __ __ . __ __
 72
    65
 73
     6
 40
0.000770
 49
0.000220
 49
-0.000110
 49
0.000220
 49
-0.000110
 49
0.000000
 49
-0.000110
  0
LTYPE
  2
DIVIDE
 70
    64
  3
__ . . __ . . __ . . __ . . __ . . __ . . __
 72
    65
 73
     6
 40
0.000550
 49
0.000220
 49
-0.000110
 49
0.000000
 49
-0.000110
 49
0.000000
 49
-0.000110
  0
LTYPE
  2
DOTDOT
 70
    64
  3
 . .  . .  . .  . .  . .  . . 
 72
    65
 73
     5
 40
0.000242
 49
-0.000110
 49
0.000000
 49
-0.000110
 49
0.000000
 49
-0.000110
  0
ENDTAB
  0
TABLE
  2
STYLE
 70
     2
  0
STYLE
 70
     0
  2
SN0
 40
0.000000
 41
0.000440
 50
0.000000
 71
     0
 42
0.000000
  3
ROMAND
  0
STYLE
 70
    68
  2
SV0
 40
0.000000
 41
0.000440
 50
0.000000
 71
     0
 42
0.000000
  3
ROMAND
  0
ENDTAB
  0
TABLE
  2
LAYER
 70
     3
  0
LAYER
  2
FOREGROUND
 70
    64
 62
     7
  6
CONTINUOUS
  0
LAYER
  2
BACKGROUND
 70
    65
 62
    -7
  6
CONTINUOUS
  0
LAYER
  2
0
 70
    64
 62
     7
  6
CONTINUOUS
  0
ENDTAB
  0
ENDSEC
  0
SECTION
  2
ENTITIES
  0
POLYLINE
  8
FOREGROUND
  6
CONTINUOUS
 66
     1
 40
0.000000
 41
0.000000
  0
VERTEX
  8
FOREGROUND
  6
CONTINUOUS
 10
0.000000
 20
8.607720
  0
VERTEX
  8
FOREGROUND
  6
CONTINUOUS
 10
8.499920
 20
8.607720
  0
VERTEX
  8
FOREGROUND
  6
CONTINUOUS
 10
8.499920
 20
-2.392280
  0
VERTEX
  8
FOREGROUND
  6
CONTINUOUS
 10
0.000000
 20
-2.392280
  0
VERTEX
  8
FOREGROUND
  6
CONTINUOUS
 10
0.000000
 20
8.607720
  0
SEQEND
  8
0
  0
POLYLINE
  8
FOREGROUND
  6
CONTINUOUS
 66
     1
 40
0.000000
 41
0.000000
  0
VERTEX
  8
FOREGROUND
  6
CONTINUOUS
 10
0.000000
 20
8.607720
  0
VERTEX
  8
FOREGROUND
  6
CONTINUOUS
 10
8.499920
 20
8.607720
  0
VERTEX
  8
FOREGROUND
  6
CONTINUOUS
 10
8.499920
 20
-2.392280
  0
VERTEX
  8
FOREGROUND
  6
CONTINUOUS
 10
0.000000
 20
-2.392280
  0
VERTEX
  8
FOREGROUND
  6
CONTINUOUS
 10
0.000000
 20
8.607720
  0
SEQEND
  8
0
  0
POLYLINE
  8
0
  6
CONTINUOUS
 66
     1
 40
0.000000
 41
0.000000
  0
VERTEX
  8
0
  6
CONTINUOUS
 10
2.365440
 20
2.182400
  0
VERTEX
  8
0
  6
CONTINUOUS
 10
2.365440
 20
2.266440
  0
VERTEX
  8
0
  6
CONTINUOUS
 10
2.514160
 20
2.403720
  0
VERTEX
  8
0
  6
CONTINUOUS
 10
2.527800
 20
2.409000
  0
VERTEX
  8
0
  6
CONTINUOUS
 10
2.547160
 20
2.411640
  0
VERTEX
  8
0
  6
CONTINUOUS
 10
2.581480
 20
2.409440
  0
VERTEX
  8
0
  6
CONTINUOUS
 10
2.613600
 20
2.401960
  0
VERTEX
  8
0
  6
CONTINUOUS
 10
2.662000
 20
2.386560
  0
VERTEX
  8
0
  6
CONTINUOUS
 10
2.707760
 20
2.379080
  0
VERTEX
  8
0
  6
CONTINUOUS
 10
2.751760
 20
2.376000
  0
VERTEX
  8
0
  6
CONTINUOUS
 10
2.803240
 20
2.376880
  0
VERTEX
  8
0
  6
CONTINUOUS
 10
2.860880
 20
2.381720
  0
VERTEX
  8
0
  6
CONTINUOUS
 10
2.923800
 20
2.392720
  0
VERTEX
  8
0
  6
CONTINUOUS
 10
2.991560
 20
2.409880
  0
VERTEX
  8
0
  6
CONTINUOUS
 10
3.063280
 20
2.434960
  0
VERTEX
  8
0
  6
CONTINUOUS
 10
3.113000
 20
2.456520
  0
VERTEX
  8
0
  6
CONTINUOUS
 10
3.163600
 20
2.482480
  0
VERTEX
  8
0
  6
CONTINUOUS
 10
3.241040
 20
2.529560
  0
VERTEX
  8
0
  6
CONTINUOUS
 10
3.292080
 20
2.561240
  0
VERTEX
  8
0
  6
CONTINUOUS
 10
3.340920
 20
2.586760
  0
VERTEX
  8
0
  6
CONTINUOUS
 10
3.387120
 20
2.606120
  0
VERTEX
  8
0
  6
CONTINUOUS
 10
3.431120
 20
2.620200
  0
VERTEX
  8
0
  6
CONTINUOUS
 10
3.472480
 20
2.629000
  0
VERTEX
  8
0
  6
CONTINUOUS
 10
3.511640
 20
2.632960
  0
VERTEX
  8
0
  6
CONTINUOUS
 10
3.548600
 20
2.632960
  0
VERTEX
  8
0
  6
CONTINUOUS
 10
3.582920
 20
2.629000
  0
VERTEX
  8
0
  6
CONTINUOUS
 10
3.615040
 20
2.621520
  0
VERTEX
  8
0
  6
CONTINUOUS
 10
3.644960
 20
2.611400
  0
VERTEX
  8
0
  6
CONTINUOUS
 10
3.685440
 20
2.591600
  0
VERTEX
  8
0
  6
CONTINUOUS
 10
3.720200
 20
2.567400
  0
VERTEX
  8
0
  6
CONTINUOUS
 10
3.740440
 20
2.549800
  0
VERTEX
  8
0
  6
CONTINUOUS
 10
3.758480
 20
2.531320
  0
VERTEX
  8
0
  6
CONTINUOUS
 10
3.774320
 20
2.512400
  0
VERTEX
  8
0
  6
CONTINUOUS
 10
3.997840
 20
2.512400
  0
VERTEX
  8
0
  6
CONTINUOUS
 10
3.997840
 20
1.826880
  0
VERTEX
  8
0
  6
CONTINUOUS
 10
3.473360
 20
1.826880
  0
VERTEX
  8
0
  6
CONTINUOUS
 10
3.473360
 20
2.182400
  0
VERTEX
  8
0
  6
CONTINUOUS
 10
2.365440
 20
2.182400
  0
SEQEND
  8
0
  0
POLYLINE
  8
0
  6
CONTINUOUS
 66
     1
 40
0.000000
 41
0.000000
  0
VERTEX
  8
0
  6
CONTINUOUS
 10
6.096640
 20
2.201320
  0
VERTEX
  8
0
  6
CONTINUOUS
 10
6.096640
 20
2.285800
  0
VERTEX
  8
0
  6
CONTINUOUS
 10
5.947480
 20
2.422640
  0
VERTEX
  8
0
  6
CONTINUOUS
 10
5.933840
 20
2.428360
  0
VERTEX
  8
0
  6
CONTINUOUS
 10
5.907000
 20
2.431000
  0
VERTEX
  8
0
  6
CONTINUOUS
 10
5.880160
 20
2.428360
  0
VERTEX
  8
0
  6
CONTINUOUS
 10
5.848040
 20
2.420880
  0
VERTEX
  8
0
  6
CONTINUOUS
 10
5.800080
 20
2.405480
  0
VERTEX
  8
0
  6
CONTINUOUS
 10
5.753880
 20
2.398000
  0
VERTEX
  8
0
  6
CONTINUOUS
 10
5.709880
 20
2.394920
  0
VERTEX
  8
0
  6
CONTINUOUS
 10
5.658840
 20
2.395800
  0
VERTEX
  8
0
  6
CONTINUOUS
 10
5.601200
 20
2.400640
  0
VERTEX
  8
0
  6
CONTINUOUS
 10
5.537840
 20
2.411640
  0
VERTEX
  8
0
  6
CONTINUOUS
 10
5.492960
 20
2.422640
  0
VERTEX
  8
0
  6
CONTINUOUS
 10
5.422560
 20
2.445080
  0
VERTEX
  8
0
  6
CONTINUOUS
 10
5.373720
 20
2.464440
  0
VERTEX
  8
0
  6
CONTINUOUS
 10
5.323560
 20
2.488200
  0
VERTEX
  8
0
  6
CONTINUOUS
 10
5.246560
 20
2.531760
  0
VERTEX
  8
0
  6
CONTINUOUS
 10
5.169560
 20
2.580600
  0
VERTEX
  8
0
  6
CONTINUOUS
 10
5.121160
 20
2.606120
  0
VERTEX
  8
0
  6
CONTINUOUS
 10
5.074960
 20
2.625480
  0
VERTEX
  8
0
  6
CONTINUOUS
 10
5.030960
 20
2.639120
  0
VERTEX
  8
0
  6
CONTINUOUS
 10
4.989600
 20
2.647920
  0
VERTEX
  8
0
  6
CONTINUOUS
 10
4.950440
 20
2.651880
  0
VERTEX
  8
0
  6
CONTINUOUS
 10
4.913480
 20
2.651880
  0
VERTEX
  8
0
  6
CONTINUOUS
 10
4.879160
 20
2.647920
  0
VERTEX
  8
0
  6
CONTINUOUS
 10
4.847040
 20
2.640440
  0
VERTEX
  8
0
  6
CONTINUOUS
 10
4.817120
 20
2.630320
  0
VERTEX
  8
0
  6
CONTINUOUS
 10
4.776640
 20
2.610520
  0
VERTEX
  8
0
  6
CONTINUOUS
 10
4.741880
 20
2.586320
  0
VERTEX
  8
0
  6
CONTINUOUS
 10
4.721640
 20
2.568720
  0
VERTEX
  8
0
  6
CONTINUOUS
 10
4.703600
 20
2.550240
  0
VERTEX
  8
0
  6
CONTINUOUS
 10
4.687760
 20
2.531320
  0
VERTEX
  8
0
  6
CONTINUOUS
 10
4.464240
 20
2.531320
  0
VERTEX
  8
0
  6
CONTINUOUS
 10
4.464240
 20
1.845800
  0
VERTEX
  8
0
  6
CONTINUOUS
 10
4.988720
 20
1.845800
  0
VERTEX
  8
0
  6
CONTINUOUS
 10
4.988720
 20
2.201760
  0
VERTEX
  8
0
  6
CONTINUOUS
 10
6.096640
 20
2.201320
  0
SEQEND
  8
0
  0
POLYLINE
  8
0
  6
CONTINUOUS
 66
     1
 40
0.014080
 41
0.014080
  0
VERTEX
  8
0
  6
CONTINUOUS
 10
4.875640
 20
6.322800
  0
VERTEX
  8
0
  6
CONTINUOUS
 10
4.875640
 20
6.406840
  0
VERTEX
  8
0
  6
CONTINUOUS
 10
4.726480
 20
6.544120
  0
VERTEX
  8
0
  6
CONTINUOUS
 10
4.712840
 20
6.549400
  0
VERTEX
  8
0
  6
CONTINUOUS
 10
4.693480
 20
6.552040
  0
VERTEX
  8
0
  6
CONTINUOUS
 10
4.668840
 20
6.550720
  0
VERTEX
  8
0
  6
CONTINUOUS
 10
4.638480
 20
6.545000
  0
VERTEX
  8
0
  6
CONTINUOUS
 10
4.578640
 20
6.526960
  0
VERTEX
  8
0
  6
CONTINUOUS
 10
4.532880
 20
6.519480
  0
VERTEX
  8
0
  6
CONTINUOUS
 10
4.488880
 20
6.516400
  0
VERTEX
  8
0
  6
CONTINUOUS
 10
4.437400
 20
6.516840
  0
VERTEX
  8
0
  6
CONTINUOUS
 10
4.379760
 20
6.522120
  0
VERTEX
  8
0
  6
CONTINUOUS
 10
4.316840
 20
6.532680
  0
VERTEX
  8
0
  6
CONTINUOUS
 10
4.249080
 20
6.550280
  0
VERTEX
  8
0
  6
CONTINUOUS
 10
4.177360
 20
6.575360
  0
VERTEX
  8
0
  6
CONTINUOUS
 10
4.127640
 20
6.596920
  0
VERTEX
  8
0
  6
CONTINUOUS
 10
4.077040
 20
6.622880
  0
VERTEX
  8
0
  6
CONTINUOUS
 10
4.025560
 20
6.652800
  0
VERTEX
  8
0
  6
CONTINUOUS
 10
3.948560
 20
6.701640
  0
VERTEX
  8
0
  6
CONTINUOUS
 10
3.900160
 20
6.727160
  0
VERTEX
  8
0
  6
CONTINUOUS
 10
3.853960
 20
6.746520
  0
VERTEX
  8
0
  6
CONTINUOUS
 10
3.809960
 20
6.760600
  0
VERTEX
  8
0
  6
CONTINUOUS
 10
3.768600
 20
6.768960
  0
VERTEX
  8
0
  6
CONTINUOUS
 10
3.729440
 20
6.773360
  0
VERTEX
  8
0
  6
CONTINUOUS
 10
3.710520
 20
6.773800
  0
VERTEX
  8
0
  6
CONTINUOUS
 10
3.674880
 20
6.771600
  0
VERTEX
  8
0
  6
CONTINUOUS
 10
3.641440
 20
6.765880
  0
VERTEX
  8
0
  6
CONTINUOUS
 10
3.610640
 20
6.757080
  0
VERTEX
  8
0
  6
CONTINUOUS
 10
3.582040
 20
6.745640
  0
VERTEX
  8
0
  6
CONTINUOUS
 10
3.543760
 20
6.724080
  0
VERTEX
  8
0
  6
CONTINUOUS
 10
3.510320
 20
6.699000
  0
VERTEX
  8
0
  6
CONTINUOUS
 10
3.482600
 20
6.671720
  0
VERTEX
  8
0
  6
CONTINUOUS
 10
3.466760
 20
6.652800
  0
VERTEX
  8
0
  6
CONTINUOUS
 10
3.242800
 20
6.652800
  0
VERTEX
  8
0
  6
CONTINUOUS
 10
3.242800
 20
5.966840
  0
VERTEX
  8
0
  6
CONTINUOUS
 10
3.767720
 20
5.966840
  0
VERTEX
  8
0
  6
CONTINUOUS
 10
3.767720
 20
6.322800
  0
VERTEX
  8
0
  6
CONTINUOUS
 10
4.875640
 20
6.322800
  0
SEQEND
  8
0
  0
SOLID
  8
0
 62
    15
 10
3.941960
 20
4.292200
 11
3.941960
 21
5.037120
 12
3.992120
 22
4.268440
 13
3.992120
 23
5.013800
  0
POLYLINE
  8
0
  6
CONTINUOUS
 66
     1
 40
0.000000
 41
0.000000
  0
VERTEX
  8
0
  6
CONTINUOUS
 10
3.941960
 20
4.292200
  0
VERTEX
  8
0
  6
CONTINUOUS
 10
3.941960
 20
5.037120
  0
VERTEX
  8
0
  6
CONTINUOUS
 10
3.992120
 20
5.013800
  0
VERTEX
  8
0
  6
CONTINUOUS
 10
3.992120
 20
4.268440
  0
VERTEX
  8
0
  6
CONTINUOUS
 10
3.941960
 20
4.292200
  0
SEQEND
  8
0
  0
SOLID
  8
0
 62
    15
 10
3.082640
 20
3.649800
 11
3.082200
 21
4.394720
 12
3.082640
 22
4.335320
 13
3.082200
 23
5.080680
  0
POLYLINE
  8
0
  6
CONTINUOUS
 66
     1
 40
0.000000
 41
0.000000
  0
VERTEX
  8
0
  6
CONTINUOUS
 10
3.082640
 20
3.649800
  0
VERTEX
  8
0
  6
CONTINUOUS
 10
3.082200
 20
4.394720
  0
VERTEX
  8
0
  6
CONTINUOUS
 10
3.082200
 20
5.080680
  0
VERTEX
  8
0
  6
CONTINUOUS
 10
3.082640
 20
4.335320
  0
VERTEX
  8
0
  6
CONTINUOUS
 10
3.082640
 20
3.649800
  0
SEQEND
  8
0
  0
SOLID
  8
0
 62
    15
 10
3.306160
 20
4.335320
 11
3.305720
 21
5.080680
 12
3.339600
 22
4.372720
 13
3.339600
 23
5.117640
  0
POLYLINE
  8
0
  6
CONTINUOUS
 66
     1
 40
0.000000
 41
0.000000
  0
VERTEX
  8
0
  6
CONTINUOUS
 10
3.306160
 20
4.335320
  0
VERTEX
  8
0
  6
CONTINUOUS
 10
3.305720
 20
5.080680
  0
VERTEX
  8
0
  6
CONTINUOUS
 10
3.339600
 20
5.117640
  0
VERTEX
  8
0
  6
CONTINUOUS
 10
3.339600
 20
4.372720
  0
VERTEX
  8
0
  6
CONTINUOUS
 10
3.306160
 20
4.335320
  0
SEQEND
  8
0
  0
SOLID
  8
0
 62
    15
 10
3.339600
 20
4.372720
 11
3.339600
 21
5.117640
 12
3.382720
 22
4.406600
 13
3.382720
 23
5.151960
  0
POLYLINE
  8
0
  6
CONTINUOUS
 66
     1
 40
0.000000
 41
0.000000
  0
VERTEX
  8
0
  6
CONTINUOUS
 10
3.339600
 20
4.372720
  0
VERTEX
  8
0
  6
CONTINUOUS
 10
3.339600
 20
5.117640
  0
VERTEX
  8
0
  6
CONTINUOUS
 10
3.382720
 20
5.151960
  0
VERTEX
  8
0
  6
CONTINUOUS
 10
3.382720
 20
4.406600
  0
VERTEX
  8
0
  6
CONTINUOUS
 10
3.339600
 20
4.372720
  0
SEQEND
  8
0
  0
SOLID
  8
0
 62
    15
 10
3.382720
 20
4.406600
 11
3.382720
 21
5.151960
 12
3.435520
 22
4.434320
 13
3.435080
 23
5.179240
  0
POLYLINE
  8
0
  6
CONTINUOUS
 66
     1
 40
0.000000
 41
0.000000
  0
VERTEX
  8
0
  6
CONTINUOUS
 10
3.382720
 20
4.406600
  0
VERTEX
  8
0
  6
CONTINUOUS
 10
3.382720
 20
5.151960
  0
VERTEX
  8
0
  6
CONTINUOUS
 10
3.435080
 20
5.179240
  0
VERTEX
  8
0
  6
CONTINUOUS
 10
3.435520
 20
4.434320
  0
VERTEX
  8
0
  6
CONTINUOUS
 10
3.382720
 20
4.406600
  0
SEQEND
  8
0
  0
SOLID
  8
0
 62
    15
 10
3.435520
 20
4.434320
 11
3.435080
 21
5.179240
 12
3.497120
 22
4.451920
 13
3.497120
 23
5.196840
  0
POLYLINE
  8
0
  6
CONTINUOUS
 66
     1
 40
0.000000
 41
0.000000
  0
VERTEX
  8
0
  6
CONTINUOUS
 10
3.435520
 20
4.434320
  0
VERTEX
  8
0
  6
CONTINUOUS
 10
3.435080
 20
5.179240
  0
VERTEX
  8
0
  6
CONTINUOUS
 10
3.497120
 20
5.196840
  0
VERTEX
  8
0
  6
CONTINUOUS
 10
3.497120
 20
4.451920
  0
VERTEX
  8
0
  6
CONTINUOUS
 10
3.435520
 20
4.434320
  0
SEQEND
  8
0
  0
SOLID
  8
0
 62
    15
 10
3.497120
 20
4.451920
 11
3.497120
 21
5.196840
 12
3.531880
 22
4.455880
 13
3.531440
 23
5.200800
  0
POLYLINE
  8
0
  6
CONTINUOUS
 66
     1
 40
0.000000
 41
0.000000
  0
VERTEX
  8
0
  6
CONTINUOUS
 10
3.497120
 20
4.451920
  0
VERTEX
  8
0
  6
CONTINUOUS
 10
3.497120
 20
5.196840
  0
VERTEX
  8
0
  6
CONTINUOUS
 10
3.531440
 20
5.200800
  0
VERTEX
  8
0
  6
CONTINUOUS
 10
3.531880
 20
4.455880
  0
VERTEX
  8
0
  6
CONTINUOUS
 10
3.497120
 20
4.451920
  0
SEQEND
  8
0
  0
SOLID
  8
0
 62
    15
 10
3.531880
 20
4.455880
 11
3.531440
 21
5.200800
 12
3.568400
 22
4.455880
 13
3.568400
 23
5.201240
  0
POLYLINE
  8
0
  6
CONTINUOUS
 66
     1
 40
0.000000
 41
0.000000
  0
VERTEX
  8
0
  6
CONTINUOUS
 10
3.531880
 20
4.455880
  0
VERTEX
  8
0
  6
CONTINUOUS
 10
3.531440
 20
5.200800
  0
VERTEX
  8
0
  6
CONTINUOUS
 10
3.568400
 20
5.201240
  0
VERTEX
  8
0
  6
CONTINUOUS
 10
3.568400
 20
4.455880
  0
VERTEX
  8
0
  6
CONTINUOUS
 10
3.531880
 20
4.455880
  0
SEQEND
  8
0
  0
SOLID
  8
0
 62
    15
 10
3.568400
 20
4.455880
 11
3.568400
 21
5.201240
 12
3.607560
 22
4.451920
 13
3.607560
 23
5.196840
  0
POLYLINE
  8
0
  6
CONTINUOUS
 66
     1
 40
0.000000
 41
0.000000
  0
VERTEX
  8
0
  6
CONTINUOUS
 10
3.568400
 20
4.455880
  0
VERTEX
  8
0
  6
CONTINUOUS
 10
3.568400
 20
5.201240
  0
VERTEX
  8
0
  6
CONTINUOUS
 10
3.607560
 20
5.196840
  0
VERTEX
  8
0
  6
CONTINUOUS
 10
3.607560
 20
4.451920
  0
VERTEX
  8
0
  6
CONTINUOUS
 10
3.568400
 20
4.455880
  0
SEQEND
  8
0
  0
SOLID
  8
0
 62
    15
 10
3.607560
 20
4.451920
 11
3.607560
 21
5.196840
 12
3.649360
 22
4.443120
 13
3.648920
 23
5.188480
  0
POLYLINE
  8
0
  6
CONTINUOUS
 66
     1
 40
0.000000
 41
0.000000
  0
VERTEX
  8
0
  6
CONTINUOUS
 10
3.607560
 20
4.451920
  0
VERTEX
  8
0
  6
CONTINUOUS
 10
3.607560
 20
5.196840
  0
VERTEX
  8
0
  6
CONTINUOUS
 10
3.648920
 20
5.188480
  0
VERTEX
  8
0
  6
CONTINUOUS
 10
3.649360
 20
4.443120
  0
VERTEX
  8
0
  6
CONTINUOUS
 10
3.607560
 20
4.451920
  0
SEQEND
  8
0
  0
SOLID
  8
0
 62
    15
 10
3.649360
 20
4.443120
 11
3.648920
 21
5.188480
 12
3.692920
 22
4.429480
 13
3.692920
 23
5.174400
  0
POLYLINE
  8
0
  6
CONTINUOUS
 66
     1
 40
0.000000
 41
0.000000
  0
VERTEX
  8
0
  6
CONTINUOUS
 10
3.649360
 20
4.443120
  0
VERTEX
  8
0
  6
CONTINUOUS
 10
3.648920
 20
5.188480
  0
VERTEX
  8
0
  6
CONTINUOUS
 10
3.692920
 20
5.174400
  0
VERTEX
  8
0
  6
CONTINUOUS
 10
3.692920
 20
4.429480
  0
VERTEX
  8
0
  6
CONTINUOUS
 10
3.649360
 20
4.443120
  0
SEQEND
  8
0
  0
SOLID
  8
0
 62
    15
 10
3.692920
 20
4.429480
 11
3.692920
 21
5.174400
 12
3.739560
 22
4.410120
 13
3.739120
 23
5.155040
  0
POLYLINE
  8
0
  6
CONTINUOUS
 66
     1
 40
0.000000
 41
0.000000
  0
VERTEX
  8
0
  6
CONTINUOUS
 10
3.692920
 20
4.429480
  0
VERTEX
  8
0
  6
CONTINUOUS
 10
3.692920
 20
5.174400
  0
VERTEX
  8
0
  6
CONTINUOUS
 10
3.739120
 20
5.155040
  0
VERTEX
  8
0
  6
CONTINUOUS
 10
3.739560
 20
4.410120
  0
VERTEX
  8
0
  6
CONTINUOUS
 10
3.692920
 20
4.429480
  0
SEQEND
  8
0
  0
SOLID
  8
0
 62
    15
 10
3.739560
 20
4.410120
 11
3.739120
 21
5.155040
 12
3.787960
 22
4.384600
 13
3.787960
 23
5.129520
  0
POLYLINE
  8
0
  6
CONTINUOUS
 66
     1
 40
0.000000
 41
0.000000
  0
VERTEX
  8
0
  6
CONTINUOUS
 10
3.739560
 20
4.410120
  0
VERTEX
  8
0
  6
CONTINUOUS
 10
3.739120
 20
5.155040
  0
VERTEX
  8
0
  6
CONTINUOUS
 10
3.787960
 20
5.129520
  0
VERTEX
  8
0
  6
CONTINUOUS
 10
3.787960
 20
4.384600
  0
VERTEX
  8
0
  6
CONTINUOUS
 10
3.739560
 20
4.410120
  0
SEQEND
  8
0
  0
SOLID
  8
0
 62
    15
 10
3.787960
 20
4.384600
 11
3.787960
 21
5.129520
 12
3.839000
 22
4.352920
 13
3.838560
 23
5.097840
  0
POLYLINE
  8
0
  6
CONTINUOUS
 66
     1
 40
0.000000
 41
0.000000
  0
VERTEX
  8
0
  6
CONTINUOUS
 10
3.787960
 20
4.384600
  0
VERTEX
  8
0
  6
CONTINUOUS
 10
3.787960
 20
5.129520
  0
VERTEX
  8
0
  6
CONTINUOUS
 10
3.838560
 20
5.097840
  0
VERTEX
  8
0
  6
CONTINUOUS
 10
3.839000
 20
4.352920
  0
VERTEX
  8
0
  6
CONTINUOUS
 10
3.787960
 20
4.384600
  0
SEQEND
  8
0
  0
SOLID
  8
0
 62
    15
 10
3.839000
 20
4.352920
 11
3.838560
 21
5.097840
 12
3.890920
 22
4.319920
 13
3.890480
 23
5.065280
  0
POLYLINE
  8
0
  6
CONTINUOUS
 66
     1
 40
0.000000
 41
0.000000
  0
VERTEX
  8
0
  6
CONTINUOUS
 10
3.839000
 20
4.352920
  0
VERTEX
  8
0
  6
CONTINUOUS
 10
3.838560
 20
5.097840
  0
VERTEX
  8
0
  6
CONTINUOUS
 10
3.890480
 20
5.065280
  0
VERTEX
  8
0
  6
CONTINUOUS
 10
3.890920
 20
4.319920
  0
VERTEX
  8
0
  6
CONTINUOUS
 10
3.839000
 20
4.352920
  0
SEQEND
  8
0
  0
SOLID
  8
0
 62
    15
 10
3.890920
 20
4.319920
 11
3.890480
 21
5.065280
 12
3.941960
 22
4.292200
 13
3.941960
 23
5.037120
  0
POLYLINE
  8
0
  6
CONTINUOUS
 66
     1
 40
0.000000
 41
0.000000
  0
VERTEX
  8
0
  6
CONTINUOUS
 10
3.890920
 20
4.319920
  0
VERTEX
  8
0
  6
CONTINUOUS
 10
3.890480
 20
5.065280
  0
VERTEX
  8
0
  6
CONTINUOUS
 10
3.941960
 20
5.037120
  0
VERTEX
  8
0
  6
CONTINUOUS
 10
3.941960
 20
4.292200
  0
VERTEX
  8
0
  6
CONTINUOUS
 10
3.890920
 20
4.319920
  0
SEQEND
  8
0
  0
SOLID
  8
0
 62
    15
 10
3.082640
 20
4.335320
 11
3.082200
 21
5.080680
 12
3.306160
 22
4.335320
 13
3.305720
 23
5.080680
  0
POLYLINE
  8
0
  6
CONTINUOUS
 66
     1
 40
0.000000
 41
0.000000
  0
VERTEX
  8
0
  6
CONTINUOUS
 10
3.082640
 20
4.335320
  0
VERTEX
  8
0
  6
CONTINUOUS
 10
3.082200
 20
5.080680
  0
VERTEX
  8
0
  6
CONTINUOUS
 10
3.305720
 20
5.080680
  0
VERTEX
  8
0
  6
CONTINUOUS
 10
3.306160
 20
4.335320
  0
VERTEX
  8
0
  6
CONTINUOUS
 10
3.082640
 20
4.335320
  0
SEQEND
  8
0
  0
SOLID
  8
0
 62
    15
 10
3.992120
 20
4.268440
 11
3.992120
 21
5.013800
 12
4.040960
 22
4.249080
 13
4.040960
 23
4.994000
  0
POLYLINE
  8
0
  6
CONTINUOUS
 66
     1
 40
0.000000
 41
0.000000
  0
VERTEX
  8
0
  6
CONTINUOUS
 10
3.992120
 20
4.268440
  0
VERTEX
  8
0
  6
CONTINUOUS
 10
3.992120
 20
5.013800
  0
VERTEX
  8
0
  6
CONTINUOUS
 10
4.040960
 20
4.994000
  0
VERTEX
  8
0
  6
CONTINUOUS
 10
4.040960
 20
4.249080
  0
VERTEX
  8
0
  6
CONTINUOUS
 10
3.992120
 20
4.268440
  0
SEQEND
  8
0
  0
SOLID
  8
0
 62
    15
 10
4.040960
 20
4.249080
 11
4.040960
 21
4.994000
 12
4.088480
 22
4.233240
 13
4.088480
 23
4.978160
  0
POLYLINE
  8
0
  6
CONTINUOUS
 66
     1
 40
0.000000
 41
0.000000
  0
VERTEX
  8
0
  6
CONTINUOUS
 10
4.040960
 20
4.249080
  0
VERTEX
  8
0
  6
CONTINUOUS
 10
4.040960
 20
4.994000
  0
VERTEX
  8
0
  6
CONTINUOUS
 10
4.088480
 20
4.978160
  0
VERTEX
  8
0
  6
CONTINUOUS
 10
4.088480
 20
4.233240
  0
VERTEX
  8
0
  6
CONTINUOUS
 10
4.040960
 20
4.249080
  0
SEQEND
  8
0
  0
SOLID
  8
0
 62
    15
 10
4.088480
 20
4.233240
 11
4.088480
 21
4.978160
 12
4.134240
 22
4.220920
 13
4.133800
 23
4.965840
  0
POLYLINE
  8
0
  6
CONTINUOUS
 66
     1
 40
0.000000
 41
0.000000
  0
VERTEX
  8
0
  6
CONTINUOUS
 10
4.088480
 20
4.233240
  0
VERTEX
  8
0
  6
CONTINUOUS
 10
4.088480
 20
4.978160
  0
VERTEX
  8
0
  6
CONTINUOUS
 10
4.133800
 20
4.965840
  0
VERTEX
  8
0
  6
CONTINUOUS
 10
4.134240
 20
4.220920
  0
VERTEX
  8
0
  6
CONTINUOUS
 10
4.088480
 20
4.233240
  0
SEQEND
  8
0
  0
SOLID
  8
0
 62
    15
 10
4.134240
 20
4.220920
 11
4.133800
 21
4.965840
 12
4.219600
 22
4.205080
 13
4.219160
 23
4.950000
  0
POLYLINE
  8
0
  6
CONTINUOUS
 66
     1
 40
0.000000
 41
0.000000
  0
VERTEX
  8
0
  6
CONTINUOUS
 10
4.134240
 20
4.220920
  0
VERTEX
  8
0
  6
CONTINUOUS
 10
4.133800
 20
4.965840
  0
VERTEX
  8
0
  6
CONTINUOUS
 10
4.219160
 20
4.950000
  0
VERTEX
  8
0
  6
CONTINUOUS
 10
4.219600
 20
4.205080
  0
VERTEX
  8
0
  6
CONTINUOUS
 10
4.134240
 20
4.220920
  0
SEQEND
  8
0
  0
SOLID
  8
0
 62
    15
 10
4.219600
 20
4.205080
 11
4.219160
 21
4.950000
 12
4.294840
 22
4.198920
 13
4.294840
 23
4.944280
  0
POLYLINE
  8
0
  6
CONTINUOUS
 66
     1
 40
0.000000
 41
0.000000
  0
VERTEX
  8
0
  6
CONTINUOUS
 10
4.219600
 20
4.205080
  0
VERTEX
  8
0
  6
CONTINUOUS
 10
4.219160
 20
4.950000
  0
VERTEX
  8
0
  6
CONTINUOUS
 10
4.294840
 20
4.944280
  0
VERTEX
  8
0
  6
CONTINUOUS
 10
4.294840
 20
4.198920
  0
VERTEX
  8
0
  6
CONTINUOUS
 10
4.219600
 20
4.205080
  0
SEQEND
  8
0
  0
SOLID
  8
0
 62
    15
 10
4.294840
 20
4.198920
 11
4.294840
 21
4.944280
 12
4.358640
 22
4.200680
 13
4.358200
 23
4.946040
  0
POLYLINE
  8
0
  6
CONTINUOUS
 66
     1
 40
0.000000
 41
0.000000
  0
VERTEX
  8
0
  6
CONTINUOUS
 10
4.294840
 20
4.198920
  0
VERTEX
  8
0
  6
CONTINUOUS
 10
4.294840
 20
4.944280
  0
VERTEX
  8
0
  6
CONTINUOUS
 10
4.358200
 20
4.946040
  0
VERTEX
  8
0
  6
CONTINUOUS
 10
4.358640
 20
4.200680
  0
VERTEX
  8
0
  6
CONTINUOUS
 10
4.294840
 20
4.198920
  0
SEQEND
  8
0
  0
SOLID
  8
0
 62
    15
 10
4.358640
 20
4.200680
 11
4.358200
 21
4.946040
 12
4.385040
 22
4.203760
 13
4.385040
 23
4.948680
  0
POLYLINE
  8
0
  6
CONTINUOUS
 66
     1
 40
0.000000
 41
0.000000
  0
VERTEX
  8
0
  6
CONTINUOUS
 10
4.358640
 20
4.200680
  0
VERTEX
  8
0
  6
CONTINUOUS
 10
4.358200
 20
4.946040
  0
VERTEX
  8
0
  6
CONTINUOUS
 10
4.385040
 20
4.948680
  0
VERTEX
  8
0
  6
CONTINUOUS
 10
4.385040
 20
4.203760
  0
VERTEX
  8
0
  6
CONTINUOUS
 10
4.358640
 20
4.200680
  0
SEQEND
  8
0
  0
SOLID
  8
0
 62
    15
 10
4.385040
 20
4.203760
 11
4.385040
 21
4.948680
 12
4.408360
 22
4.207280
 13
4.408360
 23
4.952640
  0
POLYLINE
  8
0
  6
CONTINUOUS
 66
     1
 40
0.000000
 41
0.000000
  0
VERTEX
  8
0
  6
CONTINUOUS
 10
4.385040
 20
4.203760
  0
VERTEX
  8
0
  6
CONTINUOUS
 10
4.385040
 20
4.948680
  0
VERTEX
  8
0
  6
CONTINUOUS
 10
4.408360
 20
4.952640
  0
VERTEX
  8
0
  6
CONTINUOUS
 10
4.408360
 20
4.207280
  0
VERTEX
  8
0
  6
CONTINUOUS
 10
4.385040
 20
4.203760
  0
SEQEND
  8
0
  0
SOLID
  8
0
 62
    15
 10
4.408360
 20
4.207280
 11
4.408360
 21
4.952640
 12
4.427280
 22
4.211680
 13
4.427280
 23
4.957040
  0
POLYLINE
  8
0
  6
CONTINUOUS
 66
     1
 40
0.000000
 41
0.000000
  0
VERTEX
  8
0
  6
CONTINUOUS
 10
4.408360
 20
4.207280
  0
VERTEX
  8
0
  6
CONTINUOUS
 10
4.408360
 20
4.952640
  0
VERTEX
  8
0
  6
CONTINUOUS
 10
4.427280
 20
4.957040
  0
VERTEX
  8
0
  6
CONTINUOUS
 10
4.427280
 20
4.211680
  0
VERTEX
  8
0
  6
CONTINUOUS
 10
4.408360
 20
4.207280
  0
SEQEND
  8
0
  0
SOLID
  8
0
 62
    15
 10
4.427280
 20
4.211680
 11
4.427280
 21
4.957040
 12
4.442240
 22
4.216520
 13
4.442240
 23
4.961440
  0
POLYLINE
  8
0
  6
CONTINUOUS
 66
     1
 40
0.000000
 41
0.000000
  0
VERTEX
  8
0
  6
CONTINUOUS
 10
4.427280
 20
4.211680
  0
VERTEX
  8
0
  6
CONTINUOUS
 10
4.427280
 20
4.957040
  0
VERTEX
  8
0
  6
CONTINUOUS
 10
4.442240
 20
4.961440
  0
VERTEX
  8
0
  6
CONTINUOUS
 10
4.442240
 20
4.216520
  0
VERTEX
  8
0
  6
CONTINUOUS
 10
4.427280
 20
4.211680
  0
SEQEND
  8
0
  0
SOLID
  8
0
 62
    15
 10
4.442240
 20
4.216520
 11
4.442240
 21
4.961440
 12
4.488880
 22
4.230160
 13
4.488440
 23
4.975520
  0
POLYLINE
  8
0
  6
CONTINUOUS
 66
     1
 40
0.000000
 41
0.000000
  0
VERTEX
  8
0
  6
CONTINUOUS
 10
4.442240
 20
4.216520
  0
VERTEX
  8
0
  6
CONTINUOUS
 10
4.442240
 20
4.961440
  0
VERTEX
  8
0
  6
CONTINUOUS
 10
4.488440
 20
4.975520
  0
VERTEX
  8
0
  6
CONTINUOUS
 10
4.488880
 20
4.230160
  0
VERTEX
  8
0
  6
CONTINUOUS
 10
4.442240
 20
4.216520
  0
SEQEND
  8
0
  0
SOLID
  8
0
 62
    15
 10
4.488880
 20
4.230160
 11
4.488440
 21
4.975520
 12
4.525400
 22
4.235000
 13
4.525400
 23
4.979920
  0
POLYLINE
  8
0
  6
CONTINUOUS
 66
     1
 40
0.000000
 41
0.000000
  0
VERTEX
  8
0
  6
CONTINUOUS
 10
4.488880
 20
4.230160
  0
VERTEX
  8
0
  6
CONTINUOUS
 10
4.488440
 20
4.975520
  0
VERTEX
  8
0
  6
CONTINUOUS
 10
4.525400
 20
4.979920
  0
VERTEX
  8
0
  6
CONTINUOUS
 10
4.525400
 20
4.235000
  0
VERTEX
  8
0
  6
CONTINUOUS
 10
4.488880
 20
4.230160
  0
SEQEND
  8
0
  0
SOLID
  8
0
 62
    15
 10
4.525400
 20
4.235000
 11
4.525400
 21
4.979920
 12
4.552240
 22
4.232360
 13
4.552240
 23
4.977280
  0
POLYLINE
  8
0
  6
CONTINUOUS
 66
     1
 40
0.000000
 41
0.000000
  0
VERTEX
  8
0
  6
CONTINUOUS
 10
4.525400
 20
4.235000
  0
VERTEX
  8
0
  6
CONTINUOUS
 10
4.525400
 20
4.979920
  0
VERTEX
  8
0
  6
CONTINUOUS
 10
4.552240
 20
4.977280
  0
VERTEX
  8
0
  6
CONTINUOUS
 10
4.552240
 20
4.232360
  0
VERTEX
  8
0
  6
CONTINUOUS
 10
4.525400
 20
4.235000
  0
SEQEND
  8
0
  0
SOLID
  8
0
 62
    15
 10
4.552240
 20
4.232360
 11
4.552240
 21
4.977280
 12
4.569400
 22
4.224440
 13
4.568960
 23
4.969800
  0
POLYLINE
  8
0
  6
CONTINUOUS
 66
     1
 40
0.000000
 41
0.000000
  0
VERTEX
  8
0
  6
CONTINUOUS
 10
4.552240
 20
4.232360
  0
VERTEX
  8
0
  6
CONTINUOUS
 10
4.552240
 20
4.977280
  0
VERTEX
  8
0
  6
CONTINUOUS
 10
4.568960
 20
4.969800
  0
VERTEX
  8
0
  6
CONTINUOUS
 10
4.569400
 20
4.224440
  0
VERTEX
  8
0
  6
CONTINUOUS
 10
4.552240
 20
4.232360
  0
SEQEND
  8
0
  0
SOLID
  8
0
 62
    15
 10
4.715040
 20
4.005320
 11
4.714600
 21
4.750680
 12
4.715040
 22
4.005320
 13
4.715040
 23
4.005760
  0
POLYLINE
  8
0
  6
CONTINUOUS
 66
     1
 40
0.000000
 41
0.000000
  0
VERTEX
  8
0
  6
CONTINUOUS
 10
4.715040
 20
4.005320
  0
VERTEX
  8
0
  6
CONTINUOUS
 10
4.714600
 20
4.750680
  0
VERTEX
  8
0
  6
CONTINUOUS
 10
4.715040
 20
4.005760
  0
VERTEX
  8
0
  6
CONTINUOUS
 10
4.715040
 20
4.005320
  0
SEQEND
  8
0
  0
SOLID
  8
0
 62
    15
 10
4.569400
 20
4.224440
 11
4.568960
 21
4.969800
 12
4.715040
 22
4.089800
 13
4.714600
 23
4.834720
  0
POLYLINE
  8
0
  6
CONTINUOUS
 66
     1
 40
0.000000
 41
0.000000
  0
VERTEX
  8
0
  6
CONTINUOUS
 10
4.569400
 20
4.224440
  0
VERTEX
  8
0
  6
CONTINUOUS
 10
4.568960
 20
4.969800
  0
VERTEX
  8
0
  6
CONTINUOUS
 10
4.714600
 20
4.834720
  0
VERTEX
  8
0
  6
CONTINUOUS
 10
4.715040
 20
4.089800
  0
VERTEX
  8
0
  6
CONTINUOUS
 10
4.569400
 20
4.224440
  0
SEQEND
  8
0
  0
POLYLINE
  8
0
  6
CONTINUOUS
 66
     1
 40
0.000000
 41
0.000000
  0
VERTEX
  8
0
  6
CONTINUOUS
 10
4.715040
 20
4.005760
  0
VERTEX
  8
0
  6
CONTINUOUS
 10
3.607120
 20
4.005760
  0
VERTEX
  8
0
  6
CONTINUOUS
 10
3.607120
 20
3.649800
  0
VERTEX
  8
0
  6
CONTINUOUS
 10
3.082640
 20
3.649800
  0
VERTEX
  8
0
  6
CONTINUOUS
 10
3.082640
 20
4.335320
  0
VERTEX
  8
0
  6
CONTINUOUS
 10
3.306160
 20
4.335320
  0
VERTEX
  8
0
  6
CONTINUOUS
 10
3.339600
 20
4.372720
  0
VERTEX
  8
0
  6
CONTINUOUS
 10
3.382720
 20
4.406600
  0
VERTEX
  8
0
  6
CONTINUOUS
 10
3.435520
 20
4.434320
  0
VERTEX
  8
0
  6
CONTINUOUS
 10
3.497120
 20
4.451920
  0
VERTEX
  8
0
  6
CONTINUOUS
 10
3.531880
 20
4.455880
  0
VERTEX
  8
0
  6
CONTINUOUS
 10
3.568400
 20
4.455880
  0
VERTEX
  8
0
  6
CONTINUOUS
 10
3.607560
 20
4.451920
  0
VERTEX
  8
0
  6
CONTINUOUS
 10
3.649360
 20
4.443120
  0
VERTEX
  8
0
  6
CONTINUOUS
 10
3.692920
 20
4.429480
  0
VERTEX
  8
0
  6
CONTINUOUS
 10
3.739560
 20
4.410120
  0
VERTEX
  8
0
  6
CONTINUOUS
 10
3.787960
 20
4.384600
  0
VERTEX
  8
0
  6
CONTINUOUS
 10
3.839000
 20
4.352920
  0
VERTEX
  8
0
  6
CONTINUOUS
 10
3.890920
 20
4.319920
  0
VERTEX
  8
0
  6
CONTINUOUS
 10
3.941960
 20
4.292200
  0
VERTEX
  8
0
  6
CONTINUOUS
 10
3.992120
 20
4.268440
  0
VERTEX
  8
0
  6
CONTINUOUS
 10
4.040960
 20
4.249080
  0
VERTEX
  8
0
  6
CONTINUOUS
 10
4.088480
 20
4.233240
  0
VERTEX
  8
0
  6
CONTINUOUS
 10
4.134240
 20
4.220920
  0
VERTEX
  8
0
  6
CONTINUOUS
 10
4.219600
 20
4.205080
  0
VERTEX
  8
0
  6
CONTINUOUS
 10
4.294840
 20
4.198920
  0
VERTEX
  8
0
  6
CONTINUOUS
 10
4.358640
 20
4.200680
  0
VERTEX
  8
0
  6
CONTINUOUS
 10
4.385040
 20
4.203760
  0
VERTEX
  8
0
  6
CONTINUOUS
 10
4.408360
 20
4.207280
  0
VERTEX
  8
0
  6
CONTINUOUS
 10
4.427280
 20
4.211680
  0
VERTEX
  8
0
  6
CONTINUOUS
 10
4.442240
 20
4.216520
  0
VERTEX
  8
0
  6
CONTINUOUS
 10
4.488880
 20
4.230160
  0
VERTEX
  8
0
  6
CONTINUOUS
 10
4.525400
 20
4.235000
  0
VERTEX
  8
0
  6
CONTINUOUS
 10
4.552240
 20
4.232360
  0
VERTEX
  8
0
  6
CONTINUOUS
 10
4.569400
 20
4.224440
  0
VERTEX
  8
0
  6
CONTINUOUS
 10
4.715040
 20
4.089800
  0
VERTEX
  8
0
  6
CONTINUOUS
 10
4.715040
 20
4.005320
  0
VERTEX
  8
0
  6
CONTINUOUS
 10
4.715040
 20
4.005760
  0
SEQEND
  8
0
  0
TEXT
  8
0
 10
3.556520
 20
3.457080
 40
0.138080
  1
BA  1325
 41
1.000000
  7
SN0
 71
     0
 72
     5
 11
4.240040
 21
3.457080
  0
TEXT
  8
0
 10
3.354560
 20
3.255560
 40
0.138080
  1
13/16" x 1-5/8"
 41
1.000000
  7
SN0
 71
     0
 72
     5
 11
4.442147
 21
3.255560
  0
TEXT
  8
0
 10
4.121920
 20
6.126560
 40
0.138080
  1
BA  1325
 41
1.000000
  7
SN0
 71
     0
 72
     5
 11
4.805440
 21
6.126560
  0
TEXT
  8
0
 10
3.919960
 20
5.925040
 40
0.138080
  1
13/16" x 1-5/8"
 41
1.000000
  7
SN0
 71
     0
 72
     5
 11
5.007547
 21
5.925040
  0
ENDSEC
  0
EOF
