  0
SECTION
  2
HEADER
  9
$ACADVER
  1
AC1006
  9
$EXTMIN
 10
1.726120
 20
0.706640
  9
$EXTMAX
 10
7.003480
 20
9.828280
  9
$LTSCALE
 40
0.044000
  9
$PDMODE
 70
    35
  9
$PDSIZE
 40
0.035200
  0
ENDSEC
  0
SECTION
  2
TABLES
  0
TABLE
  2
LTYPE
 70
     9
  0
LTYPE
  2
CONTINUOUS
 70
    64
  3
Solid line
 72
    65
 73
     0
 40
0.000000
  0
LTYPE
  2
DASHED
 70
    64
  3
__ __ __ __ __ __ __ __ __ __ __ __ __ __ __
 72
    65
 73
     2
 40
0.000330
 49
0.000220
 49
-0.000110
  0
LTYPE
  2
HIDDEN
 70
    64
  3
 _ _ _ _ _ _ _ _ _ _ _ _ _ _ _ _ _ _ _ _ _ _
 72
    65
 73
     2
 40
0.000165
 49
0.000110
 49
-0.000055
  0
LTYPE
  2
CENTER
 70
    64
  3
____ _ ____ _ ____ _ ____ _ ____ _ ____ _ ____
 72
    65
 73
     4
 40
0.000880
 49
0.000550
 49
-0.000110
 49
0.000110
 49
-0.000110
  0
LTYPE
  2
PHANTOM
 70
    64
  3
_____ _ _ _____ _ _ _____ _ _ _____ _ _ ____
 72
    65
 73
     6
 40
0.001100
 49
0.000550
 49
-0.000110
 49
0.000110
 49
-0.000110
 49
0.000110
 49
-0.000110
  0
LTYPE
  2
DOT
 70
    64
  3
...............................................
 72
    65
 73
     2
 40
0.000110
 49
0.000000
 49
-0.000110
  0
LTYPE
  2
DASHDOT
 70
    64
  3
__ . __ . __ . __ . __ . __ . __ . __ . __ . __
 72
    65
 73
     4
 40
0.000440
 49
0.000220
 49
-0.000110
 49
0.000000
 49
-0.000110
  0
LTYPE
  2
BORDER
 70
    64
  3
__ __ . __ __ . __ __ . __ __ . __ __ . __ __
 72
    65
 73
     6
 40
0.000770
 49
0.000220
 49
-0.000110
 49
0.000220
 49
-0.000110
 49
0.000000
 49
-0.000110
  0
LTYPE
  2
DIVIDE
 70
    64
  3
__ . . __ . . __ . . __ . . __ . . __ . . __
 72
    65
 73
     6
 40
0.000550
 49
0.000220
 49
-0.000110
 49
0.000000
 49
-0.000110
 49
0.000000
 49
-0.000110
  0
LTYPE
  2
DOTDOT
 70
    64
  3
 . .  . .  . .  . .  . .  . . 
 72
    65
 73
     5
 40
0.000242
 49
-0.000110
 49
0.000000
 49
-0.000110
 49
0.000000
 49
-0.000110
  0
ENDTAB
  0
TABLE
  2
STYLE
 70
     2
  0
STYLE
 70
     0
  2
SN0
 40
0.000000
 41
0.000440
 50
0.000000
 71
     0
 42
0.000000
  3
ROMAND
  0
STYLE
 70
    68
  2
SV0
 40
0.000000
 41
0.000440
 50
0.000000
 71
     0
 42
0.000000
  3
ROMAND
  0
ENDTAB
  0
TABLE
  2
LAYER
 70
     3
  0
LAYER
  2
FOREGROUND
 70
    64
 62
     7
  6
CONTINUOUS
  0
LAYER
  2
BACKGROUND
 70
    65
 62
    -7
  6
CONTINUOUS
  0
LAYER
  2
0
 70
    64
 62
     7
  6
CONTINUOUS
  0
ENDTAB
  0
ENDSEC
  0
SECTION
  2
ENTITIES
  0
POLYLINE
  8
FOREGROUND
  6
CONTINUOUS
 66
     1
 40
0.000000
 41
0.000000
  0
VERTEX
  8
FOREGROUND
  6
CONTINUOUS
 10
0.000000
 20
10.534920
  0
VERTEX
  8
FOREGROUND
  6
CONTINUOUS
 10
8.499920
 20
10.534920
  0
VERTEX
  8
FOREGROUND
  6
CONTINUOUS
 10
8.499920
 20
-0.465080
  0
VERTEX
  8
FOREGROUND
  6
CONTINUOUS
 10
0.000000
 20
-0.465080
  0
VERTEX
  8
FOREGROUND
  6
CONTINUOUS
 10
0.000000
 20
10.534920
  0
SEQEND
  8
0
  0
POLYLINE
  8
FOREGROUND
  6
CONTINUOUS
 66
     1
 40
0.000000
 41
0.000000
  0
VERTEX
  8
FOREGROUND
  6
CONTINUOUS
 10
0.000000
 20
10.534920
  0
VERTEX
  8
FOREGROUND
  6
CONTINUOUS
 10
8.499920
 20
10.534920
  0
VERTEX
  8
FOREGROUND
  6
CONTINUOUS
 10
8.499920
 20
-0.465080
  0
VERTEX
  8
FOREGROUND
  6
CONTINUOUS
 10
0.000000
 20
-0.465080
  0
VERTEX
  8
FOREGROUND
  6
CONTINUOUS
 10
0.000000
 20
10.534920
  0
SEQEND
  8
0
  0
POLYLINE
  8
0
  6
CONTINUOUS
 66
     1
 40
0.014080
 41
0.014080
  0
VERTEX
  8
0
  6
CONTINUOUS
 10
2.299880
 20
9.062240
  0
VERTEX
  8
0
  6
CONTINUOUS
 10
1.793880
 20
9.574400
  0
VERTEX
  8
0
  6
CONTINUOUS
 10
2.101880
 20
9.818160
  0
VERTEX
  8
0
  6
CONTINUOUS
 10
2.142800
 20
9.779440
  0
VERTEX
  8
0
  6
CONTINUOUS
 10
2.187240
 20
9.743800
  0
VERTEX
  8
0
  6
CONTINUOUS
 10
2.235200
 20
9.712120
  0
VERTEX
  8
0
  6
CONTINUOUS
 10
2.285360
 20
9.683960
  0
VERTEX
  8
0
  6
CONTINUOUS
 10
2.337720
 20
9.659320
  0
VERTEX
  8
0
  6
CONTINUOUS
 10
2.392280
 20
9.639080
  0
VERTEX
  8
0
  6
CONTINUOUS
 10
2.448160
 20
9.622800
  0
VERTEX
  8
0
  6
CONTINUOUS
 10
2.476320
 20
9.615760
  0
VERTEX
  8
0
  6
CONTINUOUS
 10
2.533520
 20
9.605640
  0
VERTEX
  8
0
  6
CONTINUOUS
 10
2.591160
 20
9.599920
  0
VERTEX
  8
0
  6
CONTINUOUS
 10
2.648800
 20
9.598600
  0
VERTEX
  8
0
  6
CONTINUOUS
 10
2.706000
 20
9.602120
  0
VERTEX
  8
0
  6
CONTINUOUS
 10
2.762320
 20
9.610040
  0
VERTEX
  8
0
  6
CONTINUOUS
 10
2.817320
 20
9.622800
  0
VERTEX
  8
0
  6
CONTINUOUS
 10
2.870560
 20
9.640400
  0
VERTEX
  8
0
  6
CONTINUOUS
 10
2.922040
 20
9.663280
  0
VERTEX
  8
0
  6
CONTINUOUS
 10
3.043920
 20
9.728400
  0
VERTEX
  8
0
  6
CONTINUOUS
 10
3.117400
 20
9.760520
  0
VERTEX
  8
0
  6
CONTINUOUS
 10
3.191320
 20
9.785160
  0
VERTEX
  8
0
  6
CONTINUOUS
 10
3.241480
 20
9.796600
  0
VERTEX
  8
0
  6
CONTINUOUS
 10
3.292520
 20
9.803640
  0
VERTEX
  8
0
  6
CONTINUOUS
 10
3.344880
 20
9.805840
  0
VERTEX
  8
0
  6
CONTINUOUS
 10
3.398120
 20
9.802760
  0
VERTEX
  8
0
  6
CONTINUOUS
 10
3.425400
 20
9.799240
  0
VERTEX
  8
0
  6
CONTINUOUS
 10
3.453120
 20
9.793960
  0
VERTEX
  8
0
  6
CONTINUOUS
 10
3.509440
 20
9.778560
  0
VERTEX
  8
0
  6
CONTINUOUS
 10
3.567520
 20
9.756560
  0
VERTEX
  8
0
  6
CONTINUOUS
 10
3.627800
 20
9.727520
  0
VERTEX
  8
0
  6
CONTINUOUS
 10
3.689840
 20
9.690560
  0
VERTEX
  8
0
  6
CONTINUOUS
 10
3.721960
 20
9.669440
  0
VERTEX
  8
0
  6
CONTINUOUS
 10
3.787960
 20
9.620160
  0
VERTEX
  8
0
  6
CONTINUOUS
 10
3.821840
 20
9.592440
  0
VERTEX
  8
0
  6
CONTINUOUS
 10
3.830200
 20
9.592880
  0
VERTEX
  8
0
  6
CONTINUOUS
 10
4.009720
 20
9.804520
  0
VERTEX
  8
0
  6
CONTINUOUS
 10
4.025120
 20
9.815080
  0
VERTEX
  8
0
  6
CONTINUOUS
 10
4.040960
 20
9.819480
  0
VERTEX
  8
0
  6
CONTINUOUS
 10
4.051080
 20
9.818600
  0
VERTEX
  8
0
  6
CONTINUOUS
 10
4.066920
 20
9.812000
  0
VERTEX
  8
0
  6
CONTINUOUS
 10
4.077920
 20
9.803640
  0
VERTEX
  8
0
  6
CONTINUOUS
 10
4.088480
 20
9.792200
  0
VERTEX
  8
0
  6
CONTINUOUS
 10
4.261400
 20
9.570000
  0
VERTEX
  8
0
  6
CONTINUOUS
 10
4.298360
 20
9.605200
  0
VERTEX
  8
0
  6
CONTINUOUS
 10
4.317280
 20
9.618840
  0
VERTEX
  8
0
  6
CONTINUOUS
 10
4.329160
 20
9.625440
  0
VERTEX
  8
0
  6
CONTINUOUS
 10
4.351160
 20
9.632920
  0
VERTEX
  8
0
  6
CONTINUOUS
 10
4.372280
 20
9.633800
  0
VERTEX
  8
0
  6
CONTINUOUS
 10
4.392520
 20
9.630280
  0
VERTEX
  8
0
  6
CONTINUOUS
 10
4.496800
 20
9.594200
  0
VERTEX
  8
0
  6
CONTINUOUS
 10
4.552240
 20
9.579680
  0
VERTEX
  8
0
  6
CONTINUOUS
 10
4.593160
 20
9.573080
  0
VERTEX
  8
0
  6
CONTINUOUS
 10
4.635840
 20
9.570000
  0
VERTEX
  8
0
  6
CONTINUOUS
 10
4.679840
 20
9.572200
  0
VERTEX
  8
0
  6
CONTINUOUS
 10
4.701840
 20
9.575720
  0
VERTEX
  8
0
  6
CONTINUOUS
 10
4.723840
 20
9.581000
  0
VERTEX
  8
0
  6
CONTINUOUS
 10
4.745400
 20
9.588480
  0
VERTEX
  8
0
  6
CONTINUOUS
 10
4.796880
 20
9.611360
  0
VERTEX
  8
0
  6
CONTINUOUS
 10
4.824160
 20
9.619280
  0
VERTEX
  8
0
  6
CONTINUOUS
 10
4.841320
 20
9.621920
  0
VERTEX
  8
0
  6
CONTINUOUS
 10
4.871680
 20
9.622360
  0
VERTEX
  8
0
  6
CONTINUOUS
 10
4.885760
 20
9.620160
  0
VERTEX
  8
0
  6
CONTINUOUS
 10
4.910400
 20
9.612680
  0
VERTEX
  8
0
  6
CONTINUOUS
 10
4.940320
 20
9.596400
  0
VERTEX
  8
0
  6
CONTINUOUS
 10
4.972000
 20
9.572640
  0
VERTEX
  8
0
  6
CONTINUOUS
 10
4.983880
 20
9.571320
  0
VERTEX
  8
0
  6
CONTINUOUS
 10
5.001480
 20
9.576160
  0
VERTEX
  8
0
  6
CONTINUOUS
 10
5.022160
 20
9.588920
  0
VERTEX
  8
0
  6
CONTINUOUS
 10
5.045920
 20
9.608720
  0
VERTEX
  8
0
  6
CONTINUOUS
 10
5.064400
 20
9.616200
  0
VERTEX
  8
0
  6
CONTINUOUS
 10
5.074960
 20
9.618840
  0
VERTEX
  8
0
  6
CONTINUOUS
 10
5.099600
 20
9.620600
  0
VERTEX
  8
0
  6
CONTINUOUS
 10
5.127760
 20
9.617520
  0
VERTEX
  8
0
  6
CONTINUOUS
 10
5.143600
 20
9.614000
  0
VERTEX
  8
0
  6
CONTINUOUS
 10
5.176600
 20
9.602120
  0
VERTEX
  8
0
  6
CONTINUOUS
 10
5.212240
 20
9.583200
  0
VERTEX
  8
0
  6
CONTINUOUS
 10
5.250080
 20
9.555920
  0
VERTEX
  8
0
  6
CONTINUOUS
 10
5.308160
 20
9.522040
  0
VERTEX
  8
0
  6
CONTINUOUS
 10
5.364480
 20
9.493880
  0
VERTEX
  8
0
  6
CONTINUOUS
 10
5.419480
 20
9.471880
  0
VERTEX
  8
0
  6
CONTINUOUS
 10
5.473160
 20
9.455160
  0
VERTEX
  8
0
  6
CONTINUOUS
 10
5.507920
 20
9.446800
  0
VERTEX
  8
0
  6
CONTINUOUS
 10
5.542240
 20
9.440640
  0
VERTEX
  8
0
  6
CONTINUOUS
 10
5.575680
 20
9.436240
  0
VERTEX
  8
0
  6
CONTINUOUS
 10
5.639920
 20
9.433160
  0
VERTEX
  8
0
  6
CONTINUOUS
 10
5.701520
 20
9.437120
  0
VERTEX
  8
0
  6
CONTINUOUS
 10
5.759160
 20
9.446360
  0
VERTEX
  8
0
  6
CONTINUOUS
 10
5.813720
 20
9.460880
  0
VERTEX
  8
0
  6
CONTINUOUS
 10
5.864320
 20
9.479360
  0
VERTEX
  8
0
  6
CONTINUOUS
 10
5.910960
 20
9.500480
  0
VERTEX
  8
0
  6
CONTINUOUS
 10
5.973440
 20
9.536560
  0
VERTEX
  8
0
  6
CONTINUOUS
 10
6.026680
 20
9.574400
  0
VERTEX
  8
0
  6
CONTINUOUS
 10
6.081680
 20
9.622800
  0
VERTEX
  8
0
  6
CONTINUOUS
 10
6.120840
 20
9.660640
  0
VERTEX
  8
0
  6
CONTINUOUS
 10
6.146800
 20
9.677360
  0
VERTEX
  8
0
  6
CONTINUOUS
 10
6.162200
 20
9.684400
  0
VERTEX
  8
0
  6
CONTINUOUS
 10
6.182880
 20
9.688360
  0
VERTEX
  8
0
  6
CONTINUOUS
 10
6.195200
 20
9.687920
  0
VERTEX
  8
0
  6
CONTINUOUS
 10
6.211040
 20
9.683080
  0
VERTEX
  8
0
  6
CONTINUOUS
 10
6.227760
 20
9.672520
  0
VERTEX
  8
0
  6
CONTINUOUS
 10
6.239200
 20
9.659320
  0
VERTEX
  8
0
  6
CONTINUOUS
 10
6.247120
 20
9.642600
  0
VERTEX
  8
0
  6
CONTINUOUS
 10
6.247560
 20
9.639960
  0
VERTEX
  8
0
  6
CONTINUOUS
 10
6.265600
 20
9.639520
  0
VERTEX
  8
0
  6
CONTINUOUS
 10
6.273080
 20
9.652720
  0
VERTEX
  8
0
  6
CONTINUOUS
 10
6.281440
 20
9.663720
  0
VERTEX
  8
0
  6
CONTINUOUS
 10
6.291120
 20
9.672520
  0
VERTEX
  8
0
  6
CONTINUOUS
 10
6.313560
 20
9.685720
  0
VERTEX
  8
0
  6
CONTINUOUS
 10
6.338640
 20
9.693640
  0
VERTEX
  8
0
  6
CONTINUOUS
 10
6.379560
 20
9.698920
  0
VERTEX
  8
0
  6
CONTINUOUS
 10
6.449080
 20
9.702000
  0
VERTEX
  8
0
  6
CONTINUOUS
 10
6.474600
 20
9.706400
  0
VERTEX
  8
0
  6
CONTINUOUS
 10
6.517280
 20
9.720920
  0
VERTEX
  8
0
  6
CONTINUOUS
 10
6.576680
 20
9.749080
  0
VERTEX
  8
0
  6
CONTINUOUS
 10
6.684040
 20
9.813320
  0
VERTEX
  8
0
  6
CONTINUOUS
 10
6.706920
 20
9.819040
  0
VERTEX
  8
0
  6
CONTINUOUS
 10
6.728920
 20
9.818600
  0
VERTEX
  8
0
  6
CONTINUOUS
 10
6.742560
 20
9.816400
  0
VERTEX
  8
0
  6
CONTINUOUS
 10
6.764120
 20
9.807600
  0
VERTEX
  8
0
  6
CONTINUOUS
 10
6.771160
 20
9.802320
  0
VERTEX
  8
0
  6
CONTINUOUS
 10
6.993360
 20
9.587160
  0
VERTEX
  8
0
  6
CONTINUOUS
 10
6.466680
 20
9.062240
  0
VERTEX
  8
0
  6
CONTINUOUS
 10
2.299880
 20
9.062240
  0
SEQEND
  8
0
  0
POLYLINE
  8
0
  6
CONTINUOUS
 66
     1
 40
0.000000
 41
0.000000
  0
VERTEX
  8
0
  6
CONTINUOUS
 10
2.270840
 20
0.706640
  0
VERTEX
  8
0
  6
CONTINUOUS
 10
1.764840
 20
1.218800
  0
VERTEX
  8
0
  6
CONTINUOUS
 10
2.073280
 20
1.462560
  0
VERTEX
  8
0
  6
CONTINUOUS
 10
2.114200
 20
1.423840
  0
VERTEX
  8
0
  6
CONTINUOUS
 10
2.158640
 20
1.388200
  0
VERTEX
  8
0
  6
CONTINUOUS
 10
2.206160
 20
1.356520
  0
VERTEX
  8
0
  6
CONTINUOUS
 10
2.256320
 20
1.328360
  0
VERTEX
  8
0
  6
CONTINUOUS
 10
2.309120
 20
1.303720
  0
VERTEX
  8
0
  6
CONTINUOUS
 10
2.363240
 20
1.283480
  0
VERTEX
  8
0
  6
CONTINUOUS
 10
2.419120
 20
1.267200
  0
VERTEX
  8
0
  6
CONTINUOUS
 10
2.447280
 20
1.260160
  0
VERTEX
  8
0
  6
CONTINUOUS
 10
2.504480
 20
1.250040
  0
VERTEX
  8
0
  6
CONTINUOUS
 10
2.562120
 20
1.244320
  0
VERTEX
  8
0
  6
CONTINUOUS
 10
2.619760
 20
1.243000
  0
VERTEX
  8
0
  6
CONTINUOUS
 10
2.676960
 20
1.246520
  0
VERTEX
  8
0
  6
CONTINUOUS
 10
2.733280
 20
1.254440
  0
VERTEX
  8
0
  6
CONTINUOUS
 10
2.788280
 20
1.267200
  0
VERTEX
  8
0
  6
CONTINUOUS
 10
2.841520
 20
1.284800
  0
VERTEX
  8
0
  6
CONTINUOUS
 10
2.893000
 20
1.307680
  0
VERTEX
  8
0
  6
CONTINUOUS
 10
3.014880
 20
1.372800
  0
VERTEX
  8
0
  6
CONTINUOUS
 10
3.063720
 20
1.394800
  0
VERTEX
  8
0
  6
CONTINUOUS
 10
3.137640
 20
1.422080
  0
VERTEX
  8
0
  6
CONTINUOUS
 10
3.187360
 20
1.435720
  0
VERTEX
  8
0
  6
CONTINUOUS
 10
3.237960
 20
1.444960
  0
VERTEX
  8
0
  6
CONTINUOUS
 10
3.289440
 20
1.449800
  0
VERTEX
  8
0
  6
CONTINUOUS
 10
3.315840
 20
1.450240
  0
VERTEX
  8
0
  6
CONTINUOUS
 10
3.369080
 20
1.447160
  0
VERTEX
  8
0
  6
CONTINUOUS
 10
3.424080
 20
1.437920
  0
VERTEX
  8
0
  6
CONTINUOUS
 10
3.452240
 20
1.431320
  0
VERTEX
  8
0
  6
CONTINUOUS
 10
3.509440
 20
1.412840
  0
VERTEX
  8
0
  6
CONTINUOUS
 10
3.568400
 20
1.387320
  0
VERTEX
  8
0
  6
CONTINUOUS
 10
3.630000
 20
1.354320
  0
VERTEX
  8
0
  6
CONTINUOUS
 10
3.693360
 20
1.313400
  0
VERTEX
  8
0
  6
CONTINUOUS
 10
3.759360
 20
1.264560
  0
VERTEX
  8
0
  6
CONTINUOUS
 10
3.793240
 20
1.236840
  0
VERTEX
  8
0
  6
CONTINUOUS
 10
3.801600
 20
1.237280
  0
VERTEX
  8
0
  6
CONTINUOUS
 10
3.980680
 20
1.448920
  0
VERTEX
  8
0
  6
CONTINUOUS
 10
3.996080
 20
1.459480
  0
VERTEX
  8
0
  6
CONTINUOUS
 10
4.011920
 20
1.463880
  0
VERTEX
  8
0
  6
CONTINUOUS
 10
4.022040
 20
1.463000
  0
VERTEX
  8
0
  6
CONTINUOUS
 10
4.037880
 20
1.456400
  0
VERTEX
  8
0
  6
CONTINUOUS
 10
4.048880
 20
1.448040
  0
VERTEX
  8
0
  6
CONTINUOUS
 10
4.059440
 20
1.436600
  0
VERTEX
  8
0
  6
CONTINUOUS
 10
4.232360
 20
1.213960
  0
VERTEX
  8
0
  6
CONTINUOUS
 10
4.262280
 20
1.243440
  0
VERTEX
  8
0
  6
CONTINUOUS
 10
4.288240
 20
1.263240
  0
VERTEX
  8
0
  6
CONTINUOUS
 10
4.300120
 20
1.269840
  0
VERTEX
  8
0
  6
CONTINUOUS
 10
4.322560
 20
1.276880
  0
VERTEX
  8
0
  6
CONTINUOUS
 10
4.343240
 20
1.278200
  0
VERTEX
  8
0
  6
CONTINUOUS
 10
4.363920
 20
1.274680
  0
VERTEX
  8
0
  6
CONTINUOUS
 10
4.467760
 20
1.238600
  0
VERTEX
  8
0
  6
CONTINUOUS
 10
4.523200
 20
1.224080
  0
VERTEX
  8
0
  6
CONTINUOUS
 10
4.564120
 20
1.217040
  0
VERTEX
  8
0
  6
CONTINUOUS
 10
4.607240
 20
1.214400
  0
VERTEX
  8
0
  6
CONTINUOUS
 10
4.650800
 20
1.216600
  0
VERTEX
  8
0
  6
CONTINUOUS
 10
4.672800
 20
1.220120
  0
VERTEX
  8
0
  6
CONTINUOUS
 10
4.694800
 20
1.225400
  0
VERTEX
  8
0
  6
CONTINUOUS
 10
4.716360
 20
1.232880
  0
VERTEX
  8
0
  6
CONTINUOUS
 10
4.767840
 20
1.255760
  0
VERTEX
  8
0
  6
CONTINUOUS
 10
4.795120
 20
1.263680
  0
VERTEX
  8
0
  6
CONTINUOUS
 10
4.812280
 20
1.266320
  0
VERTEX
  8
0
  6
CONTINUOUS
 10
4.842640
 20
1.266760
  0
VERTEX
  8
0
  6
CONTINUOUS
 10
4.856720
 20
1.264560
  0
VERTEX
  8
0
  6
CONTINUOUS
 10
4.881360
 20
1.257080
  0
VERTEX
  8
0
  6
CONTINUOUS
 10
4.902040
 20
1.246520
  0
VERTEX
  8
0
  6
CONTINUOUS
 10
4.943400
 20
1.217040
  0
VERTEX
  8
0
  6
CONTINUOUS
 10
4.955280
 20
1.215720
  0
VERTEX
  8
0
  6
CONTINUOUS
 10
4.972440
 20
1.220560
  0
VERTEX
  8
0
  6
CONTINUOUS
 10
4.993120
 20
1.233320
  0
VERTEX
  8
0
  6
CONTINUOUS
 10
5.016880
 20
1.253120
  0
VERTEX
  8
0
  6
CONTINUOUS
 10
5.035360
 20
1.260600
  0
VERTEX
  8
0
  6
CONTINUOUS
 10
5.057800
 20
1.264560
  0
VERTEX
  8
0
  6
CONTINUOUS
 10
5.070560
 20
1.265000
  0
VERTEX
  8
0
  6
CONTINUOUS
 10
5.098720
 20
1.261920
  0
VERTEX
  8
0
  6
CONTINUOUS
 10
5.114560
 20
1.258400
  0
VERTEX
  8
0
  6
CONTINUOUS
 10
5.147560
 20
1.246520
  0
VERTEX
  8
0
  6
CONTINUOUS
 10
5.183200
 20
1.227160
  0
VERTEX
  8
0
  6
CONTINUOUS
 10
5.221040
 20
1.200320
  0
VERTEX
  8
0
  6
CONTINUOUS
 10
5.279120
 20
1.166440
  0
VERTEX
  8
0
  6
CONTINUOUS
 10
5.335440
 20
1.138280
  0
VERTEX
  8
0
  6
CONTINUOUS
 10
5.390440
 20
1.116280
  0
VERTEX
  8
0
  6
CONTINUOUS
 10
5.444120
 20
1.099560
  0
VERTEX
  8
0
  6
CONTINUOUS
 10
5.479320
 20
1.091200
  0
VERTEX
  8
0
  6
CONTINUOUS
 10
5.513200
 20
1.085040
  0
VERTEX
  8
0
  6
CONTINUOUS
 10
5.546640
 20
1.080640
  0
VERTEX
  8
0
  6
CONTINUOUS
 10
5.611320
 20
1.077560
  0
VERTEX
  8
0
  6
CONTINUOUS
 10
5.672480
 20
1.081520
  0
VERTEX
  8
0
  6
CONTINUOUS
 10
5.730120
 20
1.090760
  0
VERTEX
  8
0
  6
CONTINUOUS
 10
5.784680
 20
1.105280
  0
VERTEX
  8
0
  6
CONTINUOUS
 10
5.835280
 20
1.123760
  0
VERTEX
  8
0
  6
CONTINUOUS
 10
5.881920
 20
1.144880
  0
VERTEX
  8
0
  6
CONTINUOUS
 10
5.944840
 20
1.180960
  0
VERTEX
  8
0
  6
CONTINUOUS
 10
5.997640
 20
1.218800
  0
VERTEX
  8
0
  6
CONTINUOUS
 10
6.040760
 20
1.255760
  0
VERTEX
  8
0
  6
CONTINUOUS
 10
6.091800
 20
1.305040
  0
VERTEX
  8
0
  6
CONTINUOUS
 10
6.117760
 20
1.321760
  0
VERTEX
  8
0
  6
CONTINUOUS
 10
6.133160
 20
1.328360
  0
VERTEX
  8
0
  6
CONTINUOUS
 10
6.153840
 20
1.332760
  0
VERTEX
  8
0
  6
CONTINUOUS
 10
6.166160
 20
1.332320
  0
VERTEX
  8
0
  6
CONTINUOUS
 10
6.182000
 20
1.327480
  0
VERTEX
  8
0
  6
CONTINUOUS
 10
6.198720
 20
1.316480
  0
VERTEX
  8
0
  6
CONTINUOUS
 10
6.214120
 20
1.297120
  0
VERTEX
  8
0
  6
CONTINUOUS
 10
6.218520
 20
1.284360
  0
VERTEX
  8
0
  6
CONTINUOUS
 10
6.236560
 20
1.283920
  0
VERTEX
  8
0
  6
CONTINUOUS
 10
6.244040
 20
1.297120
  0
VERTEX
  8
0
  6
CONTINUOUS
 10
6.252400
 20
1.308120
  0
VERTEX
  8
0
  6
CONTINUOUS
 10
6.273080
 20
1.324400
  0
VERTEX
  8
0
  6
CONTINUOUS
 10
6.296840
 20
1.334520
  0
VERTEX
  8
0
  6
CONTINUOUS
 10
6.323240
 20
1.340240
  0
VERTEX
  8
0
  6
CONTINUOUS
 10
6.350960
 20
1.343320
  0
VERTEX
  8
0
  6
CONTINUOUS
 10
6.420040
 20
1.346400
  0
VERTEX
  8
0
  6
CONTINUOUS
 10
6.445560
 20
1.350800
  0
VERTEX
  8
0
  6
CONTINUOUS
 10
6.488240
 20
1.364880
  0
VERTEX
  8
0
  6
CONTINUOUS
 10
6.547640
 20
1.393480
  0
VERTEX
  8
0
  6
CONTINUOUS
 10
6.623320
 20
1.438360
  0
VERTEX
  8
0
  6
CONTINUOUS
 10
6.647960
 20
1.454200
  0
VERTEX
  8
0
  6
CONTINUOUS
 10
6.670400
 20
1.462120
  0
VERTEX
  8
0
  6
CONTINUOUS
 10
6.685800
 20
1.463880
  0
VERTEX
  8
0
  6
CONTINUOUS
 10
6.700320
 20
1.463000
  0
VERTEX
  8
0
  6
CONTINUOUS
 10
6.713520
 20
1.460800
  0
VERTEX
  8
0
  6
CONTINUOUS
 10
6.735080
 20
1.452000
  0
VERTEX
  8
0
  6
CONTINUOUS
 10
6.742120
 20
1.446720
  0
VERTEX
  8
0
  6
CONTINUOUS
 10
6.964320
 20
1.231560
  0
VERTEX
  8
0
  6
CONTINUOUS
 10
6.438080
 20
0.706640
  0
VERTEX
  8
0
  6
CONTINUOUS
 10
2.270840
 20
0.706640
  0
SEQEND
  8
0
  0
POLYLINE
  8
0
  6
CONTINUOUS
 66
     1
 40
0.000000
 41
0.000000
  0
VERTEX
  8
0
  6
CONTINUOUS
 10
6.420040
 20
2.042480
  0
VERTEX
  8
0
  6
CONTINUOUS
 10
6.926040
 20
2.554200
  0
VERTEX
  8
0
  6
CONTINUOUS
 10
6.617600
 20
2.798400
  0
VERTEX
  8
0
  6
CONTINUOUS
 10
6.576680
 20
2.759240
  0
VERTEX
  8
0
  6
CONTINUOUS
 10
6.532240
 20
2.724040
  0
VERTEX
  8
0
  6
CONTINUOUS
 10
6.484720
 20
2.691920
  0
VERTEX
  8
0
  6
CONTINUOUS
 10
6.434120
 20
2.663760
  0
VERTEX
  8
0
  6
CONTINUOUS
 10
6.381760
 20
2.639560
  0
VERTEX
  8
0
  6
CONTINUOUS
 10
6.327200
 20
2.618880
  0
VERTEX
  8
0
  6
CONTINUOUS
 10
6.271760
 20
2.602600
  0
VERTEX
  8
0
  6
CONTINUOUS
 10
6.214560
 20
2.590280
  0
VERTEX
  8
0
  6
CONTINUOUS
 10
6.157360
 20
2.582360
  0
VERTEX
  8
0
  6
CONTINUOUS
 10
6.099720
 20
2.578840
  0
VERTEX
  8
0
  6
CONTINUOUS
 10
6.042080
 20
2.580160
  0
VERTEX
  8
0
  6
CONTINUOUS
 10
5.985760
 20
2.585440
  0
VERTEX
  8
0
  6
CONTINUOUS
 10
5.929880
 20
2.596000
  0
VERTEX
  8
0
  6
CONTINUOUS
 10
5.875760
 20
2.611400
  0
VERTEX
  8
0
  6
CONTINUOUS
 10
5.823400
 20
2.631200
  0
VERTEX
  8
0
  6
CONTINUOUS
 10
5.773240
 20
2.656720
  0
VERTEX
  8
0
  6
CONTINUOUS
 10
5.676000
 20
2.708640
  0
VERTEX
  8
0
  6
CONTINUOUS
 10
5.627160
 20
2.730640
  0
VERTEX
  8
0
  6
CONTINUOUS
 10
5.553240
 20
2.757920
  0
VERTEX
  8
0
  6
CONTINUOUS
 10
5.503520
 20
2.771560
  0
VERTEX
  8
0
  6
CONTINUOUS
 10
5.452920
 20
2.780800
  0
VERTEX
  8
0
  6
CONTINUOUS
 10
5.401440
 20
2.785640
  0
VERTEX
  8
0
  6
CONTINUOUS
 10
5.375040
 20
2.786080
  0
VERTEX
  8
0
  6
CONTINUOUS
 10
5.321800
 20
2.783000
  0
VERTEX
  8
0
  6
CONTINUOUS
 10
5.266800
 20
2.773760
  0
VERTEX
  8
0
  6
CONTINUOUS
 10
5.238640
 20
2.767160
  0
VERTEX
  8
0
  6
CONTINUOUS
 10
5.181440
 20
2.748680
  0
VERTEX
  8
0
  6
CONTINUOUS
 10
5.122480
 20
2.723160
  0
VERTEX
  8
0
  6
CONTINUOUS
 10
5.060880
 20
2.690160
  0
VERTEX
  8
0
  6
CONTINUOUS
 10
4.997520
 20
2.649240
  0
VERTEX
  8
0
  6
CONTINUOUS
 10
4.931520
 20
2.600400
  0
VERTEX
  8
0
  6
CONTINUOUS
 10
4.897640
 20
2.572680
  0
VERTEX
  8
0
  6
CONTINUOUS
 10
4.889280
 20
2.572680
  0
VERTEX
  8
0
  6
CONTINUOUS
 10
4.710200
 20
2.784320
  0
VERTEX
  8
0
  6
CONTINUOUS
 10
4.694800
 20
2.795320
  0
VERTEX
  8
0
  6
CONTINUOUS
 10
4.678960
 20
2.799720
  0
VERTEX
  8
0
  6
CONTINUOUS
 10
4.668840
 20
2.798840
  0
VERTEX
  8
0
  6
CONTINUOUS
 10
4.653000
 20
2.792240
  0
VERTEX
  8
0
  6
CONTINUOUS
 10
4.642000
 20
2.783880
  0
VERTEX
  8
0
  6
CONTINUOUS
 10
4.631440
 20
2.772440
  0
VERTEX
  8
0
  6
CONTINUOUS
 10
4.458520
 20
2.549800
  0
VERTEX
  8
0
  6
CONTINUOUS
 10
4.421560
 20
2.585000
  0
VERTEX
  8
0
  6
CONTINUOUS
 10
4.402640
 20
2.598640
  0
VERTEX
  8
0
  6
CONTINUOUS
 10
4.390760
 20
2.605240
  0
VERTEX
  8
0
  6
CONTINUOUS
 10
4.368320
 20
2.612720
  0
VERTEX
  8
0
  6
CONTINUOUS
 10
4.347640
 20
2.613600
  0
VERTEX
  8
0
  6
CONTINUOUS
 10
4.326960
 20
2.610080
  0
VERTEX
  8
0
  6
CONTINUOUS
 10
4.223120
 20
2.574000
  0
VERTEX
  8
0
  6
CONTINUOUS
 10
4.167680
 20
2.559480
  0
VERTEX
  8
0
  6
CONTINUOUS
 10
4.126760
 20
2.552880
  0
VERTEX
  8
0
  6
CONTINUOUS
 10
4.083640
 20
2.549800
  0
VERTEX
  8
0
  6
CONTINUOUS
 10
4.040080
 20
2.552000
  0
VERTEX
  8
0
  6
CONTINUOUS
 10
4.018080
 20
2.555520
  0
VERTEX
  8
0
  6
CONTINUOUS
 10
3.996080
 20
2.560800
  0
VERTEX
  8
0
  6
CONTINUOUS
 10
3.974520
 20
2.568280
  0
VERTEX
  8
0
  6
CONTINUOUS
 10
3.923040
 20
2.591160
  0
VERTEX
  8
0
  6
CONTINUOUS
 10
3.895760
 20
2.599080
  0
VERTEX
  8
0
  6
CONTINUOUS
 10
3.878600
 20
2.601720
  0
VERTEX
  8
0
  6
CONTINUOUS
 10
3.848240
 20
2.602160
  0
VERTEX
  8
0
  6
CONTINUOUS
 10
3.821400
 20
2.596880
  0
VERTEX
  8
0
  6
CONTINUOUS
 10
3.798520
 20
2.587640
  0
VERTEX
  8
0
  6
CONTINUOUS
 10
3.763320
 20
2.564760
  0
VERTEX
  8
0
  6
CONTINUOUS
 10
3.747480
 20
2.552440
  0
VERTEX
  8
0
  6
CONTINUOUS
 10
3.742200
 20
2.551120
  0
VERTEX
  8
0
  6
CONTINUOUS
 10
3.727240
 20
2.552880
  0
VERTEX
  8
0
  6
CONTINUOUS
 10
3.707880
 20
2.561240
  0
VERTEX
  8
0
  6
CONTINUOUS
 10
3.673560
 20
2.588520
  0
VERTEX
  8
0
  6
CONTINUOUS
 10
3.655520
 20
2.596000
  0
VERTEX
  8
0
  6
CONTINUOUS
 10
3.633080
 20
2.599960
  0
VERTEX
  8
0
  6
CONTINUOUS
 10
3.620320
 20
2.600400
  0
VERTEX
  8
0
  6
CONTINUOUS
 10
3.591720
 20
2.597320
  0
VERTEX
  8
0
  6
CONTINUOUS
 10
3.560480
 20
2.588520
  0
VERTEX
  8
0
  6
CONTINUOUS
 10
3.543320
 20
2.581920
  0
VERTEX
  8
0
  6
CONTINUOUS
 10
3.507680
 20
2.563000
  0
VERTEX
  8
0
  6
CONTINUOUS
 10
3.469840
 20
2.535720
  0
VERTEX
  8
0
  6
CONTINUOUS
 10
3.411760
 20
2.501840
  0
VERTEX
  8
0
  6
CONTINUOUS
 10
3.373920
 20
2.482480
  0
VERTEX
  8
0
  6
CONTINUOUS
 10
3.318480
 20
2.458720
  0
VERTEX
  8
0
  6
CONTINUOUS
 10
3.282400
 20
2.445520
  0
VERTEX
  8
0
  6
CONTINUOUS
 10
3.246760
 20
2.434960
  0
VERTEX
  8
0
  6
CONTINUOUS
 10
3.211560
 20
2.426600
  0
VERTEX
  8
0
  6
CONTINUOUS
 10
3.177680
 20
2.420440
  0
VERTEX
  8
0
  6
CONTINUOUS
 10
3.111680
 20
2.413840
  0
VERTEX
  8
0
  6
CONTINUOUS
 10
3.079560
 20
2.413400
  0
VERTEX
  8
0
  6
CONTINUOUS
 10
3.048760
 20
2.414280
  0
VERTEX
  8
0
  6
CONTINUOUS
 10
2.988920
 20
2.420880
  0
VERTEX
  8
0
  6
CONTINUOUS
 10
2.933040
 20
2.433200
  0
VERTEX
  8
0
  6
CONTINUOUS
 10
2.880240
 20
2.449480
  0
VERTEX
  8
0
  6
CONTINUOUS
 10
2.831840
 20
2.469280
  0
VERTEX
  8
0
  6
CONTINUOUS
 10
2.786960
 20
2.492160
  0
VERTEX
  8
0
  6
CONTINUOUS
 10
2.746040
 20
2.516360
  0
VERTEX
  8
0
  6
CONTINUOUS
 10
2.693240
 20
2.554200
  0
VERTEX
  8
0
  6
CONTINUOUS
 10
2.650120
 20
2.591160
  0
VERTEX
  8
0
  6
CONTINUOUS
 10
2.599080
 20
2.640440
  0
VERTEX
  8
0
  6
CONTINUOUS
 10
2.573120
 20
2.657160
  0
VERTEX
  8
0
  6
CONTINUOUS
 10
2.557720
 20
2.664200
  0
VERTEX
  8
0
  6
CONTINUOUS
 10
2.537040
 20
2.668160
  0
VERTEX
  8
0
  6
CONTINUOUS
 10
2.524720
 20
2.667720
  0
VERTEX
  8
0
  6
CONTINUOUS
 10
2.508880
 20
2.662880
  0
VERTEX
  8
0
  6
CONTINUOUS
 10
2.492160
 20
2.652320
  0
VERTEX
  8
0
  6
CONTINUOUS
 10
2.476760
 20
2.632960
  0
VERTEX
  8
0
  6
CONTINUOUS
 10
2.472360
 20
2.620200
  0
VERTEX
  8
0
  6
CONTINUOUS
 10
2.454320
 20
2.619320
  0
VERTEX
  8
0
  6
CONTINUOUS
 10
2.446840
 20
2.632520
  0
VERTEX
  8
0
  6
CONTINUOUS
 10
2.438480
 20
2.643520
  0
VERTEX
  8
0
  6
CONTINUOUS
 10
2.417800
 20
2.659800
  0
VERTEX
  8
0
  6
CONTINUOUS
 10
2.394040
 20
2.670360
  0
VERTEX
  8
0
  6
CONTINUOUS
 10
2.367640
 20
2.676080
  0
VERTEX
  8
0
  6
CONTINUOUS
 10
2.311760
 20
2.680040
  0
VERTEX
  8
0
  6
CONTINUOUS
 10
2.270840
 20
2.682240
  0
VERTEX
  8
0
  6
CONTINUOUS
 10
2.245320
 20
2.686640
  0
VERTEX
  8
0
  6
CONTINUOUS
 10
2.217160
 20
2.695000
  0
VERTEX
  8
0
  6
CONTINUOUS
 10
2.173160
 20
2.713920
  0
VERTEX
  8
0
  6
CONTINUOUS
 10
2.115080
 20
2.745160
  0
VERTEX
  8
0
  6
CONTINUOUS
 10
2.042920
 20
2.790040
  0
VERTEX
  8
0
  6
CONTINUOUS
 10
2.020480
 20
2.797960
  0
VERTEX
  8
0
  6
CONTINUOUS
 10
2.005080
 20
2.799280
  0
VERTEX
  8
0
  6
CONTINUOUS
 10
1.990560
 20
2.798840
  0
VERTEX
  8
0
  6
CONTINUOUS
 10
1.965480
 20
2.792240
  0
VERTEX
  8
0
  6
CONTINUOUS
 10
1.948760
 20
2.782120
  0
VERTEX
  8
0
  6
CONTINUOUS
 10
1.726560
 20
2.566960
  0
VERTEX
  8
0
  6
CONTINUOUS
 10
2.252800
 20
2.042480
  0
VERTEX
  8
0
  6
CONTINUOUS
 10
6.420040
 20
2.042480
  0
SEQEND
  8
0
  0
SOLID
  8
0
 62
    15
 10
4.305400
 20
6.748720
 11
4.961440
 21
6.383960
 12
4.268000
 22
6.704720
 13
4.924040
 23
6.340400
  0
POLYLINE
  8
0
  6
CONTINUOUS
 66
     1
 40
0.000000
 41
0.000000
  0
VERTEX
  8
0
  6
CONTINUOUS
 10
4.305400
 20
6.748720
  0
VERTEX
  8
0
  6
CONTINUOUS
 10
4.961440
 20
6.383960
  0
VERTEX
  8
0
  6
CONTINUOUS
 10
4.924040
 20
6.340400
  0
VERTEX
  8
0
  6
CONTINUOUS
 10
4.268000
 20
6.704720
  0
VERTEX
  8
0
  6
CONTINUOUS
 10
4.305400
 20
6.748720
  0
SEQEND
  8
0
  0
SOLID
  8
0
 62
    15
 10
5.768840
 20
7.931440
 11
6.424880
 21
7.567120
 12
5.750360
 22
7.890080
 13
6.406400
 23
7.525760
  0
POLYLINE
  8
0
  6
CONTINUOUS
 66
     1
 40
0.000000
 41
0.000000
  0
VERTEX
  8
0
  6
CONTINUOUS
 10
5.768840
 20
7.931440
  0
VERTEX
  8
0
  6
CONTINUOUS
 10
6.424880
 20
7.567120
  0
VERTEX
  8
0
  6
CONTINUOUS
 10
6.406400
 20
7.525760
  0
VERTEX
  8
0
  6
CONTINUOUS
 10
5.750360
 20
7.890080
  0
VERTEX
  8
0
  6
CONTINUOUS
 10
5.768840
 20
7.931440
  0
SEQEND
  8
0
  0
SOLID
  8
0
 62
    15
 10
5.750360
 20
7.890080
 11
6.406400
 21
7.525760
 12
5.698880
 22
7.857960
 13
6.354920
 23
7.493200
  0
POLYLINE
  8
0
  6
CONTINUOUS
 66
     1
 40
0.000000
 41
0.000000
  0
VERTEX
  8
0
  6
CONTINUOUS
 10
5.750360
 20
7.890080
  0
VERTEX
  8
0
  6
CONTINUOUS
 10
6.406400
 20
7.525760
  0
VERTEX
  8
0
  6
CONTINUOUS
 10
6.354920
 20
7.493200
  0
VERTEX
  8
0
  6
CONTINUOUS
 10
5.698880
 20
7.857960
  0
VERTEX
  8
0
  6
CONTINUOUS
 10
5.750360
 20
7.890080
  0
SEQEND
  8
0
  0
SOLID
  8
0
 62
    15
 10
5.698880
 20
7.857960
 11
6.354920
 21
7.493200
 12
5.593280
 22
7.832440
 13
6.249320
 23
7.468120
  0
POLYLINE
  8
0
  6
CONTINUOUS
 66
     1
 40
0.000000
 41
0.000000
  0
VERTEX
  8
0
  6
CONTINUOUS
 10
5.698880
 20
7.857960
  0
VERTEX
  8
0
  6
CONTINUOUS
 10
6.354920
 20
7.493200
  0
VERTEX
  8
0
  6
CONTINUOUS
 10
6.249320
 20
7.468120
  0
VERTEX
  8
0
  6
CONTINUOUS
 10
5.593280
 20
7.832440
  0
VERTEX
  8
0
  6
CONTINUOUS
 10
5.698880
 20
7.857960
  0
SEQEND
  8
0
  0
SOLID
  8
0
 62
    15
 10
5.593280
 20
7.832440
 11
6.249320
 21
7.468120
 12
5.479760
 22
7.784040
 13
6.135800
 23
7.419720
  0
POLYLINE
  8
0
  6
CONTINUOUS
 66
     1
 40
0.000000
 41
0.000000
  0
VERTEX
  8
0
  6
CONTINUOUS
 10
5.593280
 20
7.832440
  0
VERTEX
  8
0
  6
CONTINUOUS
 10
6.249320
 20
7.468120
  0
VERTEX
  8
0
  6
CONTINUOUS
 10
6.135800
 20
7.419720
  0
VERTEX
  8
0
  6
CONTINUOUS
 10
5.479760
 20
7.784040
  0
VERTEX
  8
0
  6
CONTINUOUS
 10
5.593280
 20
7.832440
  0
SEQEND
  8
0
  0
SOLID
  8
0
 62
    15
 10
5.479760
 20
7.784040
 11
6.135800
 21
7.419720
 12
5.395720
 22
7.712760
 13
6.051760
 23
7.348440
  0
POLYLINE
  8
0
  6
CONTINUOUS
 66
     1
 40
0.000000
 41
0.000000
  0
VERTEX
  8
0
  6
CONTINUOUS
 10
5.479760
 20
7.784040
  0
VERTEX
  8
0
  6
CONTINUOUS
 10
6.135800
 20
7.419720
  0
VERTEX
  8
0
  6
CONTINUOUS
 10
6.051760
 20
7.348440
  0
VERTEX
  8
0
  6
CONTINUOUS
 10
5.395720
 20
7.712760
  0
VERTEX
  8
0
  6
CONTINUOUS
 10
5.479760
 20
7.784040
  0
SEQEND
  8
0
  0
SOLID
  8
0
 62
    15
 10
5.395720
 20
7.712760
 11
6.051760
 21
7.348440
 12
5.349080
 22
7.689000
 13
6.005120
 23
7.324680
  0
POLYLINE
  8
0
  6
CONTINUOUS
 66
     1
 40
0.000000
 41
0.000000
  0
VERTEX
  8
0
  6
CONTINUOUS
 10
5.395720
 20
7.712760
  0
VERTEX
  8
0
  6
CONTINUOUS
 10
6.051760
 20
7.348440
  0
VERTEX
  8
0
  6
CONTINUOUS
 10
6.005120
 20
7.324680
  0
VERTEX
  8
0
  6
CONTINUOUS
 10
5.349080
 20
7.689000
  0
VERTEX
  8
0
  6
CONTINUOUS
 10
5.395720
 20
7.712760
  0
SEQEND
  8
0
  0
SOLID
  8
0
 62
    15
 10
5.349080
 20
7.689000
 11
6.005120
 21
7.324680
 12
5.294520
 22
7.692080
 13
5.950560
 23
7.327760
  0
POLYLINE
  8
0
  6
CONTINUOUS
 66
     1
 40
0.000000
 41
0.000000
  0
VERTEX
  8
0
  6
CONTINUOUS
 10
5.349080
 20
7.689000
  0
VERTEX
  8
0
  6
CONTINUOUS
 10
6.005120
 20
7.324680
  0
VERTEX
  8
0
  6
CONTINUOUS
 10
5.950560
 20
7.327760
  0
VERTEX
  8
0
  6
CONTINUOUS
 10
5.294520
 20
7.692080
  0
VERTEX
  8
0
  6
CONTINUOUS
 10
5.349080
 20
7.689000
  0
SEQEND
  8
0
  0
SOLID
  8
0
 62
    15
 10
5.294520
 20
7.692080
 11
5.950560
 21
7.327760
 12
5.282200
 22
7.679320
 13
5.938240
 23
7.315000
  0
POLYLINE
  8
0
  6
CONTINUOUS
 66
     1
 40
0.000000
 41
0.000000
  0
VERTEX
  8
0
  6
CONTINUOUS
 10
5.294520
 20
7.692080
  0
VERTEX
  8
0
  6
CONTINUOUS
 10
5.950560
 20
7.327760
  0
VERTEX
  8
0
  6
CONTINUOUS
 10
5.938240
 20
7.315000
  0
VERTEX
  8
0
  6
CONTINUOUS
 10
5.282200
 20
7.679320
  0
VERTEX
  8
0
  6
CONTINUOUS
 10
5.294520
 20
7.692080
  0
SEQEND
  8
0
  0
SOLID
  8
0
 62
    15
 10
5.282200
 20
7.679320
 11
5.938240
 21
7.315000
 12
5.289680
 22
7.659960
 13
5.945720
 23
7.295640
  0
POLYLINE
  8
0
  6
CONTINUOUS
 66
     1
 40
0.000000
 41
0.000000
  0
VERTEX
  8
0
  6
CONTINUOUS
 10
5.282200
 20
7.679320
  0
VERTEX
  8
0
  6
CONTINUOUS
 10
5.938240
 20
7.315000
  0
VERTEX
  8
0
  6
CONTINUOUS
 10
5.945720
 20
7.295640
  0
VERTEX
  8
0
  6
CONTINUOUS
 10
5.289680
 20
7.659960
  0
VERTEX
  8
0
  6
CONTINUOUS
 10
5.282200
 20
7.679320
  0
SEQEND
  8
0
  0
SOLID
  8
0
 62
    15
 10
5.289680
 20
7.659960
 11
5.945720
 21
7.295640
 12
5.286600
 22
7.623000
 13
5.942640
 23
7.258680
  0
POLYLINE
  8
0
  6
CONTINUOUS
 66
     1
 40
0.000000
 41
0.000000
  0
VERTEX
  8
0
  6
CONTINUOUS
 10
5.289680
 20
7.659960
  0
VERTEX
  8
0
  6
CONTINUOUS
 10
5.945720
 20
7.295640
  0
VERTEX
  8
0
  6
CONTINUOUS
 10
5.942640
 20
7.258680
  0
VERTEX
  8
0
  6
CONTINUOUS
 10
5.286600
 20
7.623000
  0
VERTEX
  8
0
  6
CONTINUOUS
 10
5.289680
 20
7.659960
  0
SEQEND
  8
0
  0
SOLID
  8
0
 62
    15
 10
5.286600
 20
7.623000
 11
5.942640
 21
7.258680
 12
5.252280
 22
7.588240
 13
5.908320
 23
7.223480
  0
POLYLINE
  8
0
  6
CONTINUOUS
 66
     1
 40
0.000000
 41
0.000000
  0
VERTEX
  8
0
  6
CONTINUOUS
 10
5.286600
 20
7.623000
  0
VERTEX
  8
0
  6
CONTINUOUS
 10
5.942640
 20
7.258680
  0
VERTEX
  8
0
  6
CONTINUOUS
 10
5.908320
 20
7.223480
  0
VERTEX
  8
0
  6
CONTINUOUS
 10
5.252280
 20
7.588240
  0
VERTEX
  8
0
  6
CONTINUOUS
 10
5.286600
 20
7.623000
  0
SEQEND
  8
0
  0
SOLID
  8
0
 62
    15
 10
5.252280
 20
7.588240
 11
5.908320
 21
7.223480
 12
5.217520
 22
7.577680
 13
5.873560
 23
7.212920
  0
POLYLINE
  8
0
  6
CONTINUOUS
 66
     1
 40
0.000000
 41
0.000000
  0
VERTEX
  8
0
  6
CONTINUOUS
 10
5.252280
 20
7.588240
  0
VERTEX
  8
0
  6
CONTINUOUS
 10
5.908320
 20
7.223480
  0
VERTEX
  8
0
  6
CONTINUOUS
 10
5.873560
 20
7.212920
  0
VERTEX
  8
0
  6
CONTINUOUS
 10
5.217520
 20
7.577680
  0
VERTEX
  8
0
  6
CONTINUOUS
 10
5.252280
 20
7.588240
  0
SEQEND
  8
0
  0
SOLID
  8
0
 62
    15
 10
5.217520
 20
7.577680
 11
5.873560
 21
7.212920
 12
5.167360
 22
7.574600
 13
5.823400
 23
7.210280
  0
POLYLINE
  8
0
  6
CONTINUOUS
 66
     1
 40
0.000000
 41
0.000000
  0
VERTEX
  8
0
  6
CONTINUOUS
 10
5.217520
 20
7.577680
  0
VERTEX
  8
0
  6
CONTINUOUS
 10
5.873560
 20
7.212920
  0
VERTEX
  8
0
  6
CONTINUOUS
 10
5.823400
 20
7.210280
  0
VERTEX
  8
0
  6
CONTINUOUS
 10
5.167360
 20
7.574600
  0
VERTEX
  8
0
  6
CONTINUOUS
 10
5.217520
 20
7.577680
  0
SEQEND
  8
0
  0
SOLID
  8
0
 62
    15
 10
5.167360
 20
7.574600
 11
5.823400
 21
7.210280
 12
5.098720
 22
7.572840
 13
5.754760
 23
7.208520
  0
POLYLINE
  8
0
  6
CONTINUOUS
 66
     1
 40
0.000000
 41
0.000000
  0
VERTEX
  8
0
  6
CONTINUOUS
 10
5.167360
 20
7.574600
  0
VERTEX
  8
0
  6
CONTINUOUS
 10
5.823400
 20
7.210280
  0
VERTEX
  8
0
  6
CONTINUOUS
 10
5.754760
 20
7.208520
  0
VERTEX
  8
0
  6
CONTINUOUS
 10
5.098720
 20
7.572840
  0
VERTEX
  8
0
  6
CONTINUOUS
 10
5.167360
 20
7.574600
  0
SEQEND
  8
0
  0
SOLID
  8
0
 62
    15
 10
5.098720
 20
7.572840
 11
5.754760
 21
7.208520
 12
5.014680
 22
7.560520
 13
5.670720
 23
7.196200
  0
POLYLINE
  8
0
  6
CONTINUOUS
 66
     1
 40
0.000000
 41
0.000000
  0
VERTEX
  8
0
  6
CONTINUOUS
 10
5.098720
 20
7.572840
  0
VERTEX
  8
0
  6
CONTINUOUS
 10
5.754760
 20
7.208520
  0
VERTEX
  8
0
  6
CONTINUOUS
 10
5.670720
 20
7.196200
  0
VERTEX
  8
0
  6
CONTINUOUS
 10
5.014680
 20
7.560520
  0
VERTEX
  8
0
  6
CONTINUOUS
 10
5.098720
 20
7.572840
  0
SEQEND
  8
0
  0
SOLID
  8
0
 62
    15
 10
5.014680
 20
7.560520
 11
5.670720
 21
7.196200
 12
4.920520
 22
7.534120
 13
5.576560
 23
7.169800
  0
POLYLINE
  8
0
  6
CONTINUOUS
 66
     1
 40
0.000000
 41
0.000000
  0
VERTEX
  8
0
  6
CONTINUOUS
 10
5.014680
 20
7.560520
  0
VERTEX
  8
0
  6
CONTINUOUS
 10
5.670720
 20
7.196200
  0
VERTEX
  8
0
  6
CONTINUOUS
 10
5.576560
 20
7.169800
  0
VERTEX
  8
0
  6
CONTINUOUS
 10
4.920520
 20
7.534120
  0
VERTEX
  8
0
  6
CONTINUOUS
 10
5.014680
 20
7.560520
  0
SEQEND
  8
0
  0
SOLID
  8
0
 62
    15
 10
4.920520
 20
7.534120
 11
5.576560
 21
7.169800
 12
4.822840
 22
7.488800
 13
5.478880
 23
7.124480
  0
POLYLINE
  8
0
  6
CONTINUOUS
 66
     1
 40
0.000000
 41
0.000000
  0
VERTEX
  8
0
  6
CONTINUOUS
 10
4.920520
 20
7.534120
  0
VERTEX
  8
0
  6
CONTINUOUS
 10
5.576560
 20
7.169800
  0
VERTEX
  8
0
  6
CONTINUOUS
 10
5.478880
 20
7.124480
  0
VERTEX
  8
0
  6
CONTINUOUS
 10
4.822840
 20
7.488800
  0
VERTEX
  8
0
  6
CONTINUOUS
 10
4.920520
 20
7.534120
  0
SEQEND
  8
0
  0
SOLID
  8
0
 62
    15
 10
4.822840
 20
7.488800
 11
5.478880
 21
7.124480
 12
4.727360
 22
7.421040
 13
5.383400
 23
7.056720
  0
POLYLINE
  8
0
  6
CONTINUOUS
 66
     1
 40
0.000000
 41
0.000000
  0
VERTEX
  8
0
  6
CONTINUOUS
 10
4.822840
 20
7.488800
  0
VERTEX
  8
0
  6
CONTINUOUS
 10
5.478880
 20
7.124480
  0
VERTEX
  8
0
  6
CONTINUOUS
 10
5.383400
 20
7.056720
  0
VERTEX
  8
0
  6
CONTINUOUS
 10
4.727360
 20
7.421040
  0
VERTEX
  8
0
  6
CONTINUOUS
 10
4.822840
 20
7.488800
  0
SEQEND
  8
0
  0
SOLID
  8
0
 62
    15
 10
4.727360
 20
7.421040
 11
5.383400
 21
7.056720
 12
4.639800
 22
7.326000
 13
5.295840
 23
6.961680
  0
POLYLINE
  8
0
  6
CONTINUOUS
 66
     1
 40
0.000000
 41
0.000000
  0
VERTEX
  8
0
  6
CONTINUOUS
 10
4.727360
 20
7.421040
  0
VERTEX
  8
0
  6
CONTINUOUS
 10
5.383400
 20
7.056720
  0
VERTEX
  8
0
  6
CONTINUOUS
 10
5.295840
 20
6.961680
  0
VERTEX
  8
0
  6
CONTINUOUS
 10
4.639800
 20
7.326000
  0
VERTEX
  8
0
  6
CONTINUOUS
 10
4.727360
 20
7.421040
  0
SEQEND
  8
0
  0
SOLID
  8
0
 62
    15
 10
4.639800
 20
7.326000
 11
5.295840
 21
6.961680
 12
4.566320
 22
7.200160
 13
5.222360
 23
6.835400
  0
POLYLINE
  8
0
  6
CONTINUOUS
 66
     1
 40
0.000000
 41
0.000000
  0
VERTEX
  8
0
  6
CONTINUOUS
 10
4.639800
 20
7.326000
  0
VERTEX
  8
0
  6
CONTINUOUS
 10
5.295840
 20
6.961680
  0
VERTEX
  8
0
  6
CONTINUOUS
 10
5.222360
 20
6.835400
  0
VERTEX
  8
0
  6
CONTINUOUS
 10
4.566320
 20
7.200160
  0
VERTEX
  8
0
  6
CONTINUOUS
 10
4.639800
 20
7.326000
  0
SEQEND
  8
0
  0
SOLID
  8
0
 62
    15
 10
4.566320
 20
7.200160
 11
5.222360
 21
6.835400
 12
4.512640
 22
7.038680
 13
5.168680
 23
6.674360
  0
POLYLINE
  8
0
  6
CONTINUOUS
 66
     1
 40
0.000000
 41
0.000000
  0
VERTEX
  8
0
  6
CONTINUOUS
 10
4.566320
 20
7.200160
  0
VERTEX
  8
0
  6
CONTINUOUS
 10
5.222360
 20
6.835400
  0
VERTEX
  8
0
  6
CONTINUOUS
 10
5.168680
 20
6.674360
  0
VERTEX
  8
0
  6
CONTINUOUS
 10
4.512640
 20
7.038680
  0
VERTEX
  8
0
  6
CONTINUOUS
 10
4.566320
 20
7.200160
  0
SEQEND
  8
0
  0
SOLID
  8
0
 62
    15
 10
4.512640
 20
7.038680
 11
5.168680
 21
6.674360
 12
4.492840
 22
6.954200
 13
5.148880
 23
6.589880
  0
POLYLINE
  8
0
  6
CONTINUOUS
 66
     1
 40
0.000000
 41
0.000000
  0
VERTEX
  8
0
  6
CONTINUOUS
 10
4.512640
 20
7.038680
  0
VERTEX
  8
0
  6
CONTINUOUS
 10
5.168680
 20
6.674360
  0
VERTEX
  8
0
  6
CONTINUOUS
 10
5.148880
 20
6.589880
  0
VERTEX
  8
0
  6
CONTINUOUS
 10
4.492840
 20
6.954200
  0
VERTEX
  8
0
  6
CONTINUOUS
 10
4.512640
 20
7.038680
  0
SEQEND
  8
0
  0
SOLID
  8
0
 62
    15
 10
4.492840
 20
6.954200
 11
5.148880
 21
6.589880
 12
4.460280
 22
6.897440
 13
5.116320
 23
6.533120
  0
POLYLINE
  8
0
  6
CONTINUOUS
 66
     1
 40
0.000000
 41
0.000000
  0
VERTEX
  8
0
  6
CONTINUOUS
 10
4.492840
 20
6.954200
  0
VERTEX
  8
0
  6
CONTINUOUS
 10
5.148880
 20
6.589880
  0
VERTEX
  8
0
  6
CONTINUOUS
 10
5.116320
 20
6.533120
  0
VERTEX
  8
0
  6
CONTINUOUS
 10
4.460280
 20
6.897440
  0
VERTEX
  8
0
  6
CONTINUOUS
 10
4.492840
 20
6.954200
  0
SEQEND
  8
0
  0
SOLID
  8
0
 62
    15
 10
4.460280
 20
6.897440
 11
5.116320
 21
6.533120
 12
4.422880
 22
6.865320
 13
5.078920
 23
6.501000
  0
POLYLINE
  8
0
  6
CONTINUOUS
 66
     1
 40
0.000000
 41
0.000000
  0
VERTEX
  8
0
  6
CONTINUOUS
 10
4.460280
 20
6.897440
  0
VERTEX
  8
0
  6
CONTINUOUS
 10
5.116320
 20
6.533120
  0
VERTEX
  8
0
  6
CONTINUOUS
 10
5.078920
 20
6.501000
  0
VERTEX
  8
0
  6
CONTINUOUS
 10
4.422880
 20
6.865320
  0
VERTEX
  8
0
  6
CONTINUOUS
 10
4.460280
 20
6.897440
  0
SEQEND
  8
0
  0
SOLID
  8
0
 62
    15
 10
4.422880
 20
6.865320
 11
5.078920
 21
6.501000
 12
4.388120
 22
6.856080
 13
5.044160
 23
6.491320
  0
POLYLINE
  8
0
  6
CONTINUOUS
 66
     1
 40
0.000000
 41
0.000000
  0
VERTEX
  8
0
  6
CONTINUOUS
 10
4.422880
 20
6.865320
  0
VERTEX
  8
0
  6
CONTINUOUS
 10
5.078920
 20
6.501000
  0
VERTEX
  8
0
  6
CONTINUOUS
 10
5.044160
 20
6.491320
  0
VERTEX
  8
0
  6
CONTINUOUS
 10
4.388120
 20
6.856080
  0
VERTEX
  8
0
  6
CONTINUOUS
 10
4.422880
 20
6.865320
  0
SEQEND
  8
0
  0
SOLID
  8
0
 62
    15
 10
4.388120
 20
6.856080
 11
5.044160
 21
6.491320
 12
4.341480
 22
6.845520
 13
4.997520
 23
6.481200
  0
POLYLINE
  8
0
  6
CONTINUOUS
 66
     1
 40
0.000000
 41
0.000000
  0
VERTEX
  8
0
  6
CONTINUOUS
 10
4.388120
 20
6.856080
  0
VERTEX
  8
0
  6
CONTINUOUS
 10
5.044160
 20
6.491320
  0
VERTEX
  8
0
  6
CONTINUOUS
 10
4.997520
 20
6.481200
  0
VERTEX
  8
0
  6
CONTINUOUS
 10
4.341480
 20
6.845520
  0
VERTEX
  8
0
  6
CONTINUOUS
 10
4.388120
 20
6.856080
  0
SEQEND
  8
0
  0
SOLID
  8
0
 62
    15
 10
4.341480
 20
6.845520
 11
4.997520
 21
6.481200
 12
4.325640
 22
6.828360
 13
4.981680
 23
6.464040
  0
POLYLINE
  8
0
  6
CONTINUOUS
 66
     1
 40
0.000000
 41
0.000000
  0
VERTEX
  8
0
  6
CONTINUOUS
 10
4.341480
 20
6.845520
  0
VERTEX
  8
0
  6
CONTINUOUS
 10
4.997520
 20
6.481200
  0
VERTEX
  8
0
  6
CONTINUOUS
 10
4.981680
 20
6.464040
  0
VERTEX
  8
0
  6
CONTINUOUS
 10
4.325640
 20
6.828360
  0
VERTEX
  8
0
  6
CONTINUOUS
 10
4.341480
 20
6.845520
  0
SEQEND
  8
0
  0
SOLID
  8
0
 62
    15
 10
4.325640
 20
6.828360
 11
4.981680
 21
6.464040
 12
4.323880
 22
6.812080
 13
4.979920
 23
6.447760
  0
POLYLINE
  8
0
  6
CONTINUOUS
 66
     1
 40
0.000000
 41
0.000000
  0
VERTEX
  8
0
  6
CONTINUOUS
 10
4.325640
 20
6.828360
  0
VERTEX
  8
0
  6
CONTINUOUS
 10
4.981680
 20
6.464040
  0
VERTEX
  8
0
  6
CONTINUOUS
 10
4.979920
 20
6.447760
  0
VERTEX
  8
0
  6
CONTINUOUS
 10
4.323880
 20
6.812080
  0
VERTEX
  8
0
  6
CONTINUOUS
 10
4.325640
 20
6.828360
  0
SEQEND
  8
0
  0
SOLID
  8
0
 62
    15
 10
4.323880
 20
6.812080
 11
4.979920
 21
6.447760
 12
4.320800
 22
6.792720
 13
4.976840
 23
6.427960
  0
POLYLINE
  8
0
  6
CONTINUOUS
 66
     1
 40
0.000000
 41
0.000000
  0
VERTEX
  8
0
  6
CONTINUOUS
 10
4.323880
 20
6.812080
  0
VERTEX
  8
0
  6
CONTINUOUS
 10
4.979920
 20
6.447760
  0
VERTEX
  8
0
  6
CONTINUOUS
 10
4.976840
 20
6.427960
  0
VERTEX
  8
0
  6
CONTINUOUS
 10
4.320800
 20
6.792720
  0
VERTEX
  8
0
  6
CONTINUOUS
 10
4.323880
 20
6.812080
  0
SEQEND
  8
0
  0
SOLID
  8
0
 62
    15
 10
4.320800
 20
6.792720
 11
4.976840
 21
6.427960
 12
4.305400
 22
6.748720
 13
4.961440
 23
6.383960
  0
POLYLINE
  8
0
  6
CONTINUOUS
 66
     1
 40
0.000000
 41
0.000000
  0
VERTEX
  8
0
  6
CONTINUOUS
 10
4.320800
 20
6.792720
  0
VERTEX
  8
0
  6
CONTINUOUS
 10
4.976840
 20
6.427960
  0
VERTEX
  8
0
  6
CONTINUOUS
 10
4.961440
 20
6.383960
  0
VERTEX
  8
0
  6
CONTINUOUS
 10
4.305400
 20
6.748720
  0
VERTEX
  8
0
  6
CONTINUOUS
 10
4.320800
 20
6.792720
  0
SEQEND
  8
0
  0
SOLID
  8
0
 62
    15
 10
5.775880
 20
8.240760
 11
6.431920
 21
7.876440
 12
5.768840
 22
7.931440
 13
6.424880
 23
7.567120
  0
POLYLINE
  8
0
  6
CONTINUOUS
 66
     1
 40
0.000000
 41
0.000000
  0
VERTEX
  8
0
  6
CONTINUOUS
 10
5.775880
 20
8.240760
  0
VERTEX
  8
0
  6
CONTINUOUS
 10
6.431920
 20
7.876440
  0
VERTEX
  8
0
  6
CONTINUOUS
 10
6.424880
 20
7.567120
  0
VERTEX
  8
0
  6
CONTINUOUS
 10
5.768840
 20
7.931440
  0
VERTEX
  8
0
  6
CONTINUOUS
 10
5.775880
 20
8.240760
  0
SEQEND
  8
0
  0
SOLID
  8
0
 62
    15
 10
4.268000
 20
6.704720
 11
4.924040
 21
6.340400
 12
4.198040
 22
6.669080
 13
4.854080
 23
6.304760
  0
POLYLINE
  8
0
  6
CONTINUOUS
 66
     1
 40
0.000000
 41
0.000000
  0
VERTEX
  8
0
  6
CONTINUOUS
 10
4.268000
 20
6.704720
  0
VERTEX
  8
0
  6
CONTINUOUS
 10
4.924040
 20
6.340400
  0
VERTEX
  8
0
  6
CONTINUOUS
 10
4.854080
 20
6.304760
  0
VERTEX
  8
0
  6
CONTINUOUS
 10
4.198040
 20
6.669080
  0
VERTEX
  8
0
  6
CONTINUOUS
 10
4.268000
 20
6.704720
  0
SEQEND
  8
0
  0
SOLID
  8
0
 62
    15
 10
4.198040
 20
6.669080
 11
4.854080
 21
6.304760
 12
4.118400
 22
6.626840
 13
4.774440
 23
6.262520
  0
POLYLINE
  8
0
  6
CONTINUOUS
 66
     1
 40
0.000000
 41
0.000000
  0
VERTEX
  8
0
  6
CONTINUOUS
 10
4.198040
 20
6.669080
  0
VERTEX
  8
0
  6
CONTINUOUS
 10
4.854080
 20
6.304760
  0
VERTEX
  8
0
  6
CONTINUOUS
 10
4.774440
 20
6.262520
  0
VERTEX
  8
0
  6
CONTINUOUS
 10
4.118400
 20
6.626840
  0
VERTEX
  8
0
  6
CONTINUOUS
 10
4.198040
 20
6.669080
  0
SEQEND
  8
0
  0
SOLID
  8
0
 62
    15
 10
4.118400
 20
6.626840
 11
4.774440
 21
6.262520
 12
4.057240
 22
6.565680
 13
4.713280
 23
6.200920
  0
POLYLINE
  8
0
  6
CONTINUOUS
 66
     1
 40
0.000000
 41
0.000000
  0
VERTEX
  8
0
  6
CONTINUOUS
 10
4.118400
 20
6.626840
  0
VERTEX
  8
0
  6
CONTINUOUS
 10
4.774440
 20
6.262520
  0
VERTEX
  8
0
  6
CONTINUOUS
 10
4.713280
 20
6.200920
  0
VERTEX
  8
0
  6
CONTINUOUS
 10
4.057240
 20
6.565680
  0
VERTEX
  8
0
  6
CONTINUOUS
 10
4.118400
 20
6.626840
  0
SEQEND
  8
0
  0
SOLID
  8
0
 62
    15
 10
4.057240
 20
6.565680
 11
4.713280
 21
6.200920
 12
3.981560
 22
6.439400
 13
4.637600
 23
6.075080
  0
POLYLINE
  8
0
  6
CONTINUOUS
 66
     1
 40
0.000000
 41
0.000000
  0
VERTEX
  8
0
  6
CONTINUOUS
 10
4.057240
 20
6.565680
  0
VERTEX
  8
0
  6
CONTINUOUS
 10
4.713280
 20
6.200920
  0
VERTEX
  8
0
  6
CONTINUOUS
 10
4.637600
 20
6.075080
  0
VERTEX
  8
0
  6
CONTINUOUS
 10
3.981560
 20
6.439400
  0
VERTEX
  8
0
  6
CONTINUOUS
 10
4.057240
 20
6.565680
  0
SEQEND
  8
0
  0
SOLID
  8
0
 62
    15
 10
3.981560
 20
6.439400
 11
4.637600
 21
6.075080
 12
3.970120
 22
6.415200
 13
4.626160
 23
6.050880
  0
POLYLINE
  8
0
  6
CONTINUOUS
 66
     1
 40
0.000000
 41
0.000000
  0
VERTEX
  8
0
  6
CONTINUOUS
 10
3.981560
 20
6.439400
  0
VERTEX
  8
0
  6
CONTINUOUS
 10
4.637600
 20
6.075080
  0
VERTEX
  8
0
  6
CONTINUOUS
 10
4.626160
 20
6.050880
  0
VERTEX
  8
0
  6
CONTINUOUS
 10
3.970120
 20
6.415200
  0
VERTEX
  8
0
  6
CONTINUOUS
 10
3.981560
 20
6.439400
  0
SEQEND
  8
0
  0
SOLID
  8
0
 62
    15
 10
3.970120
 20
6.415200
 11
4.626160
 21
6.050880
 12
3.960000
 22
6.393640
 13
4.616040
 23
6.029320
  0
POLYLINE
  8
0
  6
CONTINUOUS
 66
     1
 40
0.000000
 41
0.000000
  0
VERTEX
  8
0
  6
CONTINUOUS
 10
3.970120
 20
6.415200
  0
VERTEX
  8
0
  6
CONTINUOUS
 10
4.626160
 20
6.050880
  0
VERTEX
  8
0
  6
CONTINUOUS
 10
4.616040
 20
6.029320
  0
VERTEX
  8
0
  6
CONTINUOUS
 10
3.960000
 20
6.393640
  0
VERTEX
  8
0
  6
CONTINUOUS
 10
3.970120
 20
6.415200
  0
SEQEND
  8
0
  0
SOLID
  8
0
 62
    15
 10
3.960000
 20
6.393640
 11
4.616040
 21
6.029320
 12
3.935360
 22
6.359760
 13
4.591400
 23
5.995440
  0
POLYLINE
  8
0
  6
CONTINUOUS
 66
     1
 40
0.000000
 41
0.000000
  0
VERTEX
  8
0
  6
CONTINUOUS
 10
3.960000
 20
6.393640
  0
VERTEX
  8
0
  6
CONTINUOUS
 10
4.616040
 20
6.029320
  0
VERTEX
  8
0
  6
CONTINUOUS
 10
4.591400
 20
5.995440
  0
VERTEX
  8
0
  6
CONTINUOUS
 10
3.935360
 20
6.359760
  0
VERTEX
  8
0
  6
CONTINUOUS
 10
3.960000
 20
6.393640
  0
SEQEND
  8
0
  0
SOLID
  8
0
 62
    15
 10
3.935360
 20
6.359760
 11
4.591400
 21
5.995440
 12
3.893120
 22
6.339080
 13
4.549160
 23
5.974760
  0
POLYLINE
  8
0
  6
CONTINUOUS
 66
     1
 40
0.000000
 41
0.000000
  0
VERTEX
  8
0
  6
CONTINUOUS
 10
3.935360
 20
6.359760
  0
VERTEX
  8
0
  6
CONTINUOUS
 10
4.591400
 20
5.995440
  0
VERTEX
  8
0
  6
CONTINUOUS
 10
4.549160
 20
5.974760
  0
VERTEX
  8
0
  6
CONTINUOUS
 10
3.893120
 20
6.339080
  0
VERTEX
  8
0
  6
CONTINUOUS
 10
3.935360
 20
6.359760
  0
SEQEND
  8
0
  0
SOLID
  8
0
 62
    15
 10
3.893120
 20
6.339080
 11
4.549160
 21
5.974760
 12
3.818760
 22
6.334680
 13
4.474800
 23
5.970360
  0
POLYLINE
  8
0
  6
CONTINUOUS
 66
     1
 40
0.000000
 41
0.000000
  0
VERTEX
  8
0
  6
CONTINUOUS
 10
3.893120
 20
6.339080
  0
VERTEX
  8
0
  6
CONTINUOUS
 10
4.549160
 20
5.974760
  0
VERTEX
  8
0
  6
CONTINUOUS
 10
4.474800
 20
5.970360
  0
VERTEX
  8
0
  6
CONTINUOUS
 10
3.818760
 20
6.334680
  0
VERTEX
  8
0
  6
CONTINUOUS
 10
3.893120
 20
6.339080
  0
SEQEND
  8
0
  0
SOLID
  8
0
 62
    15
 10
3.818760
 20
6.334680
 11
4.474800
 21
5.970360
 12
3.851760
 22
6.054840
 13
4.507800
 23
5.690520
  0
POLYLINE
  8
0
  6
CONTINUOUS
 66
     1
 40
0.000000
 41
0.000000
  0
VERTEX
  8
0
  6
CONTINUOUS
 10
3.818760
 20
6.334680
  0
VERTEX
  8
0
  6
CONTINUOUS
 10
4.474800
 20
5.970360
  0
VERTEX
  8
0
  6
CONTINUOUS
 10
4.507800
 20
5.690520
  0
VERTEX
  8
0
  6
CONTINUOUS
 10
3.851760
 20
6.054840
  0
VERTEX
  8
0
  6
CONTINUOUS
 10
3.818760
 20
6.334680
  0
SEQEND
  8
0
  0
SOLID
  8
0
 62
    15
 10
3.851760
 20
6.054840
 11
4.507800
 21
5.690520
 12
3.840760
 22
6.005560
 13
4.496800
 23
5.641240
  0
POLYLINE
  8
0
  6
CONTINUOUS
 66
     1
 40
0.000000
 41
0.000000
  0
VERTEX
  8
0
  6
CONTINUOUS
 10
3.851760
 20
6.054840
  0
VERTEX
  8
0
  6
CONTINUOUS
 10
4.507800
 20
5.690520
  0
VERTEX
  8
0
  6
CONTINUOUS
 10
4.496800
 20
5.641240
  0
VERTEX
  8
0
  6
CONTINUOUS
 10
3.840760
 20
6.005560
  0
VERTEX
  8
0
  6
CONTINUOUS
 10
3.851760
 20
6.054840
  0
SEQEND
  8
0
  0
SOLID
  8
0
 62
    15
 10
3.840760
 20
6.005560
 11
4.496800
 21
5.641240
 12
3.797640
 22
5.991040
 13
4.453680
 23
5.626720
  0
POLYLINE
  8
0
  6
CONTINUOUS
 66
     1
 40
0.000000
 41
0.000000
  0
VERTEX
  8
0
  6
CONTINUOUS
 10
3.840760
 20
6.005560
  0
VERTEX
  8
0
  6
CONTINUOUS
 10
4.496800
 20
5.641240
  0
VERTEX
  8
0
  6
CONTINUOUS
 10
4.453680
 20
5.626720
  0
VERTEX
  8
0
  6
CONTINUOUS
 10
3.797640
 20
5.991040
  0
VERTEX
  8
0
  6
CONTINUOUS
 10
3.840760
 20
6.005560
  0
SEQEND
  8
0
  0
SOLID
  8
0
 62
    15
 10
3.797640
 20
5.991040
 11
4.453680
 21
5.626720
 12
3.527920
 22
6.015680
 13
4.183960
 23
5.651360
  0
POLYLINE
  8
0
  6
CONTINUOUS
 66
     1
 40
0.000000
 41
0.000000
  0
VERTEX
  8
0
  6
CONTINUOUS
 10
3.797640
 20
5.991040
  0
VERTEX
  8
0
  6
CONTINUOUS
 10
4.453680
 20
5.626720
  0
VERTEX
  8
0
  6
CONTINUOUS
 10
4.183960
 20
5.651360
  0
VERTEX
  8
0
  6
CONTINUOUS
 10
3.527920
 20
6.015680
  0
VERTEX
  8
0
  6
CONTINUOUS
 10
3.797640
 20
5.991040
  0
SEQEND
  8
0
  0
SOLID
  8
0
 62
    15
 10
3.527920
 20
6.015680
 11
4.183960
 21
5.651360
 12
3.521760
 22
6.009960
 13
4.177800
 23
5.645640
  0
POLYLINE
  8
0
  6
CONTINUOUS
 66
     1
 40
0.000000
 41
0.000000
  0
VERTEX
  8
0
  6
CONTINUOUS
 10
3.527920
 20
6.015680
  0
VERTEX
  8
0
  6
CONTINUOUS
 10
4.183960
 20
5.651360
  0
VERTEX
  8
0
  6
CONTINUOUS
 10
4.177800
 20
5.645640
  0
VERTEX
  8
0
  6
CONTINUOUS
 10
3.521760
 20
6.009960
  0
VERTEX
  8
0
  6
CONTINUOUS
 10
3.527920
 20
6.015680
  0
SEQEND
  8
0
  0
SOLID
  8
0
 62
    15
 10
3.521760
 20
6.009960
 11
4.177800
 21
5.645640
 12
3.496680
 22
5.847600
 13
4.152720
 23
5.483280
  0
POLYLINE
  8
0
  6
CONTINUOUS
 66
     1
 40
0.000000
 41
0.000000
  0
VERTEX
  8
0
  6
CONTINUOUS
 10
3.521760
 20
6.009960
  0
VERTEX
  8
0
  6
CONTINUOUS
 10
4.177800
 20
5.645640
  0
VERTEX
  8
0
  6
CONTINUOUS
 10
4.152720
 20
5.483280
  0
VERTEX
  8
0
  6
CONTINUOUS
 10
3.496680
 20
5.847600
  0
VERTEX
  8
0
  6
CONTINUOUS
 10
3.521760
 20
6.009960
  0
SEQEND
  8
0
  0
SOLID
  8
0
 62
    15
 10
3.496680
 20
5.847600
 11
4.152720
 21
5.483280
 12
3.455760
 22
5.714720
 13
4.111800
 23
5.350400
  0
POLYLINE
  8
0
  6
CONTINUOUS
 66
     1
 40
0.000000
 41
0.000000
  0
VERTEX
  8
0
  6
CONTINUOUS
 10
3.496680
 20
5.847600
  0
VERTEX
  8
0
  6
CONTINUOUS
 10
4.152720
 20
5.483280
  0
VERTEX
  8
0
  6
CONTINUOUS
 10
4.111800
 20
5.350400
  0
VERTEX
  8
0
  6
CONTINUOUS
 10
3.455760
 20
5.714720
  0
VERTEX
  8
0
  6
CONTINUOUS
 10
3.496680
 20
5.847600
  0
SEQEND
  8
0
  0
SOLID
  8
0
 62
    15
 10
3.455760
 20
5.714720
 11
4.111800
 21
5.350400
 12
3.400320
 22
5.607800
 13
4.056360
 23
5.243480
  0
POLYLINE
  8
0
  6
CONTINUOUS
 66
     1
 40
0.000000
 41
0.000000
  0
VERTEX
  8
0
  6
CONTINUOUS
 10
3.455760
 20
5.714720
  0
VERTEX
  8
0
  6
CONTINUOUS
 10
4.111800
 20
5.350400
  0
VERTEX
  8
0
  6
CONTINUOUS
 10
4.056360
 20
5.243480
  0
VERTEX
  8
0
  6
CONTINUOUS
 10
3.400320
 20
5.607800
  0
VERTEX
  8
0
  6
CONTINUOUS
 10
3.455760
 20
5.714720
  0
SEQEND
  8
0
  0
SOLID
  8
0
 62
    15
 10
3.400320
 20
5.607800
 11
4.056360
 21
5.243480
 12
3.331680
 22
5.522880
 13
3.987720
 23
5.158560
  0
POLYLINE
  8
0
  6
CONTINUOUS
 66
     1
 40
0.000000
 41
0.000000
  0
VERTEX
  8
0
  6
CONTINUOUS
 10
3.400320
 20
5.607800
  0
VERTEX
  8
0
  6
CONTINUOUS
 10
4.056360
 20
5.243480
  0
VERTEX
  8
0
  6
CONTINUOUS
 10
3.987720
 20
5.158560
  0
VERTEX
  8
0
  6
CONTINUOUS
 10
3.331680
 20
5.522880
  0
VERTEX
  8
0
  6
CONTINUOUS
 10
3.400320
 20
5.607800
  0
SEQEND
  8
0
  0
SOLID
  8
0
 62
    15
 10
3.331680
 20
5.522880
 11
3.987720
 21
5.158560
 12
3.252040
 22
5.457320
 13
3.908080
 23
5.093000
  0
POLYLINE
  8
0
  6
CONTINUOUS
 66
     1
 40
0.000000
 41
0.000000
  0
VERTEX
  8
0
  6
CONTINUOUS
 10
3.331680
 20
5.522880
  0
VERTEX
  8
0
  6
CONTINUOUS
 10
3.987720
 20
5.158560
  0
VERTEX
  8
0
  6
CONTINUOUS
 10
3.908080
 20
5.093000
  0
VERTEX
  8
0
  6
CONTINUOUS
 10
3.252040
 20
5.457320
  0
VERTEX
  8
0
  6
CONTINUOUS
 10
3.331680
 20
5.522880
  0
SEQEND
  8
0
  0
SOLID
  8
0
 62
    15
 10
3.252040
 20
5.457320
 11
3.908080
 21
5.093000
 12
3.161840
 22
5.406280
 13
3.817880
 23
5.041960
  0
POLYLINE
  8
0
  6
CONTINUOUS
 66
     1
 40
0.000000
 41
0.000000
  0
VERTEX
  8
0
  6
CONTINUOUS
 10
3.252040
 20
5.457320
  0
VERTEX
  8
0
  6
CONTINUOUS
 10
3.908080
 20
5.093000
  0
VERTEX
  8
0
  6
CONTINUOUS
 10
3.817880
 20
5.041960
  0
VERTEX
  8
0
  6
CONTINUOUS
 10
3.161840
 20
5.406280
  0
VERTEX
  8
0
  6
CONTINUOUS
 10
3.252040
 20
5.457320
  0
SEQEND
  8
0
  0
SOLID
  8
0
 62
    15
 10
3.161840
 20
5.406280
 11
3.817880
 21
5.041960
 12
2.957680
 22
5.335440
 13
3.613720
 23
4.971120
  0
POLYLINE
  8
0
  6
CONTINUOUS
 66
     1
 40
0.000000
 41
0.000000
  0
VERTEX
  8
0
  6
CONTINUOUS
 10
3.161840
 20
5.406280
  0
VERTEX
  8
0
  6
CONTINUOUS
 10
3.817880
 20
5.041960
  0
VERTEX
  8
0
  6
CONTINUOUS
 10
3.613720
 20
4.971120
  0
VERTEX
  8
0
  6
CONTINUOUS
 10
2.957680
 20
5.335440
  0
VERTEX
  8
0
  6
CONTINUOUS
 10
3.161840
 20
5.406280
  0
SEQEND
  8
0
  0
SOLID
  8
0
 62
    15
 10
2.957680
 20
5.335440
 11
3.613720
 21
4.971120
 12
2.852520
 22
5.296280
 13
3.508560
 23
4.931520
  0
POLYLINE
  8
0
  6
CONTINUOUS
 66
     1
 40
0.000000
 41
0.000000
  0
VERTEX
  8
0
  6
CONTINUOUS
 10
2.957680
 20
5.335440
  0
VERTEX
  8
0
  6
CONTINUOUS
 10
3.613720
 20
4.971120
  0
VERTEX
  8
0
  6
CONTINUOUS
 10
3.508560
 20
4.931520
  0
VERTEX
  8
0
  6
CONTINUOUS
 10
2.852520
 20
5.296280
  0
VERTEX
  8
0
  6
CONTINUOUS
 10
2.957680
 20
5.335440
  0
SEQEND
  8
0
  0
SOLID
  8
0
 62
    15
 10
2.852520
 20
5.296280
 11
3.508560
 21
4.931520
 12
2.756600
 22
5.236880
 13
3.412640
 23
4.872560
  0
POLYLINE
  8
0
  6
CONTINUOUS
 66
     1
 40
0.000000
 41
0.000000
  0
VERTEX
  8
0
  6
CONTINUOUS
 10
2.852520
 20
5.296280
  0
VERTEX
  8
0
  6
CONTINUOUS
 10
3.508560
 20
4.931520
  0
VERTEX
  8
0
  6
CONTINUOUS
 10
3.412640
 20
4.872560
  0
VERTEX
  8
0
  6
CONTINUOUS
 10
2.756600
 20
5.236880
  0
VERTEX
  8
0
  6
CONTINUOUS
 10
2.852520
 20
5.296280
  0
SEQEND
  8
0
  0
SOLID
  8
0
 62
    15
 10
2.756600
 20
5.236880
 11
3.412640
 21
4.872560
 12
2.670360
 22
5.161640
 13
3.326400
 23
4.797320
  0
POLYLINE
  8
0
  6
CONTINUOUS
 66
     1
 40
0.000000
 41
0.000000
  0
VERTEX
  8
0
  6
CONTINUOUS
 10
2.756600
 20
5.236880
  0
VERTEX
  8
0
  6
CONTINUOUS
 10
3.412640
 20
4.872560
  0
VERTEX
  8
0
  6
CONTINUOUS
 10
3.326400
 20
4.797320
  0
VERTEX
  8
0
  6
CONTINUOUS
 10
2.670360
 20
5.161640
  0
VERTEX
  8
0
  6
CONTINUOUS
 10
2.756600
 20
5.236880
  0
SEQEND
  8
0
  0
SOLID
  8
0
 62
    15
 10
2.670360
 20
5.161640
 11
3.326400
 21
4.797320
 12
2.596440
 22
5.072760
 13
3.252480
 23
4.708000
  0
POLYLINE
  8
0
  6
CONTINUOUS
 66
     1
 40
0.000000
 41
0.000000
  0
VERTEX
  8
0
  6
CONTINUOUS
 10
2.670360
 20
5.161640
  0
VERTEX
  8
0
  6
CONTINUOUS
 10
3.326400
 20
4.797320
  0
VERTEX
  8
0
  6
CONTINUOUS
 10
3.252480
 20
4.708000
  0
VERTEX
  8
0
  6
CONTINUOUS
 10
2.596440
 20
5.072760
  0
VERTEX
  8
0
  6
CONTINUOUS
 10
2.670360
 20
5.161640
  0
SEQEND
  8
0
  0
SOLID
  8
0
 62
    15
 10
2.596440
 20
5.072760
 11
3.252480
 21
4.708000
 12
2.536600
 22
4.973320
 13
3.192640
 23
4.608560
  0
POLYLINE
  8
0
  6
CONTINUOUS
 66
     1
 40
0.000000
 41
0.000000
  0
VERTEX
  8
0
  6
CONTINUOUS
 10
2.596440
 20
5.072760
  0
VERTEX
  8
0
  6
CONTINUOUS
 10
3.252480
 20
4.708000
  0
VERTEX
  8
0
  6
CONTINUOUS
 10
3.192640
 20
4.608560
  0
VERTEX
  8
0
  6
CONTINUOUS
 10
2.536600
 20
4.973320
  0
VERTEX
  8
0
  6
CONTINUOUS
 10
2.596440
 20
5.072760
  0
SEQEND
  8
0
  0
SOLID
  8
0
 62
    15
 10
2.536600
 20
4.973320
 11
3.192640
 21
4.608560
 12
2.491720
 22
4.865960
 13
3.147760
 23
4.501640
  0
POLYLINE
  8
0
  6
CONTINUOUS
 66
     1
 40
0.000000
 41
0.000000
  0
VERTEX
  8
0
  6
CONTINUOUS
 10
2.536600
 20
4.973320
  0
VERTEX
  8
0
  6
CONTINUOUS
 10
3.192640
 20
4.608560
  0
VERTEX
  8
0
  6
CONTINUOUS
 10
3.147760
 20
4.501640
  0
VERTEX
  8
0
  6
CONTINUOUS
 10
2.491720
 20
4.865960
  0
VERTEX
  8
0
  6
CONTINUOUS
 10
2.536600
 20
4.973320
  0
SEQEND
  8
0
  0
SOLID
  8
0
 62
    15
 10
2.491720
 20
4.865960
 11
3.147760
 21
4.501640
 12
2.464440
 22
4.754640
 13
3.120480
 23
4.390320
  0
POLYLINE
  8
0
  6
CONTINUOUS
 66
     1
 40
0.000000
 41
0.000000
  0
VERTEX
  8
0
  6
CONTINUOUS
 10
2.491720
 20
4.865960
  0
VERTEX
  8
0
  6
CONTINUOUS
 10
3.147760
 20
4.501640
  0
VERTEX
  8
0
  6
CONTINUOUS
 10
3.120480
 20
4.390320
  0
VERTEX
  8
0
  6
CONTINUOUS
 10
2.464440
 20
4.754640
  0
VERTEX
  8
0
  6
CONTINUOUS
 10
2.491720
 20
4.865960
  0
SEQEND
  8
0
  0
SOLID
  8
0
 62
    15
 10
2.464440
 20
4.754640
 11
3.120480
 21
4.390320
 12
2.455640
 22
4.641560
 13
3.111680
 23
4.277240
  0
POLYLINE
  8
0
  6
CONTINUOUS
 66
     1
 40
0.000000
 41
0.000000
  0
VERTEX
  8
0
  6
CONTINUOUS
 10
2.464440
 20
4.754640
  0
VERTEX
  8
0
  6
CONTINUOUS
 10
3.120480
 20
4.390320
  0
VERTEX
  8
0
  6
CONTINUOUS
 10
3.111680
 20
4.277240
  0
VERTEX
  8
0
  6
CONTINUOUS
 10
2.455640
 20
4.641560
  0
VERTEX
  8
0
  6
CONTINUOUS
 10
2.464440
 20
4.754640
  0
SEQEND
  8
0
  0
SOLID
  8
0
 62
    15
 10
2.455640
 20
4.641560
 11
3.111680
 21
4.277240
 12
2.064920
 22
4.598880
 13
2.720960
 23
4.234560
  0
POLYLINE
  8
0
  6
CONTINUOUS
 66
     1
 40
0.000000
 41
0.000000
  0
VERTEX
  8
0
  6
CONTINUOUS
 10
2.455640
 20
4.641560
  0
VERTEX
  8
0
  6
CONTINUOUS
 10
3.111680
 20
4.277240
  0
VERTEX
  8
0
  6
CONTINUOUS
 10
2.720960
 20
4.234560
  0
VERTEX
  8
0
  6
CONTINUOUS
 10
2.064920
 20
4.598880
  0
VERTEX
  8
0
  6
CONTINUOUS
 10
2.455640
 20
4.641560
  0
SEQEND
  8
0
  0
POLYLINE
  8
0
  6
CONTINUOUS
 66
     1
 40
0.000000
 41
0.000000
  0
VERTEX
  8
0
  6
CONTINUOUS
 10
2.065800
 20
5.318720
  0
VERTEX
  8
0
  6
CONTINUOUS
 10
5.032720
 20
8.244720
  0
VERTEX
  8
0
  6
CONTINUOUS
 10
5.775880
 20
8.240760
  0
VERTEX
  8
0
  6
CONTINUOUS
 10
5.768840
 20
7.931440
  0
VERTEX
  8
0
  6
CONTINUOUS
 10
5.750360
 20
7.890080
  0
VERTEX
  8
0
  6
CONTINUOUS
 10
5.698880
 20
7.857960
  0
VERTEX
  8
0
  6
CONTINUOUS
 10
5.593280
 20
7.832440
  0
VERTEX
  8
0
  6
CONTINUOUS
 10
5.479760
 20
7.784040
  0
VERTEX
  8
0
  6
CONTINUOUS
 10
5.395720
 20
7.712760
  0
VERTEX
  8
0
  6
CONTINUOUS
 10
5.349080
 20
7.689000
  0
VERTEX
  8
0
  6
CONTINUOUS
 10
5.294520
 20
7.692080
  0
VERTEX
  8
0
  6
CONTINUOUS
 10
5.282200
 20
7.679320
  0
VERTEX
  8
0
  6
CONTINUOUS
 10
5.289680
 20
7.659960
  0
VERTEX
  8
0
  6
CONTINUOUS
 10
5.286600
 20
7.623000
  0
VERTEX
  8
0
  6
CONTINUOUS
 10
5.252280
 20
7.588240
  0
VERTEX
  8
0
  6
CONTINUOUS
 10
5.217520
 20
7.577680
  0
VERTEX
  8
0
  6
CONTINUOUS
 10
5.167360
 20
7.574600
  0
VERTEX
  8
0
  6
CONTINUOUS
 10
5.098720
 20
7.572840
  0
VERTEX
  8
0
  6
CONTINUOUS
 10
5.014680
 20
7.560520
  0
VERTEX
  8
0
  6
CONTINUOUS
 10
4.920520
 20
7.534120
  0
VERTEX
  8
0
  6
CONTINUOUS
 10
4.822840
 20
7.488800
  0
VERTEX
  8
0
  6
CONTINUOUS
 10
4.727360
 20
7.421040
  0
VERTEX
  8
0
  6
CONTINUOUS
 10
4.639800
 20
7.326000
  0
VERTEX
  8
0
  6
CONTINUOUS
 10
4.566320
 20
7.200160
  0
VERTEX
  8
0
  6
CONTINUOUS
 10
4.512640
 20
7.038680
  0
VERTEX
  8
0
  6
CONTINUOUS
 10
4.492840
 20
6.954200
  0
VERTEX
  8
0
  6
CONTINUOUS
 10
4.460280
 20
6.897440
  0
VERTEX
  8
0
  6
CONTINUOUS
 10
4.422880
 20
6.865320
  0
VERTEX
  8
0
  6
CONTINUOUS
 10
4.341480
 20
6.845520
  0
VERTEX
  8
0
  6
CONTINUOUS
 10
4.325640
 20
6.828360
  0
VERTEX
  8
0
  6
CONTINUOUS
 10
4.320800
 20
6.792720
  0
VERTEX
  8
0
  6
CONTINUOUS
 10
4.305400
 20
6.748720
  0
VERTEX
  8
0
  6
CONTINUOUS
 10
4.268000
 20
6.704720
  0
VERTEX
  8
0
  6
CONTINUOUS
 10
4.118400
 20
6.626840
  0
VERTEX
  8
0
  6
CONTINUOUS
 10
4.057240
 20
6.565680
  0
VERTEX
  8
0
  6
CONTINUOUS
 10
3.981560
 20
6.439400
  0
VERTEX
  8
0
  6
CONTINUOUS
 10
3.960000
 20
6.393640
  0
VERTEX
  8
0
  6
CONTINUOUS
 10
3.935360
 20
6.359760
  0
VERTEX
  8
0
  6
CONTINUOUS
 10
3.893120
 20
6.339080
  0
VERTEX
  8
0
  6
CONTINUOUS
 10
3.818760
 20
6.334680
  0
VERTEX
  8
0
  6
CONTINUOUS
 10
3.851760
 20
6.054840
  0
VERTEX
  8
0
  6
CONTINUOUS
 10
3.840760
 20
6.005560
  0
VERTEX
  8
0
  6
CONTINUOUS
 10
3.797640
 20
5.991040
  0
VERTEX
  8
0
  6
CONTINUOUS
 10
3.527920
 20
6.015680
  0
VERTEX
  8
0
  6
CONTINUOUS
 10
3.521760
 20
6.009960
  0
VERTEX
  8
0
  6
CONTINUOUS
 10
3.496680
 20
5.847600
  0
VERTEX
  8
0
  6
CONTINUOUS
 10
3.455760
 20
5.714720
  0
VERTEX
  8
0
  6
CONTINUOUS
 10
3.400320
 20
5.607800
  0
VERTEX
  8
0
  6
CONTINUOUS
 10
3.331680
 20
5.522880
  0
VERTEX
  8
0
  6
CONTINUOUS
 10
3.252040
 20
5.457320
  0
VERTEX
  8
0
  6
CONTINUOUS
 10
3.161840
 20
5.406280
  0
VERTEX
  8
0
  6
CONTINUOUS
 10
2.957680
 20
5.335440
  0
VERTEX
  8
0
  6
CONTINUOUS
 10
2.852520
 20
5.296280
  0
VERTEX
  8
0
  6
CONTINUOUS
 10
2.756600
 20
5.236880
  0
VERTEX
  8
0
  6
CONTINUOUS
 10
2.670360
 20
5.161640
  0
VERTEX
  8
0
  6
CONTINUOUS
 10
2.596440
 20
5.072760
  0
VERTEX
  8
0
  6
CONTINUOUS
 10
2.536600
 20
4.973320
  0
VERTEX
  8
0
  6
CONTINUOUS
 10
2.491720
 20
4.865960
  0
VERTEX
  8
0
  6
CONTINUOUS
 10
2.464440
 20
4.754640
  0
VERTEX
  8
0
  6
CONTINUOUS
 10
2.455640
 20
4.641560
  0
VERTEX
  8
0
  6
CONTINUOUS
 10
2.064920
 20
4.598880
  0
VERTEX
  8
0
  6
CONTINUOUS
 10
2.065800
 20
5.318720
  0
SEQEND
  8
0
  0
TEXT
  8
0
 10
3.746160
 20
4.505600
 40
0.137970
  1
BA  1324
 41
1.000000
  7
SN0
 71
     0
 72
     5
 11
4.430283
 21
4.505600
  0
TEXT
  8
0
 10
3.590400
 20
4.304080
 40
0.137970
  1
3/4" x 5-3/16"
 41
1.000000
  7
SN0
 71
     0
 72
     5
 11
4.587851
 21
4.304080
  0
TEXT
  8
0
 10
2.955040
 20
9.358800
 40
0.137970
  1
BA  1324
 41
1.000000
  7
SN0
 71
     0
 72
     5
 11
3.639163
 21
9.358800
  0
TEXT
  8
0
 10
2.799280
 20
9.157280
 40
0.137970
  1
3/4" x 5-3/16"
 41
1.000000
  7
SN0
 71
     0
 72
     5
 11
3.796731
 21
9.157280
  0
ENDSEC
  0
EOF
