  0
SECTION
  2
HEADER
  9
$ACADVER
  1
AC1006
  9
$EXTMIN
 10
2.812920
 20
0.678480
  9
$EXTMAX
 10
6.466680
 20
9.631160
  9
$LTSCALE
 40
0.044000
  9
$PDMODE
 70
    35
  9
$PDSIZE
 40
0.035200
  0
ENDSEC
  0
SECTION
  2
TABLES
  0
TABLE
  2
LTYPE
 70
     9
  0
LTYPE
  2
CONTINUOUS
 70
    64
  3
Solid line
 72
    65
 73
     0
 40
0.000000
  0
LTYPE
  2
DASHED
 70
    64
  3
__ __ __ __ __ __ __ __ __ __ __ __ __ __ __
 72
    65
 73
     2
 40
0.000330
 49
0.000220
 49
-0.000110
  0
LTYPE
  2
HIDDEN
 70
    64
  3
 _ _ _ _ _ _ _ _ _ _ _ _ _ _ _ _ _ _ _ _ _ _
 72
    65
 73
     2
 40
0.000165
 49
0.000110
 49
-0.000055
  0
LTYPE
  2
CENTER
 70
    64
  3
____ _ ____ _ ____ _ ____ _ ____ _ ____ _ ____
 72
    65
 73
     4
 40
0.000880
 49
0.000550
 49
-0.000110
 49
0.000110
 49
-0.000110
  0
LTYPE
  2
PHANTOM
 70
    64
  3
_____ _ _ _____ _ _ _____ _ _ _____ _ _ ____
 72
    65
 73
     6
 40
0.001100
 49
0.000550
 49
-0.000110
 49
0.000110
 49
-0.000110
 49
0.000110
 49
-0.000110
  0
LTYPE
  2
DOT
 70
    64
  3
...............................................
 72
    65
 73
     2
 40
0.000110
 49
0.000000
 49
-0.000110
  0
LTYPE
  2
DASHDOT
 70
    64
  3
__ . __ . __ . __ . __ . __ . __ . __ . __ . __
 72
    65
 73
     4
 40
0.000440
 49
0.000220
 49
-0.000110
 49
0.000000
 49
-0.000110
  0
LTYPE
  2
BORDER
 70
    64
  3
__ __ . __ __ . __ __ . __ __ . __ __ . __ __
 72
    65
 73
     6
 40
0.000770
 49
0.000220
 49
-0.000110
 49
0.000220
 49
-0.000110
 49
0.000000
 49
-0.000110
  0
LTYPE
  2
DIVIDE
 70
    64
  3
__ . . __ . . __ . . __ . . __ . . __ . . __
 72
    65
 73
     6
 40
0.000550
 49
0.000220
 49
-0.000110
 49
0.000000
 49
-0.000110
 49
0.000000
 49
-0.000110
  0
LTYPE
  2
DOTDOT
 70
    64
  3
 . .  . .  . .  . .  . .  . . 
 72
    65
 73
     5
 40
0.000242
 49
-0.000110
 49
0.000000
 49
-0.000110
 49
0.000000
 49
-0.000110
  0
ENDTAB
  0
TABLE
  2
STYLE
 70
     2
  0
STYLE
 70
     0
  2
SN0
 40
0.000000
 41
0.000440
 50
0.000000
 71
     0
 42
0.000000
  3
ROMAND
  0
STYLE
 70
    68
  2
SV0
 40
0.000000
 41
0.000440
 50
0.000000
 71
     0
 42
0.000000
  3
ROMAND
  0
ENDTAB
  0
TABLE
  2
LAYER
 70
     3
  0
LAYER
  2
FOREGROUND
 70
    64
 62
     7
  6
CONTINUOUS
  0
LAYER
  2
BACKGROUND
 70
    65
 62
    -7
  6
CONTINUOUS
  0
LAYER
  2
0
 70
    64
 62
     7
  6
CONTINUOUS
  0
ENDTAB
  0
ENDSEC
  0
SECTION
  2
ENTITIES
  0
POLYLINE
  8
FOREGROUND
  6
CONTINUOUS
 66
     1
 40
0.000000
 41
0.000000
  0
VERTEX
  8
FOREGROUND
  6
CONTINUOUS
 10
0.000000
 20
10.309640
  0
VERTEX
  8
FOREGROUND
  6
CONTINUOUS
 10
8.499920
 20
10.309640
  0
VERTEX
  8
FOREGROUND
  6
CONTINUOUS
 10
8.499920
 20
-0.690360
  0
VERTEX
  8
FOREGROUND
  6
CONTINUOUS
 10
0.000000
 20
-0.690360
  0
VERTEX
  8
FOREGROUND
  6
CONTINUOUS
 10
0.000000
 20
10.309640
  0
SEQEND
  8
0
  0
POLYLINE
  8
FOREGROUND
  6
CONTINUOUS
 66
     1
 40
0.000000
 41
0.000000
  0
VERTEX
  8
FOREGROUND
  6
CONTINUOUS
 10
0.000000
 20
10.309640
  0
VERTEX
  8
FOREGROUND
  6
CONTINUOUS
 10
8.499920
 20
10.309640
  0
VERTEX
  8
FOREGROUND
  6
CONTINUOUS
 10
8.499920
 20
-0.690360
  0
VERTEX
  8
FOREGROUND
  6
CONTINUOUS
 10
0.000000
 20
-0.690360
  0
VERTEX
  8
FOREGROUND
  6
CONTINUOUS
 10
0.000000
 20
10.309640
  0
SEQEND
  8
0
  0
TEXT
  8
0
 10
4.297480
 20
7.791080
 40
0.138287
  1
BA  1323
 41
1.000000
  7
SN0
 71
     0
 72
     5
 11
4.982360
 21
7.791080
  0
TEXT
  8
0
 10
4.210800
 20
7.589560
 40
0.138287
  1
2-7/16" x 3"
 41
1.000000
  7
SN0
 71
     0
 72
     5
 11
5.069362
 21
7.589560
  0
TEXT
  8
0
 10
4.297480
 20
3.726800
 40
0.138287
  1
BA  1323
 41
1.000000
  7
SN0
 71
     0
 72
     5
 11
4.982360
 21
3.726800
  0
TEXT
  8
0
 10
4.210800
 20
3.525280
 40
0.138287
  1
2-7/16" x 3"
 41
1.000000
  7
SN0
 71
     0
 72
     5
 11
5.069362
 21
3.525280
  0
SOLID
  8
0
 62
    15
 10
5.496480
 20
4.796880
 11
6.141080
 21
5.180560
 12
5.555880
 22
4.751560
 13
6.200480
 23
5.135240
  0
POLYLINE
  8
0
  6
CONTINUOUS
 66
     1
 40
0.000000
 41
0.000000
  0
VERTEX
  8
0
  6
CONTINUOUS
 10
5.496480
 20
4.796880
  0
VERTEX
  8
0
  6
CONTINUOUS
 10
6.141080
 20
5.180560
  0
VERTEX
  8
0
  6
CONTINUOUS
 10
6.200480
 20
5.135240
  0
VERTEX
  8
0
  6
CONTINUOUS
 10
5.555880
 20
4.751560
  0
VERTEX
  8
0
  6
CONTINUOUS
 10
5.496480
 20
4.796880
  0
SEQEND
  8
0
  0
SOLID
  8
0
 62
    15
 10
4.361720
 20
6.394080
 11
5.006320
 21
6.777760
 12
4.388560
 22
6.386160
 13
5.032720
 23
6.769400
  0
POLYLINE
  8
0
  6
CONTINUOUS
 66
     1
 40
0.000000
 41
0.000000
  0
VERTEX
  8
0
  6
CONTINUOUS
 10
4.361720
 20
6.394080
  0
VERTEX
  8
0
  6
CONTINUOUS
 10
5.006320
 20
6.777760
  0
VERTEX
  8
0
  6
CONTINUOUS
 10
5.032720
 20
6.769400
  0
VERTEX
  8
0
  6
CONTINUOUS
 10
4.388560
 20
6.386160
  0
VERTEX
  8
0
  6
CONTINUOUS
 10
4.361720
 20
6.394080
  0
SEQEND
  8
0
  0
SOLID
  8
0
 62
    15
 10
4.388560
 20
6.386160
 11
5.032720
 21
6.769400
 12
4.420680
 22
6.376920
 13
5.065280
 23
6.760600
  0
POLYLINE
  8
0
  6
CONTINUOUS
 66
     1
 40
0.000000
 41
0.000000
  0
VERTEX
  8
0
  6
CONTINUOUS
 10
4.388560
 20
6.386160
  0
VERTEX
  8
0
  6
CONTINUOUS
 10
5.032720
 20
6.769400
  0
VERTEX
  8
0
  6
CONTINUOUS
 10
5.065280
 20
6.760600
  0
VERTEX
  8
0
  6
CONTINUOUS
 10
4.420680
 20
6.376920
  0
VERTEX
  8
0
  6
CONTINUOUS
 10
4.388560
 20
6.386160
  0
SEQEND
  8
0
  0
SOLID
  8
0
 62
    15
 10
4.420680
 20
6.376920
 11
5.065280
 21
6.760600
 12
5.513200
 22
6.067160
 13
6.157800
 23
6.450840
  0
POLYLINE
  8
0
  6
CONTINUOUS
 66
     1
 40
0.000000
 41
0.000000
  0
VERTEX
  8
0
  6
CONTINUOUS
 10
4.420680
 20
6.376920
  0
VERTEX
  8
0
  6
CONTINUOUS
 10
5.065280
 20
6.760600
  0
VERTEX
  8
0
  6
CONTINUOUS
 10
6.157800
 20
6.450840
  0
VERTEX
  8
0
  6
CONTINUOUS
 10
5.513200
 20
6.067160
  0
VERTEX
  8
0
  6
CONTINUOUS
 10
4.420680
 20
6.376920
  0
SEQEND
  8
0
  0
SOLID
  8
0
 62
    15
 10
5.513200
 20
6.067160
 11
6.157800
 21
6.450840
 12
5.587120
 22
6.043400
 13
6.231280
 23
6.426640
  0
POLYLINE
  8
0
  6
CONTINUOUS
 66
     1
 40
0.000000
 41
0.000000
  0
VERTEX
  8
0
  6
CONTINUOUS
 10
5.513200
 20
6.067160
  0
VERTEX
  8
0
  6
CONTINUOUS
 10
6.157800
 20
6.450840
  0
VERTEX
  8
0
  6
CONTINUOUS
 10
6.231280
 20
6.426640
  0
VERTEX
  8
0
  6
CONTINUOUS
 10
5.587120
 20
6.043400
  0
VERTEX
  8
0
  6
CONTINUOUS
 10
5.513200
 20
6.067160
  0
SEQEND
  8
0
  0
SOLID
  8
0
 62
    15
 10
5.587120
 20
6.043400
 11
6.231280
 21
6.426640
 12
5.649160
 22
6.013040
 13
6.293760
 23
6.396720
  0
POLYLINE
  8
0
  6
CONTINUOUS
 66
     1
 40
0.000000
 41
0.000000
  0
VERTEX
  8
0
  6
CONTINUOUS
 10
5.587120
 20
6.043400
  0
VERTEX
  8
0
  6
CONTINUOUS
 10
6.231280
 20
6.426640
  0
VERTEX
  8
0
  6
CONTINUOUS
 10
6.293760
 20
6.396720
  0
VERTEX
  8
0
  6
CONTINUOUS
 10
5.649160
 20
6.013040
  0
VERTEX
  8
0
  6
CONTINUOUS
 10
5.587120
 20
6.043400
  0
SEQEND
  8
0
  0
SOLID
  8
0
 62
    15
 10
5.649160
 20
6.013040
 11
6.293760
 21
6.396720
 12
5.701080
 22
5.977400
 13
6.345240
 23
6.361080
  0
POLYLINE
  8
0
  6
CONTINUOUS
 66
     1
 40
0.000000
 41
0.000000
  0
VERTEX
  8
0
  6
CONTINUOUS
 10
5.649160
 20
6.013040
  0
VERTEX
  8
0
  6
CONTINUOUS
 10
6.293760
 20
6.396720
  0
VERTEX
  8
0
  6
CONTINUOUS
 10
6.345240
 20
6.361080
  0
VERTEX
  8
0
  6
CONTINUOUS
 10
5.701080
 20
5.977400
  0
VERTEX
  8
0
  6
CONTINUOUS
 10
5.649160
 20
6.013040
  0
SEQEND
  8
0
  0
SOLID
  8
0
 62
    15
 10
5.701080
 20
5.977400
 11
6.345240
 21
6.361080
 12
5.742440
 22
5.937360
 13
6.387040
 23
6.320600
  0
POLYLINE
  8
0
  6
CONTINUOUS
 66
     1
 40
0.000000
 41
0.000000
  0
VERTEX
  8
0
  6
CONTINUOUS
 10
5.701080
 20
5.977400
  0
VERTEX
  8
0
  6
CONTINUOUS
 10
6.345240
 20
6.361080
  0
VERTEX
  8
0
  6
CONTINUOUS
 10
6.387040
 20
6.320600
  0
VERTEX
  8
0
  6
CONTINUOUS
 10
5.742440
 20
5.937360
  0
VERTEX
  8
0
  6
CONTINUOUS
 10
5.701080
 20
5.977400
  0
SEQEND
  8
0
  0
SOLID
  8
0
 62
    15
 10
5.742440
 20
5.937360
 11
6.387040
 21
6.320600
 12
5.798320
 22
5.846720
 13
6.442920
 23
6.229960
  0
POLYLINE
  8
0
  6
CONTINUOUS
 66
     1
 40
0.000000
 41
0.000000
  0
VERTEX
  8
0
  6
CONTINUOUS
 10
5.742440
 20
5.937360
  0
VERTEX
  8
0
  6
CONTINUOUS
 10
6.387040
 20
6.320600
  0
VERTEX
  8
0
  6
CONTINUOUS
 10
6.442920
 20
6.229960
  0
VERTEX
  8
0
  6
CONTINUOUS
 10
5.798320
 20
5.846720
  0
VERTEX
  8
0
  6
CONTINUOUS
 10
5.742440
 20
5.937360
  0
SEQEND
  8
0
  0
SOLID
  8
0
 62
    15
 10
5.798320
 20
5.846720
 11
6.442920
 21
6.229960
 12
5.822080
 22
5.748160
 13
6.466680
 23
6.131840
  0
POLYLINE
  8
0
  6
CONTINUOUS
 66
     1
 40
0.000000
 41
0.000000
  0
VERTEX
  8
0
  6
CONTINUOUS
 10
5.798320
 20
5.846720
  0
VERTEX
  8
0
  6
CONTINUOUS
 10
6.442920
 20
6.229960
  0
VERTEX
  8
0
  6
CONTINUOUS
 10
6.466680
 20
6.131840
  0
VERTEX
  8
0
  6
CONTINUOUS
 10
5.822080
 20
5.748160
  0
VERTEX
  8
0
  6
CONTINUOUS
 10
5.798320
 20
5.846720
  0
SEQEND
  8
0
  0
SOLID
  8
0
 62
    15
 10
5.822080
 20
5.748160
 11
6.466680
 21
6.131840
 12
5.819440
 22
5.649600
 13
6.463600
 23
6.032840
  0
POLYLINE
  8
0
  6
CONTINUOUS
 66
     1
 40
0.000000
 41
0.000000
  0
VERTEX
  8
0
  6
CONTINUOUS
 10
5.822080
 20
5.748160
  0
VERTEX
  8
0
  6
CONTINUOUS
 10
6.466680
 20
6.131840
  0
VERTEX
  8
0
  6
CONTINUOUS
 10
6.463600
 20
6.032840
  0
VERTEX
  8
0
  6
CONTINUOUS
 10
5.819440
 20
5.649600
  0
VERTEX
  8
0
  6
CONTINUOUS
 10
5.822080
 20
5.748160
  0
SEQEND
  8
0
  0
SOLID
  8
0
 62
    15
 10
5.819440
 20
5.649600
 11
6.463600
 21
6.032840
 12
5.795680
 22
5.557200
 13
6.439840
 23
5.940880
  0
POLYLINE
  8
0
  6
CONTINUOUS
 66
     1
 40
0.000000
 41
0.000000
  0
VERTEX
  8
0
  6
CONTINUOUS
 10
5.819440
 20
5.649600
  0
VERTEX
  8
0
  6
CONTINUOUS
 10
6.463600
 20
6.032840
  0
VERTEX
  8
0
  6
CONTINUOUS
 10
6.439840
 20
5.940880
  0
VERTEX
  8
0
  6
CONTINUOUS
 10
5.795680
 20
5.557200
  0
VERTEX
  8
0
  6
CONTINUOUS
 10
5.819440
 20
5.649600
  0
SEQEND
  8
0
  0
SOLID
  8
0
 62
    15
 10
5.795680
 20
5.557200
 11
6.439840
 21
5.940880
 12
5.755640
 22
5.478880
 13
6.399800
 23
5.862120
  0
POLYLINE
  8
0
  6
CONTINUOUS
 66
     1
 40
0.000000
 41
0.000000
  0
VERTEX
  8
0
  6
CONTINUOUS
 10
5.795680
 20
5.557200
  0
VERTEX
  8
0
  6
CONTINUOUS
 10
6.439840
 20
5.940880
  0
VERTEX
  8
0
  6
CONTINUOUS
 10
6.399800
 20
5.862120
  0
VERTEX
  8
0
  6
CONTINUOUS
 10
5.755640
 20
5.478880
  0
VERTEX
  8
0
  6
CONTINUOUS
 10
5.795680
 20
5.557200
  0
SEQEND
  8
0
  0
SOLID
  8
0
 62
    15
 10
5.755640
 20
5.478880
 11
6.399800
 21
5.862120
 12
5.705480
 22
5.421240
 13
6.349640
 23
5.804920
  0
POLYLINE
  8
0
  6
CONTINUOUS
 66
     1
 40
0.000000
 41
0.000000
  0
VERTEX
  8
0
  6
CONTINUOUS
 10
5.755640
 20
5.478880
  0
VERTEX
  8
0
  6
CONTINUOUS
 10
6.399800
 20
5.862120
  0
VERTEX
  8
0
  6
CONTINUOUS
 10
6.349640
 20
5.804920
  0
VERTEX
  8
0
  6
CONTINUOUS
 10
5.705480
 20
5.421240
  0
VERTEX
  8
0
  6
CONTINUOUS
 10
5.755640
 20
5.478880
  0
SEQEND
  8
0
  0
SOLID
  8
0
 62
    15
 10
5.705480
 20
5.421240
 11
6.349640
 21
5.804920
 12
5.529920
 22
5.265480
 13
6.174080
 23
5.649160
  0
POLYLINE
  8
0
  6
CONTINUOUS
 66
     1
 40
0.000000
 41
0.000000
  0
VERTEX
  8
0
  6
CONTINUOUS
 10
5.705480
 20
5.421240
  0
VERTEX
  8
0
  6
CONTINUOUS
 10
6.349640
 20
5.804920
  0
VERTEX
  8
0
  6
CONTINUOUS
 10
6.174080
 20
5.649160
  0
VERTEX
  8
0
  6
CONTINUOUS
 10
5.529920
 20
5.265480
  0
VERTEX
  8
0
  6
CONTINUOUS
 10
5.705480
 20
5.421240
  0
SEQEND
  8
0
  0
SOLID
  8
0
 62
    15
 10
5.529920
 20
5.265480
 11
6.174080
 21
5.649160
 12
5.458200
 22
5.184520
 13
6.102360
 23
5.568200
  0
POLYLINE
  8
0
  6
CONTINUOUS
 66
     1
 40
0.000000
 41
0.000000
  0
VERTEX
  8
0
  6
CONTINUOUS
 10
5.529920
 20
5.265480
  0
VERTEX
  8
0
  6
CONTINUOUS
 10
6.174080
 20
5.649160
  0
VERTEX
  8
0
  6
CONTINUOUS
 10
6.102360
 20
5.568200
  0
VERTEX
  8
0
  6
CONTINUOUS
 10
5.458200
 20
5.184520
  0
VERTEX
  8
0
  6
CONTINUOUS
 10
5.529920
 20
5.265480
  0
SEQEND
  8
0
  0
SOLID
  8
0
 62
    15
 10
5.458200
 20
5.184520
 11
6.102360
 21
5.568200
 12
5.406720
 22
5.101800
 13
6.051320
 23
5.485480
  0
POLYLINE
  8
0
  6
CONTINUOUS
 66
     1
 40
0.000000
 41
0.000000
  0
VERTEX
  8
0
  6
CONTINUOUS
 10
5.458200
 20
5.184520
  0
VERTEX
  8
0
  6
CONTINUOUS
 10
6.102360
 20
5.568200
  0
VERTEX
  8
0
  6
CONTINUOUS
 10
6.051320
 20
5.485480
  0
VERTEX
  8
0
  6
CONTINUOUS
 10
5.406720
 20
5.101800
  0
VERTEX
  8
0
  6
CONTINUOUS
 10
5.458200
 20
5.184520
  0
SEQEND
  8
0
  0
SOLID
  8
0
 62
    15
 10
5.406720
 20
5.101800
 11
6.051320
 21
5.485480
 12
5.383840
 22
5.017320
 13
6.028000
 23
5.400560
  0
POLYLINE
  8
0
  6
CONTINUOUS
 66
     1
 40
0.000000
 41
0.000000
  0
VERTEX
  8
0
  6
CONTINUOUS
 10
5.406720
 20
5.101800
  0
VERTEX
  8
0
  6
CONTINUOUS
 10
6.051320
 20
5.485480
  0
VERTEX
  8
0
  6
CONTINUOUS
 10
6.028000
 20
5.400560
  0
VERTEX
  8
0
  6
CONTINUOUS
 10
5.383840
 20
5.017320
  0
VERTEX
  8
0
  6
CONTINUOUS
 10
5.406720
 20
5.101800
  0
SEQEND
  8
0
  0
SOLID
  8
0
 62
    15
 10
5.383840
 20
5.017320
 11
6.028000
 21
5.400560
 12
5.395720
 22
4.930640
 13
6.040320
 23
5.313880
  0
POLYLINE
  8
0
  6
CONTINUOUS
 66
     1
 40
0.000000
 41
0.000000
  0
VERTEX
  8
0
  6
CONTINUOUS
 10
5.383840
 20
5.017320
  0
VERTEX
  8
0
  6
CONTINUOUS
 10
6.028000
 20
5.400560
  0
VERTEX
  8
0
  6
CONTINUOUS
 10
6.040320
 20
5.313880
  0
VERTEX
  8
0
  6
CONTINUOUS
 10
5.395720
 20
4.930640
  0
VERTEX
  8
0
  6
CONTINUOUS
 10
5.383840
 20
5.017320
  0
SEQEND
  8
0
  0
SOLID
  8
0
 62
    15
 10
5.395720
 20
4.930640
 11
6.040320
 21
5.313880
 12
5.450720
 22
4.842200
 13
6.095320
 23
5.225440
  0
POLYLINE
  8
0
  6
CONTINUOUS
 66
     1
 40
0.000000
 41
0.000000
  0
VERTEX
  8
0
  6
CONTINUOUS
 10
5.395720
 20
4.930640
  0
VERTEX
  8
0
  6
CONTINUOUS
 10
6.040320
 20
5.313880
  0
VERTEX
  8
0
  6
CONTINUOUS
 10
6.095320
 20
5.225440
  0
VERTEX
  8
0
  6
CONTINUOUS
 10
5.450720
 20
4.842200
  0
VERTEX
  8
0
  6
CONTINUOUS
 10
5.395720
 20
4.930640
  0
SEQEND
  8
0
  0
SOLID
  8
0
 62
    15
 10
5.450720
 20
4.842200
 11
6.095320
 21
5.225440
 12
5.496480
 22
4.796880
 13
6.141080
 23
5.180560
  0
POLYLINE
  8
0
  6
CONTINUOUS
 66
     1
 40
0.000000
 41
0.000000
  0
VERTEX
  8
0
  6
CONTINUOUS
 10
5.450720
 20
4.842200
  0
VERTEX
  8
0
  6
CONTINUOUS
 10
6.095320
 20
5.225440
  0
VERTEX
  8
0
  6
CONTINUOUS
 10
6.141080
 20
5.180560
  0
VERTEX
  8
0
  6
CONTINUOUS
 10
5.496480
 20
4.796880
  0
VERTEX
  8
0
  6
CONTINUOUS
 10
5.450720
 20
4.842200
  0
SEQEND
  8
0
  0
SOLID
  8
0
 62
    15
 10
4.325200
 20
6.402440
 11
4.969800
 21
6.785680
 12
4.361720
 22
6.394080
 13
5.006320
 23
6.777760
  0
POLYLINE
  8
0
  6
CONTINUOUS
 66
     1
 40
0.000000
 41
0.000000
  0
VERTEX
  8
0
  6
CONTINUOUS
 10
4.325200
 20
6.402440
  0
VERTEX
  8
0
  6
CONTINUOUS
 10
4.969800
 20
6.785680
  0
VERTEX
  8
0
  6
CONTINUOUS
 10
5.006320
 20
6.777760
  0
VERTEX
  8
0
  6
CONTINUOUS
 10
4.361720
 20
6.394080
  0
VERTEX
  8
0
  6
CONTINUOUS
 10
4.325200
 20
6.402440
  0
SEQEND
  8
0
  0
SOLID
  8
0
 62
    15
 10
5.555880
 20
4.751560
 11
6.200480
 21
5.135240
 12
5.586240
 22
4.712400
 13
6.230840
 23
5.096080
  0
POLYLINE
  8
0
  6
CONTINUOUS
 66
     1
 40
0.000000
 41
0.000000
  0
VERTEX
  8
0
  6
CONTINUOUS
 10
5.555880
 20
4.751560
  0
VERTEX
  8
0
  6
CONTINUOUS
 10
6.200480
 20
5.135240
  0
VERTEX
  8
0
  6
CONTINUOUS
 10
6.230840
 20
5.096080
  0
VERTEX
  8
0
  6
CONTINUOUS
 10
5.586240
 20
4.712400
  0
VERTEX
  8
0
  6
CONTINUOUS
 10
5.555880
 20
4.751560
  0
SEQEND
  8
0
  0
SOLID
  8
0
 62
    15
 10
5.586240
 20
4.712400
 11
6.230840
 21
5.096080
 12
5.605160
 22
4.654760
 13
6.249320
 23
5.038440
  0
POLYLINE
  8
0
  6
CONTINUOUS
 66
     1
 40
0.000000
 41
0.000000
  0
VERTEX
  8
0
  6
CONTINUOUS
 10
5.586240
 20
4.712400
  0
VERTEX
  8
0
  6
CONTINUOUS
 10
6.230840
 20
5.096080
  0
VERTEX
  8
0
  6
CONTINUOUS
 10
6.249320
 20
5.038440
  0
VERTEX
  8
0
  6
CONTINUOUS
 10
5.605160
 20
4.654760
  0
VERTEX
  8
0
  6
CONTINUOUS
 10
5.586240
 20
4.712400
  0
SEQEND
  8
0
  0
SOLID
  8
0
 62
    15
 10
5.605160
 20
4.654760
 11
6.249320
 21
5.038440
 12
5.598560
 22
4.585240
 13
6.242720
 23
4.968480
  0
POLYLINE
  8
0
  6
CONTINUOUS
 66
     1
 40
0.000000
 41
0.000000
  0
VERTEX
  8
0
  6
CONTINUOUS
 10
5.605160
 20
4.654760
  0
VERTEX
  8
0
  6
CONTINUOUS
 10
6.249320
 20
5.038440
  0
VERTEX
  8
0
  6
CONTINUOUS
 10
6.242720
 20
4.968480
  0
VERTEX
  8
0
  6
CONTINUOUS
 10
5.598560
 20
4.585240
  0
VERTEX
  8
0
  6
CONTINUOUS
 10
5.605160
 20
4.654760
  0
SEQEND
  8
0
  0
SOLID
  8
0
 62
    15
 10
5.598560
 20
4.585240
 11
6.242720
 21
4.968480
 12
5.553240
 22
4.508680
 13
6.197840
 23
4.892360
  0
POLYLINE
  8
0
  6
CONTINUOUS
 66
     1
 40
0.000000
 41
0.000000
  0
VERTEX
  8
0
  6
CONTINUOUS
 10
5.598560
 20
4.585240
  0
VERTEX
  8
0
  6
CONTINUOUS
 10
6.242720
 20
4.968480
  0
VERTEX
  8
0
  6
CONTINUOUS
 10
6.197840
 20
4.892360
  0
VERTEX
  8
0
  6
CONTINUOUS
 10
5.553240
 20
4.508680
  0
VERTEX
  8
0
  6
CONTINUOUS
 10
5.598560
 20
4.585240
  0
SEQEND
  8
0
  0
SOLID
  8
0
 62
    15
 10
5.553240
 20
4.508680
 11
6.197840
 21
4.892360
 12
5.612640
 22
4.460280
 13
6.256800
 23
4.843960
  0
POLYLINE
  8
0
  6
CONTINUOUS
 66
     1
 40
0.000000
 41
0.000000
  0
VERTEX
  8
0
  6
CONTINUOUS
 10
5.553240
 20
4.508680
  0
VERTEX
  8
0
  6
CONTINUOUS
 10
6.197840
 20
4.892360
  0
VERTEX
  8
0
  6
CONTINUOUS
 10
6.256800
 20
4.843960
  0
VERTEX
  8
0
  6
CONTINUOUS
 10
5.612640
 20
4.460280
  0
VERTEX
  8
0
  6
CONTINUOUS
 10
5.553240
 20
4.508680
  0
SEQEND
  8
0
  0
SOLID
  8
0
 62
    15
 10
5.612640
 20
4.460280
 11
6.256800
 21
4.843960
 12
5.656640
 22
4.394280
 13
6.300800
 23
4.777520
  0
POLYLINE
  8
0
  6
CONTINUOUS
 66
     1
 40
0.000000
 41
0.000000
  0
VERTEX
  8
0
  6
CONTINUOUS
 10
5.612640
 20
4.460280
  0
VERTEX
  8
0
  6
CONTINUOUS
 10
6.256800
 20
4.843960
  0
VERTEX
  8
0
  6
CONTINUOUS
 10
6.300800
 20
4.777520
  0
VERTEX
  8
0
  6
CONTINUOUS
 10
5.656640
 20
4.394280
  0
VERTEX
  8
0
  6
CONTINUOUS
 10
5.612640
 20
4.460280
  0
SEQEND
  8
0
  0
SOLID
  8
0
 62
    15
 10
5.656640
 20
4.394280
 11
6.300800
 21
4.777520
 12
5.686120
 22
4.316840
 13
6.330280
 23
4.700520
  0
POLYLINE
  8
0
  6
CONTINUOUS
 66
     1
 40
0.000000
 41
0.000000
  0
VERTEX
  8
0
  6
CONTINUOUS
 10
5.656640
 20
4.394280
  0
VERTEX
  8
0
  6
CONTINUOUS
 10
6.300800
 20
4.777520
  0
VERTEX
  8
0
  6
CONTINUOUS
 10
6.330280
 20
4.700520
  0
VERTEX
  8
0
  6
CONTINUOUS
 10
5.686120
 20
4.316840
  0
VERTEX
  8
0
  6
CONTINUOUS
 10
5.656640
 20
4.394280
  0
SEQEND
  8
0
  0
SOLID
  8
0
 62
    15
 10
5.686120
 20
4.316840
 11
6.330280
 21
4.700520
 12
5.701080
 22
4.235440
 13
6.345240
 23
4.619120
  0
POLYLINE
  8
0
  6
CONTINUOUS
 66
     1
 40
0.000000
 41
0.000000
  0
VERTEX
  8
0
  6
CONTINUOUS
 10
5.686120
 20
4.316840
  0
VERTEX
  8
0
  6
CONTINUOUS
 10
6.330280
 20
4.700520
  0
VERTEX
  8
0
  6
CONTINUOUS
 10
6.345240
 20
4.619120
  0
VERTEX
  8
0
  6
CONTINUOUS
 10
5.701080
 20
4.235440
  0
VERTEX
  8
0
  6
CONTINUOUS
 10
5.686120
 20
4.316840
  0
SEQEND
  8
0
  0
SOLID
  8
0
 62
    15
 10
5.701080
 20
4.235440
 11
6.345240
 21
4.619120
 12
5.701520
 22
4.156680
 13
6.346120
 23
4.539920
  0
POLYLINE
  8
0
  6
CONTINUOUS
 66
     1
 40
0.000000
 41
0.000000
  0
VERTEX
  8
0
  6
CONTINUOUS
 10
5.701080
 20
4.235440
  0
VERTEX
  8
0
  6
CONTINUOUS
 10
6.345240
 20
4.619120
  0
VERTEX
  8
0
  6
CONTINUOUS
 10
6.346120
 20
4.539920
  0
VERTEX
  8
0
  6
CONTINUOUS
 10
5.701520
 20
4.156680
  0
VERTEX
  8
0
  6
CONTINUOUS
 10
5.701080
 20
4.235440
  0
SEQEND
  8
0
  0
SOLID
  8
0
 62
    15
 10
5.701520
 20
4.156680
 11
6.346120
 21
4.539920
 12
5.688760
 22
4.087160
 13
6.332920
 23
4.470400
  0
POLYLINE
  8
0
  6
CONTINUOUS
 66
     1
 40
0.000000
 41
0.000000
  0
VERTEX
  8
0
  6
CONTINUOUS
 10
5.701520
 20
4.156680
  0
VERTEX
  8
0
  6
CONTINUOUS
 10
6.346120
 20
4.539920
  0
VERTEX
  8
0
  6
CONTINUOUS
 10
6.332920
 20
4.470400
  0
VERTEX
  8
0
  6
CONTINUOUS
 10
5.688760
 20
4.087160
  0
VERTEX
  8
0
  6
CONTINUOUS
 10
5.701520
 20
4.156680
  0
SEQEND
  8
0
  0
SOLID
  8
0
 62
    15
 10
5.662360
 20
4.033480
 11
6.306520
 21
4.417160
 12
5.622760
 22
4.003120
 13
6.266920
 23
4.386800
  0
POLYLINE
  8
0
  6
CONTINUOUS
 66
     1
 40
0.000000
 41
0.000000
  0
VERTEX
  8
0
  6
CONTINUOUS
 10
5.662360
 20
4.033480
  0
VERTEX
  8
0
  6
CONTINUOUS
 10
6.306520
 20
4.417160
  0
VERTEX
  8
0
  6
CONTINUOUS
 10
6.266920
 20
4.386800
  0
VERTEX
  8
0
  6
CONTINUOUS
 10
5.622760
 20
4.003120
  0
VERTEX
  8
0
  6
CONTINUOUS
 10
5.662360
 20
4.033480
  0
SEQEND
  8
0
  0
SOLID
  8
0
 62
    15
 10
5.688760
 20
4.087160
 11
6.332920
 21
4.470400
 12
5.662360
 22
4.033480
 13
6.306520
 23
4.417160
  0
POLYLINE
  8
0
  6
CONTINUOUS
 66
     1
 40
0.000000
 41
0.000000
  0
VERTEX
  8
0
  6
CONTINUOUS
 10
5.688760
 20
4.087160
  0
VERTEX
  8
0
  6
CONTINUOUS
 10
6.332920
 20
4.470400
  0
VERTEX
  8
0
  6
CONTINUOUS
 10
6.306520
 20
4.417160
  0
VERTEX
  8
0
  6
CONTINUOUS
 10
5.662360
 20
4.033480
  0
VERTEX
  8
0
  6
CONTINUOUS
 10
5.688760
 20
4.087160
  0
SEQEND
  8
0
  0
SOLID
  8
0
 62
    15
 10
3.455320
 20
4.253480
 11
4.099480
 21
4.637160
 12
3.455320
 22
4.003560
 13
4.099480
 23
4.386800
  0
POLYLINE
  8
0
  6
CONTINUOUS
 66
     1
 40
0.000000
 41
0.000000
  0
VERTEX
  8
0
  6
CONTINUOUS
 10
3.455320
 20
4.253480
  0
VERTEX
  8
0
  6
CONTINUOUS
 10
4.099480
 20
4.637160
  0
VERTEX
  8
0
  6
CONTINUOUS
 10
4.099480
 20
4.386800
  0
VERTEX
  8
0
  6
CONTINUOUS
 10
3.455320
 20
4.003560
  0
VERTEX
  8
0
  6
CONTINUOUS
 10
3.455320
 20
4.253480
  0
SEQEND
  8
0
  0
SOLID
  8
0
 62
    15
 10
2.986720
 20
6.013040
 11
3.630880
 21
6.396720
 12
3.048760
 22
6.043400
 13
3.693360
 23
6.426640
  0
POLYLINE
  8
0
  6
CONTINUOUS
 66
     1
 40
0.000000
 41
0.000000
  0
VERTEX
  8
0
  6
CONTINUOUS
 10
2.986720
 20
6.013040
  0
VERTEX
  8
0
  6
CONTINUOUS
 10
3.630880
 20
6.396720
  0
VERTEX
  8
0
  6
CONTINUOUS
 10
3.693360
 20
6.426640
  0
VERTEX
  8
0
  6
CONTINUOUS
 10
3.048760
 20
6.043400
  0
VERTEX
  8
0
  6
CONTINUOUS
 10
2.986720
 20
6.013040
  0
SEQEND
  8
0
  0
SOLID
  8
0
 62
    15
 10
3.048760
 20
6.043400
 11
3.693360
 21
6.426640
 12
3.122680
 22
6.067160
 13
3.766840
 23
6.450840
  0
POLYLINE
  8
0
  6
CONTINUOUS
 66
     1
 40
0.000000
 41
0.000000
  0
VERTEX
  8
0
  6
CONTINUOUS
 10
3.048760
 20
6.043400
  0
VERTEX
  8
0
  6
CONTINUOUS
 10
3.693360
 20
6.426640
  0
VERTEX
  8
0
  6
CONTINUOUS
 10
3.766840
 20
6.450840
  0
VERTEX
  8
0
  6
CONTINUOUS
 10
3.122680
 20
6.067160
  0
VERTEX
  8
0
  6
CONTINUOUS
 10
3.048760
 20
6.043400
  0
SEQEND
  8
0
  0
SOLID
  8
0
 62
    15
 10
3.122680
 20
6.067160
 11
3.766840
 21
6.450840
 12
4.215200
 22
6.376920
 13
4.859360
 23
6.760600
  0
POLYLINE
  8
0
  6
CONTINUOUS
 66
     1
 40
0.000000
 41
0.000000
  0
VERTEX
  8
0
  6
CONTINUOUS
 10
3.122680
 20
6.067160
  0
VERTEX
  8
0
  6
CONTINUOUS
 10
3.766840
 20
6.450840
  0
VERTEX
  8
0
  6
CONTINUOUS
 10
4.859360
 20
6.760600
  0
VERTEX
  8
0
  6
CONTINUOUS
 10
4.215200
 20
6.376920
  0
VERTEX
  8
0
  6
CONTINUOUS
 10
3.122680
 20
6.067160
  0
SEQEND
  8
0
  0
SOLID
  8
0
 62
    15
 10
4.215200
 20
6.376920
 11
4.859360
 21
6.760600
 12
4.247320
 22
6.386160
 13
4.891480
 23
6.769400
  0
POLYLINE
  8
0
  6
CONTINUOUS
 66
     1
 40
0.000000
 41
0.000000
  0
VERTEX
  8
0
  6
CONTINUOUS
 10
4.215200
 20
6.376920
  0
VERTEX
  8
0
  6
CONTINUOUS
 10
4.859360
 20
6.760600
  0
VERTEX
  8
0
  6
CONTINUOUS
 10
4.891480
 20
6.769400
  0
VERTEX
  8
0
  6
CONTINUOUS
 10
4.247320
 20
6.386160
  0
VERTEX
  8
0
  6
CONTINUOUS
 10
4.215200
 20
6.376920
  0
SEQEND
  8
0
  0
SOLID
  8
0
 62
    15
 10
4.247320
 20
6.386160
 11
4.891480
 21
6.769400
 12
4.274160
 22
6.394080
 13
4.918320
 23
6.777760
  0
POLYLINE
  8
0
  6
CONTINUOUS
 66
     1
 40
0.000000
 41
0.000000
  0
VERTEX
  8
0
  6
CONTINUOUS
 10
4.247320
 20
6.386160
  0
VERTEX
  8
0
  6
CONTINUOUS
 10
4.891480
 20
6.769400
  0
VERTEX
  8
0
  6
CONTINUOUS
 10
4.918320
 20
6.777760
  0
VERTEX
  8
0
  6
CONTINUOUS
 10
4.274160
 20
6.394080
  0
VERTEX
  8
0
  6
CONTINUOUS
 10
4.247320
 20
6.386160
  0
SEQEND
  8
0
  0
SOLID
  8
0
 62
    15
 10
4.274160
 20
6.394080
 11
4.918320
 21
6.777760
 12
4.310680
 22
6.402440
 13
4.954840
 23
6.785680
  0
POLYLINE
  8
0
  6
CONTINUOUS
 66
     1
 40
0.000000
 41
0.000000
  0
VERTEX
  8
0
  6
CONTINUOUS
 10
4.274160
 20
6.394080
  0
VERTEX
  8
0
  6
CONTINUOUS
 10
4.918320
 20
6.777760
  0
VERTEX
  8
0
  6
CONTINUOUS
 10
4.954840
 20
6.785680
  0
VERTEX
  8
0
  6
CONTINUOUS
 10
4.310680
 20
6.402440
  0
VERTEX
  8
0
  6
CONTINUOUS
 10
4.274160
 20
6.394080
  0
SEQEND
  8
0
  0
SOLID
  8
0
 62
    15
 10
4.310680
 20
6.402440
 11
4.954840
 21
6.785680
 12
4.325200
 22
6.402440
 13
4.969800
 23
6.785680
  0
POLYLINE
  8
0
  6
CONTINUOUS
 66
     1
 40
0.000000
 41
0.000000
  0
VERTEX
  8
0
  6
CONTINUOUS
 10
4.310680
 20
6.402440
  0
VERTEX
  8
0
  6
CONTINUOUS
 10
4.954840
 20
6.785680
  0
VERTEX
  8
0
  6
CONTINUOUS
 10
4.969800
 20
6.785680
  0
VERTEX
  8
0
  6
CONTINUOUS
 10
4.325200
 20
6.402440
  0
VERTEX
  8
0
  6
CONTINUOUS
 10
4.310680
 20
6.402440
  0
SEQEND
  8
0
  0
POLYLINE
  8
0
  6
CONTINUOUS
 66
     1
 40
0.000000
 41
0.000000
  0
VERTEX
  8
0
  6
CONTINUOUS
 10
4.325200
 20
6.402440
  0
VERTEX
  8
0
  6
CONTINUOUS
 10
4.361720
 20
6.394080
  0
VERTEX
  8
0
  6
CONTINUOUS
 10
5.513200
 20
6.067160
  0
VERTEX
  8
0
  6
CONTINUOUS
 10
5.587120
 20
6.043400
  0
VERTEX
  8
0
  6
CONTINUOUS
 10
5.649160
 20
6.013040
  0
VERTEX
  8
0
  6
CONTINUOUS
 10
5.701080
 20
5.977400
  0
VERTEX
  8
0
  6
CONTINUOUS
 10
5.742440
 20
5.937360
  0
VERTEX
  8
0
  6
CONTINUOUS
 10
5.798320
 20
5.846720
  0
VERTEX
  8
0
  6
CONTINUOUS
 10
5.822080
 20
5.748160
  0
VERTEX
  8
0
  6
CONTINUOUS
 10
5.819440
 20
5.649600
  0
VERTEX
  8
0
  6
CONTINUOUS
 10
5.795680
 20
5.557200
  0
VERTEX
  8
0
  6
CONTINUOUS
 10
5.755640
 20
5.478880
  0
VERTEX
  8
0
  6
CONTINUOUS
 10
5.705480
 20
5.421240
  0
VERTEX
  8
0
  6
CONTINUOUS
 10
5.529920
 20
5.265480
  0
VERTEX
  8
0
  6
CONTINUOUS
 10
5.458200
 20
5.184520
  0
VERTEX
  8
0
  6
CONTINUOUS
 10
5.406720
 20
5.101800
  0
VERTEX
  8
0
  6
CONTINUOUS
 10
5.383840
 20
5.017320
  0
VERTEX
  8
0
  6
CONTINUOUS
 10
5.395720
 20
4.930640
  0
VERTEX
  8
0
  6
CONTINUOUS
 10
5.450720
 20
4.842200
  0
VERTEX
  8
0
  6
CONTINUOUS
 10
5.496480
 20
4.796880
  0
VERTEX
  8
0
  6
CONTINUOUS
 10
5.555880
 20
4.751560
  0
VERTEX
  8
0
  6
CONTINUOUS
 10
5.586240
 20
4.712400
  0
VERTEX
  8
0
  6
CONTINUOUS
 10
5.605160
 20
4.654760
  0
VERTEX
  8
0
  6
CONTINUOUS
 10
5.598560
 20
4.585240
  0
VERTEX
  8
0
  6
CONTINUOUS
 10
5.553240
 20
4.508680
  0
VERTEX
  8
0
  6
CONTINUOUS
 10
5.612640
 20
4.460280
  0
VERTEX
  8
0
  6
CONTINUOUS
 10
5.656640
 20
4.394280
  0
VERTEX
  8
0
  6
CONTINUOUS
 10
5.686120
 20
4.316840
  0
VERTEX
  8
0
  6
CONTINUOUS
 10
5.701080
 20
4.235440
  0
VERTEX
  8
0
  6
CONTINUOUS
 10
5.701520
 20
4.156680
  0
VERTEX
  8
0
  6
CONTINUOUS
 10
5.688760
 20
4.087160
  0
VERTEX
  8
0
  6
CONTINUOUS
 10
5.662360
 20
4.033480
  0
VERTEX
  8
0
  6
CONTINUOUS
 10
5.622760
 20
4.003120
  0
VERTEX
  8
0
  6
CONTINUOUS
 10
5.180560
 20
4.003560
  0
VERTEX
  8
0
  6
CONTINUOUS
 10
5.180560
 20
4.253480
  0
VERTEX
  8
0
  6
CONTINUOUS
 10
3.455320
 20
4.253480
  0
VERTEX
  8
0
  6
CONTINUOUS
 10
3.455320
 20
4.003560
  0
VERTEX
  8
0
  6
CONTINUOUS
 10
3.013120
 20
4.003120
  0
VERTEX
  8
0
  6
CONTINUOUS
 10
2.973520
 20
4.033480
  0
VERTEX
  8
0
  6
CONTINUOUS
 10
2.947120
 20
4.087160
  0
VERTEX
  8
0
  6
CONTINUOUS
 10
2.933920
 20
4.156680
  0
VERTEX
  8
0
  6
CONTINUOUS
 10
2.934800
 20
4.235440
  0
VERTEX
  8
0
  6
CONTINUOUS
 10
2.949760
 20
4.316840
  0
VERTEX
  8
0
  6
CONTINUOUS
 10
2.979240
 20
4.394280
  0
VERTEX
  8
0
  6
CONTINUOUS
 10
3.023240
 20
4.460280
  0
VERTEX
  8
0
  6
CONTINUOUS
 10
3.082640
 20
4.508680
  0
VERTEX
  8
0
  6
CONTINUOUS
 10
3.037320
 20
4.585240
  0
VERTEX
  8
0
  6
CONTINUOUS
 10
3.030720
 20
4.654760
  0
VERTEX
  8
0
  6
CONTINUOUS
 10
3.049200
 20
4.712400
  0
VERTEX
  8
0
  6
CONTINUOUS
 10
3.080000
 20
4.751560
  0
VERTEX
  8
0
  6
CONTINUOUS
 10
3.138960
 20
4.796880
  0
VERTEX
  8
0
  6
CONTINUOUS
 10
3.184720
 20
4.842200
  0
VERTEX
  8
0
  6
CONTINUOUS
 10
3.239720
 20
4.930640
  0
VERTEX
  8
0
  6
CONTINUOUS
 10
3.252040
 20
5.017320
  0
VERTEX
  8
0
  6
CONTINUOUS
 10
3.228720
 20
5.101800
  0
VERTEX
  8
0
  6
CONTINUOUS
 10
3.177680
 20
5.184520
  0
VERTEX
  8
0
  6
CONTINUOUS
 10
3.105960
 20
5.265480
  0
VERTEX
  8
0
  6
CONTINUOUS
 10
2.930400
 20
5.421240
  0
VERTEX
  8
0
  6
CONTINUOUS
 10
2.880240
 20
5.478880
  0
VERTEX
  8
0
  6
CONTINUOUS
 10
2.840200
 20
5.557200
  0
VERTEX
  8
0
  6
CONTINUOUS
 10
2.816440
 20
5.649600
  0
VERTEX
  8
0
  6
CONTINUOUS
 10
2.813800
 20
5.748160
  0
VERTEX
  8
0
  6
CONTINUOUS
 10
2.837560
 20
5.846720
  0
VERTEX
  8
0
  6
CONTINUOUS
 10
2.893440
 20
5.937360
  0
VERTEX
  8
0
  6
CONTINUOUS
 10
2.986720
 20
6.013040
  0
VERTEX
  8
0
  6
CONTINUOUS
 10
3.048760
 20
6.043400
  0
VERTEX
  8
0
  6
CONTINUOUS
 10
3.122680
 20
6.067160
  0
VERTEX
  8
0
  6
CONTINUOUS
 10
4.274160
 20
6.394080
  0
VERTEX
  8
0
  6
CONTINUOUS
 10
4.310680
 20
6.402440
  0
VERTEX
  8
0
  6
CONTINUOUS
 10
4.325200
 20
6.402440
  0
SEQEND
  8
0
  0
POLYLINE
  8
0
  6
CONTINUOUS
 66
     1
 40
0.014080
 41
0.014080
  0
VERTEX
  8
0
  6
CONTINUOUS
 10
4.647720
 20
9.623680
  0
VERTEX
  8
0
  6
CONTINUOUS
 10
4.663120
 20
9.621480
  0
VERTEX
  8
0
  6
CONTINUOUS
 10
4.743200
 20
9.598160
  0
VERTEX
  8
0
  6
CONTINUOUS
 10
5.874000
 20
9.277400
  0
VERTEX
  8
0
  6
CONTINUOUS
 10
5.925920
 20
9.257600
  0
VERTEX
  8
0
  6
CONTINUOUS
 10
5.971680
 20
9.234280
  0
VERTEX
  8
0
  6
CONTINUOUS
 10
5.998960
 20
9.217120
  0
VERTEX
  8
0
  6
CONTINUOUS
 10
6.034600
 20
9.188960
  0
VERTEX
  8
0
  6
CONTINUOUS
 10
6.064960
 20
9.158600
  0
VERTEX
  8
0
  6
CONTINUOUS
 10
6.082120
 20
9.137040
  0
VERTEX
  8
0
  6
CONTINUOUS
 10
6.097080
 20
9.114600
  0
VERTEX
  8
0
  6
CONTINUOUS
 10
6.110280
 20
9.091280
  0
VERTEX
  8
0
  6
CONTINUOUS
 10
6.129640
 20
9.043760
  0
VERTEX
  8
0
  6
CONTINUOUS
 10
6.141520
 20
8.994480
  0
VERTEX
  8
0
  6
CONTINUOUS
 10
6.146360
 20
8.944320
  0
VERTEX
  8
0
  6
CONTINUOUS
 10
6.146360
 20
8.919680
  0
VERTEX
  8
0
  6
CONTINUOUS
 10
6.141960
 20
8.870400
  0
VERTEX
  8
0
  6
CONTINUOUS
 10
6.132280
 20
8.823320
  0
VERTEX
  8
0
  6
CONTINUOUS
 10
6.117760
 20
8.778440
  0
VERTEX
  8
0
  6
CONTINUOUS
 10
6.099720
 20
8.737080
  0
VERTEX
  8
0
  6
CONTINUOUS
 10
6.077720
 20
8.700120
  0
VERTEX
  8
0
  6
CONTINUOUS
 10
6.066280
 20
8.683400
  0
VERTEX
  8
0
  6
CONTINUOUS
 10
6.040760
 20
8.654360
  0
VERTEX
  8
0
  6
CONTINUOUS
 10
5.936920
 20
8.565480
  0
VERTEX
  8
0
  6
CONTINUOUS
 10
5.852000
 20
8.486720
  0
VERTEX
  8
0
  6
CONTINUOUS
 10
5.814160
 20
8.446680
  0
VERTEX
  8
0
  6
CONTINUOUS
 10
5.780280
 20
8.405760
  0
VERTEX
  8
0
  6
CONTINUOUS
 10
5.751680
 20
8.364840
  0
VERTEX
  8
0
  6
CONTINUOUS
 10
5.729240
 20
8.323040
  0
VERTEX
  8
0
  6
CONTINUOUS
 10
5.720440
 20
8.301920
  0
VERTEX
  8
0
  6
CONTINUOUS
 10
5.713840
 20
8.280800
  0
VERTEX
  8
0
  6
CONTINUOUS
 10
5.709000
 20
8.259680
  0
VERTEX
  8
0
  6
CONTINUOUS
 10
5.705920
 20
8.238120
  0
VERTEX
  8
0
  6
CONTINUOUS
 10
5.705480
 20
8.216560
  0
VERTEX
  8
0
  6
CONTINUOUS
 10
5.707240
 20
8.195000
  0
VERTEX
  8
0
  6
CONTINUOUS
 10
5.714720
 20
8.162440
  0
VERTEX
  8
0
  6
CONTINUOUS
 10
5.722640
 20
8.140880
  0
VERTEX
  8
0
  6
CONTINUOUS
 10
5.739800
 20
8.107440
  0
VERTEX
  8
0
  6
CONTINUOUS
 10
5.773240
 20
8.063000
  0
VERTEX
  8
0
  6
CONTINUOUS
 10
5.806240
 20
8.029560
  0
VERTEX
  8
0
  6
CONTINUOUS
 10
5.847160
 20
7.995680
  0
VERTEX
  8
0
  6
CONTINUOUS
 10
5.878400
 20
7.972800
  0
VERTEX
  8
0
  6
CONTINUOUS
 10
5.894240
 20
7.956080
  0
VERTEX
  8
0
  6
CONTINUOUS
 10
5.908760
 20
7.933640
  0
VERTEX
  8
0
  6
CONTINUOUS
 10
5.920640
 20
7.906800
  0
VERTEX
  8
0
  6
CONTINUOUS
 10
5.927240
 20
7.876000
  0
VERTEX
  8
0
  6
CONTINUOUS
 10
5.928560
 20
7.859720
  0
VERTEX
  8
0
  6
CONTINUOUS
 10
5.928120
 20
7.842560
  0
VERTEX
  8
0
  6
CONTINUOUS
 10
5.925480
 20
7.824520
  0
VERTEX
  8
0
  6
CONTINUOUS
 10
5.917560
 20
7.796800
  0
VERTEX
  8
0
  6
CONTINUOUS
 10
5.903920
 20
7.768640
  0
VERTEX
  8
0
  6
CONTINUOUS
 10
5.884120
 20
7.739600
  0
VERTEX
  8
0
  6
CONTINUOUS
 10
5.875760
 20
7.729920
  0
VERTEX
  8
0
  6
CONTINUOUS
 10
5.907440
 20
7.708360
  0
VERTEX
  8
0
  6
CONTINUOUS
 10
5.935160
 20
7.681520
  0
VERTEX
  8
0
  6
CONTINUOUS
 10
5.958920
 20
7.650280
  0
VERTEX
  8
0
  6
CONTINUOUS
 10
5.979160
 20
7.615520
  0
VERTEX
  8
0
  6
CONTINUOUS
 10
5.995440
 20
7.577680
  0
VERTEX
  8
0
  6
CONTINUOUS
 10
6.008200
 20
7.538080
  0
VERTEX
  8
0
  6
CONTINUOUS
 10
6.017440
 20
7.497600
  0
VERTEX
  8
0
  6
CONTINUOUS
 10
6.023160
 20
7.456680
  0
VERTEX
  8
0
  6
CONTINUOUS
 10
6.025360
 20
7.416640
  0
VERTEX
  8
0
  6
CONTINUOUS
 10
6.025360
 20
7.396840
  0
VERTEX
  8
0
  6
CONTINUOUS
 10
6.022280
 20
7.359440
  0
VERTEX
  8
0
  6
CONTINUOUS
 10
6.015680
 20
7.324680
  0
VERTEX
  8
0
  6
CONTINUOUS
 10
6.011280
 20
7.308400
  0
VERTEX
  8
0
  6
CONTINUOUS
 10
5.999400
 20
7.279360
  0
VERTEX
  8
0
  6
CONTINUOUS
 10
5.984440
 20
7.254720
  0
VERTEX
  8
0
  6
CONTINUOUS
 10
5.966400
 20
7.236240
  0
VERTEX
  8
0
  6
CONTINUOUS
 10
5.944840
 20
7.224360
  0
VERTEX
  8
0
  6
CONTINUOUS
 10
5.503080
 20
7.224800
  0
VERTEX
  8
0
  6
CONTINUOUS
 10
5.503080
 20
7.474720
  0
VERTEX
  8
0
  6
CONTINUOUS
 10
5.504400
 20
7.474720
  0
VERTEX
  8
0
  6
CONTINUOUS
 10
3.777400
 20
7.474720
  0
VERTEX
  8
0
  6
CONTINUOUS
 10
3.777400
 20
7.224800
  0
VERTEX
  8
0
  6
CONTINUOUS
 10
3.335640
 20
7.224360
  0
VERTEX
  8
0
  6
CONTINUOUS
 10
3.314080
 20
7.236240
  0
VERTEX
  8
0
  6
CONTINUOUS
 10
3.296040
 20
7.254720
  0
VERTEX
  8
0
  6
CONTINUOUS
 10
3.281080
 20
7.279360
  0
VERTEX
  8
0
  6
CONTINUOUS
 10
3.269200
 20
7.308400
  0
VERTEX
  8
0
  6
CONTINUOUS
 10
3.261280
 20
7.341400
  0
VERTEX
  8
0
  6
CONTINUOUS
 10
3.256440
 20
7.377920
  0
VERTEX
  8
0
  6
CONTINUOUS
 10
3.255120
 20
7.416640
  0
VERTEX
  8
0
  6
CONTINUOUS
 10
3.257320
 20
7.456680
  0
VERTEX
  8
0
  6
CONTINUOUS
 10
3.263040
 20
7.497600
  0
VERTEX
  8
0
  6
CONTINUOUS
 10
3.272280
 20
7.538080
  0
VERTEX
  8
0
  6
CONTINUOUS
 10
3.285040
 20
7.577680
  0
VERTEX
  8
0
  6
CONTINUOUS
 10
3.301320
 20
7.615520
  0
VERTEX
  8
0
  6
CONTINUOUS
 10
3.321560
 20
7.650280
  0
VERTEX
  8
0
  6
CONTINUOUS
 10
3.345320
 20
7.681520
  0
VERTEX
  8
0
  6
CONTINUOUS
 10
3.373040
 20
7.708360
  0
VERTEX
  8
0
  6
CONTINUOUS
 10
3.404720
 20
7.729920
  0
VERTEX
  8
0
  6
CONTINUOUS
 10
3.382280
 20
7.758960
  0
VERTEX
  8
0
  6
CONTINUOUS
 10
3.366880
 20
7.787560
  0
VERTEX
  8
0
  6
CONTINUOUS
 10
3.359400
 20
7.806040
  0
VERTEX
  8
0
  6
CONTINUOUS
 10
3.354560
 20
7.824520
  0
VERTEX
  8
0
  6
CONTINUOUS
 10
3.351480
 20
7.859720
  0
VERTEX
  8
0
  6
CONTINUOUS
 10
3.352800
 20
7.876000
  0
VERTEX
  8
0
  6
CONTINUOUS
 10
3.359840
 20
7.906800
  0
VERTEX
  8
0
  6
CONTINUOUS
 10
3.365120
 20
7.920880
  0
VERTEX
  8
0
  6
CONTINUOUS
 10
3.378760
 20
7.945520
  0
VERTEX
  8
0
  6
CONTINUOUS
 10
3.394160
 20
7.964880
  0
VERTEX
  8
0
  6
CONTINUOUS
 10
3.402080
 20
7.972800
  0
VERTEX
  8
0
  6
CONTINUOUS
 10
3.461480
 20
8.018120
  0
VERTEX
  8
0
  6
CONTINUOUS
 10
3.497120
 20
8.052000
  0
VERTEX
  8
0
  6
CONTINUOUS
 10
3.533200
 20
8.096440
  0
VERTEX
  8
0
  6
CONTINUOUS
 10
3.546840
 20
8.118440
  0
VERTEX
  8
0
  6
CONTINUOUS
 10
3.562240
 20
8.151440
  0
VERTEX
  8
0
  6
CONTINUOUS
 10
3.568840
 20
8.173440
  0
VERTEX
  8
0
  6
CONTINUOUS
 10
3.573240
 20
8.195000
  0
VERTEX
  8
0
  6
CONTINUOUS
 10
3.575000
 20
8.216560
  0
VERTEX
  8
0
  6
CONTINUOUS
 10
3.574560
 20
8.238120
  0
VERTEX
  8
0
  6
CONTINUOUS
 10
3.571480
 20
8.259680
  0
VERTEX
  8
0
  6
CONTINUOUS
 10
3.566640
 20
8.280800
  0
VERTEX
  8
0
  6
CONTINUOUS
 10
3.560040
 20
8.301920
  0
VERTEX
  8
0
  6
CONTINUOUS
 10
3.551240
 20
8.323040
  0
VERTEX
  8
0
  6
CONTINUOUS
 10
3.528800
 20
8.364840
  0
VERTEX
  8
0
  6
CONTINUOUS
 10
3.500200
 20
8.405760
  0
VERTEX
  8
0
  6
CONTINUOUS
 10
3.466320
 20
8.446680
  0
VERTEX
  8
0
  6
CONTINUOUS
 10
3.408240
 20
8.506520
  0
VERTEX
  8
0
  6
CONTINUOUS
 10
3.343560
 20
8.565480
  0
VERTEX
  8
0
  6
CONTINUOUS
 10
3.239720
 20
8.654360
  0
VERTEX
  8
0
  6
CONTINUOUS
 10
3.214200
 20
8.683400
  0
VERTEX
  8
0
  6
CONTINUOUS
 10
3.191320
 20
8.717720
  0
VERTEX
  8
0
  6
CONTINUOUS
 10
3.171520
 20
8.757320
  0
VERTEX
  8
0
  6
CONTINUOUS
 10
3.154800
 20
8.800440
  0
VERTEX
  8
0
  6
CONTINUOUS
 10
3.142920
 20
8.846640
  0
VERTEX
  8
0
  6
CONTINUOUS
 10
3.138520
 20
8.870400
  0
VERTEX
  8
0
  6
CONTINUOUS
 10
3.134120
 20
8.919680
  0
VERTEX
  8
0
  6
CONTINUOUS
 10
3.134120
 20
8.944320
  0
VERTEX
  8
0
  6
CONTINUOUS
 10
3.138960
 20
8.994480
  0
VERTEX
  8
0
  6
CONTINUOUS
 10
3.150840
 20
9.043760
  0
VERTEX
  8
0
  6
CONTINUOUS
 10
3.170200
 20
9.091280
  0
VERTEX
  8
0
  6
CONTINUOUS
 10
3.183400
 20
9.114600
  0
VERTEX
  8
0
  6
CONTINUOUS
 10
3.206720
 20
9.147600
  0
VERTEX
  8
0
  6
CONTINUOUS
 10
3.234880
 20
9.178840
  0
VERTEX
  8
0
  6
CONTINUOUS
 10
3.256880
 20
9.198640
  0
VERTEX
  8
0
  6
CONTINUOUS
 10
3.294720
 20
9.225920
  0
VERTEX
  8
0
  6
CONTINUOUS
 10
3.338720
 20
9.250120
  0
VERTEX
  8
0
  6
CONTINUOUS
 10
3.388440
 20
9.271240
  0
VERTEX
  8
0
  6
CONTINUOUS
 10
3.444760
 20
9.288400
  0
VERTEX
  8
0
  6
CONTINUOUS
 10
4.596240
 20
9.615320
  0
VERTEX
  8
0
  6
CONTINUOUS
 10
4.625720
 20
9.623240
  0
VERTEX
  8
0
  6
CONTINUOUS
 10
4.647720
 20
9.623680
  0
SEQEND
  8
0
  0
POLYLINE
  8
0
  6
CONTINUOUS
 66
     1
 40
0.000000
 41
0.000000
  0
VERTEX
  8
0
  6
CONTINUOUS
 10
4.647720
 20
3.077800
  0
VERTEX
  8
0
  6
CONTINUOUS
 10
4.663120
 20
3.075600
  0
VERTEX
  8
0
  6
CONTINUOUS
 10
5.873560
 20
2.731520
  0
VERTEX
  8
0
  6
CONTINUOUS
 10
5.925480
 20
2.711720
  0
VERTEX
  8
0
  6
CONTINUOUS
 10
5.971240
 20
2.688400
  0
VERTEX
  8
0
  6
CONTINUOUS
 10
5.998520
 20
2.671240
  0
VERTEX
  8
0
  6
CONTINUOUS
 10
6.023160
 20
2.652760
  0
VERTEX
  8
0
  6
CONTINUOUS
 10
6.055280
 20
2.622840
  0
VERTEX
  8
0
  6
CONTINUOUS
 10
6.081680
 20
2.591160
  0
VERTEX
  8
0
  6
CONTINUOUS
 10
6.097080
 20
2.568720
  0
VERTEX
  8
0
  6
CONTINUOUS
 10
6.109840
 20
2.545400
  0
VERTEX
  8
0
  6
CONTINUOUS
 10
6.120400
 20
2.522080
  0
VERTEX
  8
0
  6
CONTINUOUS
 10
6.129200
 20
2.497880
  0
VERTEX
  8
0
  6
CONTINUOUS
 10
6.136240
 20
2.473240
  0
VERTEX
  8
0
  6
CONTINUOUS
 10
6.144600
 20
2.423520
  0
VERTEX
  8
0
  6
CONTINUOUS
 10
6.145920
 20
2.373800
  0
VERTEX
  8
0
  6
CONTINUOUS
 10
6.144600
 20
2.349160
  0
VERTEX
  8
0
  6
CONTINUOUS
 10
6.137560
 20
2.300760
  0
VERTEX
  8
0
  6
CONTINUOUS
 10
6.125240
 20
2.254560
  0
VERTEX
  8
0
  6
CONTINUOUS
 10
6.108960
 20
2.211440
  0
VERTEX
  8
0
  6
CONTINUOUS
 10
6.089160
 20
2.172280
  0
VERTEX
  8
0
  6
CONTINUOUS
 10
6.066280
 20
2.137520
  0
VERTEX
  8
0
  6
CONTINUOUS
 10
6.040760
 20
2.108480
  0
VERTEX
  8
0
  6
CONTINUOUS
 10
5.936920
 20
2.020040
  0
VERTEX
  8
0
  6
CONTINUOUS
 10
5.872240
 20
1.961080
  0
VERTEX
  8
0
  6
CONTINUOUS
 10
5.814160
 20
1.900800
  0
VERTEX
  8
0
  6
CONTINUOUS
 10
5.780280
 20
1.860320
  0
VERTEX
  8
0
  6
CONTINUOUS
 10
5.751680
 20
1.818960
  0
VERTEX
  8
0
  6
CONTINUOUS
 10
5.729240
 20
1.777600
  0
VERTEX
  8
0
  6
CONTINUOUS
 10
5.720440
 20
1.756480
  0
VERTEX
  8
0
  6
CONTINUOUS
 10
5.708560
 20
1.714240
  0
VERTEX
  8
0
  6
CONTINUOUS
 10
5.705920
 20
1.692680
  0
VERTEX
  8
0
  6
CONTINUOUS
 10
5.705480
 20
1.671120
  0
VERTEX
  8
0
  6
CONTINUOUS
 10
5.707240
 20
1.649560
  0
VERTEX
  8
0
  6
CONTINUOUS
 10
5.714280
 20
1.617000
  0
VERTEX
  8
0
  6
CONTINUOUS
 10
5.727480
 20
1.584440
  0
VERTEX
  8
0
  6
CONTINUOUS
 10
5.746840
 20
1.551000
  0
VERTEX
  8
0
  6
CONTINUOUS
 10
5.772800
 20
1.517560
  0
VERTEX
  8
0
  6
CONTINUOUS
 10
5.818560
 20
1.472680
  0
VERTEX
  8
0
  6
CONTINUOUS
 10
5.877960
 20
1.427360
  0
VERTEX
  8
0
  6
CONTINUOUS
 10
5.893800
 20
1.410640
  0
VERTEX
  8
0
  6
CONTINUOUS
 10
5.908320
 20
1.388200
  0
VERTEX
  8
0
  6
CONTINUOUS
 10
5.914920
 20
1.375440
  0
VERTEX
  8
0
  6
CONTINUOUS
 10
5.924160
 20
1.346400
  0
VERTEX
  8
0
  6
CONTINUOUS
 10
5.927240
 20
1.330560
  0
VERTEX
  8
0
  6
CONTINUOUS
 10
5.928560
 20
1.314280
  0
VERTEX
  8
0
  6
CONTINUOUS
 10
5.925480
 20
1.279080
  0
VERTEX
  8
0
  6
CONTINUOUS
 10
5.917120
 20
1.251360
  0
VERTEX
  8
0
  6
CONTINUOUS
 10
5.903480
 20
1.223200
  0
VERTEX
  8
0
  6
CONTINUOUS
 10
5.883680
 20
1.194160
  0
VERTEX
  8
0
  6
CONTINUOUS
 10
5.875320
 20
1.184480
  0
VERTEX
  8
0
  6
CONTINUOUS
 10
5.907000
 20
1.162920
  0
VERTEX
  8
0
  6
CONTINUOUS
 10
5.934720
 20
1.136080
  0
VERTEX
  8
0
  6
CONTINUOUS
 10
5.958480
 20
1.104840
  0
VERTEX
  8
0
  6
CONTINUOUS
 10
5.978720
 20
1.069640
  0
VERTEX
  8
0
  6
CONTINUOUS
 10
5.995440
 20
1.032240
  0
VERTEX
  8
0
  6
CONTINUOUS
 10
6.013480
 20
0.972400
  0
VERTEX
  8
0
  6
CONTINUOUS
 10
6.023160
 20
0.910800
  0
VERTEX
  8
0
  6
CONTINUOUS
 10
6.025360
 20
0.870760
  0
VERTEX
  8
0
  6
CONTINUOUS
 10
6.024040
 20
0.832040
  0
VERTEX
  8
0
  6
CONTINUOUS
 10
6.019200
 20
0.795520
  0
VERTEX
  8
0
  6
CONTINUOUS
 10
6.010840
 20
0.762520
  0
VERTEX
  8
0
  6
CONTINUOUS
 10
5.999400
 20
0.733480
  0
VERTEX
  8
0
  6
CONTINUOUS
 10
5.984440
 20
0.708840
  0
VERTEX
  8
0
  6
CONTINUOUS
 10
5.966400
 20
0.690360
  0
VERTEX
  8
0
  6
CONTINUOUS
 10
5.944840
 20
0.678480
  0
VERTEX
  8
0
  6
CONTINUOUS
 10
5.502640
 20
0.678920
  0
VERTEX
  8
0
  6
CONTINUOUS
 10
5.502640
 20
0.929280
  0
VERTEX
  8
0
  6
CONTINUOUS
 10
5.503960
 20
0.929280
  0
VERTEX
  8
0
  6
CONTINUOUS
 10
3.777400
 20
0.929280
  0
VERTEX
  8
0
  6
CONTINUOUS
 10
3.777400
 20
0.678920
  0
VERTEX
  8
0
  6
CONTINUOUS
 10
3.335200
 20
0.678480
  0
VERTEX
  8
0
  6
CONTINUOUS
 10
3.313640
 20
0.690360
  0
VERTEX
  8
0
  6
CONTINUOUS
 10
3.295600
 20
0.708840
  0
VERTEX
  8
0
  6
CONTINUOUS
 10
3.280640
 20
0.733480
  0
VERTEX
  8
0
  6
CONTINUOUS
 10
3.269200
 20
0.762520
  0
VERTEX
  8
0
  6
CONTINUOUS
 10
3.260840
 20
0.795520
  0
VERTEX
  8
0
  6
CONTINUOUS
 10
3.256440
 20
0.832040
  0
VERTEX
  8
0
  6
CONTINUOUS
 10
3.255120
 20
0.870760
  0
VERTEX
  8
0
  6
CONTINUOUS
 10
3.257320
 20
0.910800
  0
VERTEX
  8
0
  6
CONTINUOUS
 10
3.262600
 20
0.951720
  0
VERTEX
  8
0
  6
CONTINUOUS
 10
3.271840
 20
0.992640
  0
VERTEX
  8
0
  6
CONTINUOUS
 10
3.292520
 20
1.051160
  0
VERTEX
  8
0
  6
CONTINUOUS
 10
3.311000
 20
1.087680
  0
VERTEX
  8
0
  6
CONTINUOUS
 10
3.333000
 20
1.120680
  0
VERTEX
  8
0
  6
CONTINUOUS
 10
3.345320
 20
1.136080
  0
VERTEX
  8
0
  6
CONTINUOUS
 10
3.373040
 20
1.162920
  0
VERTEX
  8
0
  6
CONTINUOUS
 10
3.404720
 20
1.184480
  0
VERTEX
  8
0
  6
CONTINUOUS
 10
3.382280
 20
1.213520
  0
VERTEX
  8
0
  6
CONTINUOUS
 10
3.366880
 20
1.242120
  0
VERTEX
  8
0
  6
CONTINUOUS
 10
3.359400
 20
1.260600
  0
VERTEX
  8
0
  6
CONTINUOUS
 10
3.354560
 20
1.279080
  0
VERTEX
  8
0
  6
CONTINUOUS
 10
3.351480
 20
1.314280
  0
VERTEX
  8
0
  6
CONTINUOUS
 10
3.352800
 20
1.330560
  0
VERTEX
  8
0
  6
CONTINUOUS
 10
3.359840
 20
1.361360
  0
VERTEX
  8
0
  6
CONTINUOUS
 10
3.365120
 20
1.375440
  0
VERTEX
  8
0
  6
CONTINUOUS
 10
3.378760
 20
1.400080
  0
VERTEX
  8
0
  6
CONTINUOUS
 10
3.394160
 20
1.419440
  0
VERTEX
  8
0
  6
CONTINUOUS
 10
3.402080
 20
1.427360
  0
VERTEX
  8
0
  6
CONTINUOUS
 10
3.461480
 20
1.472680
  0
VERTEX
  8
0
  6
CONTINUOUS
 10
3.497120
 20
1.506560
  0
VERTEX
  8
0
  6
CONTINUOUS
 10
3.533200
 20
1.551000
  0
VERTEX
  8
0
  6
CONTINUOUS
 10
3.546840
 20
1.573000
  0
VERTEX
  8
0
  6
CONTINUOUS
 10
3.562240
 20
1.606000
  0
VERTEX
  8
0
  6
CONTINUOUS
 10
3.568840
 20
1.628000
  0
VERTEX
  8
0
  6
CONTINUOUS
 10
3.573240
 20
1.649560
  0
VERTEX
  8
0
  6
CONTINUOUS
 10
3.575000
 20
1.671120
  0
VERTEX
  8
0
  6
CONTINUOUS
 10
3.574560
 20
1.692680
  0
VERTEX
  8
0
  6
CONTINUOUS
 10
3.571480
 20
1.714240
  0
VERTEX
  8
0
  6
CONTINUOUS
 10
3.566640
 20
1.735360
  0
VERTEX
  8
0
  6
CONTINUOUS
 10
3.560040
 20
1.756480
  0
VERTEX
  8
0
  6
CONTINUOUS
 10
3.551240
 20
1.777600
  0
VERTEX
  8
0
  6
CONTINUOUS
 10
3.528800
 20
1.818960
  0
VERTEX
  8
0
  6
CONTINUOUS
 10
3.500200
 20
1.860320
  0
VERTEX
  8
0
  6
CONTINUOUS
 10
3.447840
 20
1.921040
  0
VERTEX
  8
0
  6
CONTINUOUS
 10
3.387120
 20
1.980880
  0
VERTEX
  8
0
  6
CONTINUOUS
 10
3.298680
 20
2.058320
  0
VERTEX
  8
0
  6
CONTINUOUS
 10
3.239720
 20
2.108480
  0
VERTEX
  8
0
  6
CONTINUOUS
 10
3.214200
 20
2.137520
  0
VERTEX
  8
0
  6
CONTINUOUS
 10
3.191320
 20
2.172280
  0
VERTEX
  8
0
  6
CONTINUOUS
 10
3.180760
 20
2.191200
  0
VERTEX
  8
0
  6
CONTINUOUS
 10
3.162720
 20
2.232560
  0
VERTEX
  8
0
  6
CONTINUOUS
 10
3.148200
 20
2.277440
  0
VERTEX
  8
0
  6
CONTINUOUS
 10
3.138520
 20
2.324960
  0
VERTEX
  8
0
  6
CONTINUOUS
 10
3.134120
 20
2.373800
  0
VERTEX
  8
0
  6
CONTINUOUS
 10
3.134120
 20
2.398880
  0
VERTEX
  8
0
  6
CONTINUOUS
 10
3.138960
 20
2.448600
  0
VERTEX
  8
0
  6
CONTINUOUS
 10
3.150840
 20
2.497880
  0
VERTEX
  8
0
  6
CONTINUOUS
 10
3.159640
 20
2.522080
  0
VERTEX
  8
0
  6
CONTINUOUS
 10
3.170200
 20
2.545400
  0
VERTEX
  8
0
  6
CONTINUOUS
 10
3.183400
 20
2.568720
  0
VERTEX
  8
0
  6
CONTINUOUS
 10
3.206720
 20
2.601720
  0
VERTEX
  8
0
  6
CONTINUOUS
 10
3.234880
 20
2.633400
  0
VERTEX
  8
0
  6
CONTINUOUS
 10
3.256880
 20
2.652760
  0
VERTEX
  8
0
  6
CONTINUOUS
 10
3.294720
 20
2.680040
  0
VERTEX
  8
0
  6
CONTINUOUS
 10
3.338720
 20
2.704240
  0
VERTEX
  8
0
  6
CONTINUOUS
 10
3.388440
 20
2.725360
  0
VERTEX
  8
0
  6
CONTINUOUS
 10
3.444760
 20
2.742520
  0
VERTEX
  8
0
  6
CONTINUOUS
 10
4.617360
 20
3.075600
  0
VERTEX
  8
0
  6
CONTINUOUS
 10
4.632760
 20
3.077800
  0
VERTEX
  8
0
  6
CONTINUOUS
 10
4.647720
 20
3.077800
  0
SEQEND
  8
0
  0
ENDSEC
  0
EOF
