  0
SECTION
  2
HEADER
  9
$ACADVER
  1
AC1006
  9
$EXTMIN
 10
2.165240
 20
2.648360
  9
$EXTMAX
 10
6.216760
 20
6.590760
  9
$LTSCALE
 40
0.044000
  9
$PDMODE
 70
    35
  9
$PDSIZE
 40
0.035200
  0
ENDSEC
  0
SECTION
  2
TABLES
  0
TABLE
  2
LTYPE
 70
     9
  0
LTYPE
  2
CONTINUOUS
 70
    64
  3
Solid line
 72
    65
 73
     0
 40
0.000000
  0
LTYPE
  2
DASHED
 70
    64
  3
__ __ __ __ __ __ __ __ __ __ __ __ __ __ __
 72
    65
 73
     2
 40
0.000330
 49
0.000220
 49
-0.000110
  0
LTYPE
  2
HIDDEN
 70
    64
  3
 _ _ _ _ _ _ _ _ _ _ _ _ _ _ _ _ _ _ _ _ _ _
 72
    65
 73
     2
 40
0.000165
 49
0.000110
 49
-0.000055
  0
LTYPE
  2
CENTER
 70
    64
  3
____ _ ____ _ ____ _ ____ _ ____ _ ____ _ ____
 72
    65
 73
     4
 40
0.000880
 49
0.000550
 49
-0.000110
 49
0.000110
 49
-0.000110
  0
LTYPE
  2
PHANTOM
 70
    64
  3
_____ _ _ _____ _ _ _____ _ _ _____ _ _ ____
 72
    65
 73
     6
 40
0.001100
 49
0.000550
 49
-0.000110
 49
0.000110
 49
-0.000110
 49
0.000110
 49
-0.000110
  0
LTYPE
  2
DOT
 70
    64
  3
...............................................
 72
    65
 73
     2
 40
0.000110
 49
0.000000
 49
-0.000110
  0
LTYPE
  2
DASHDOT
 70
    64
  3
__ . __ . __ . __ . __ . __ . __ . __ . __ . __
 72
    65
 73
     4
 40
0.000440
 49
0.000220
 49
-0.000110
 49
0.000000
 49
-0.000110
  0
LTYPE
  2
BORDER
 70
    64
  3
__ __ . __ __ . __ __ . __ __ . __ __ . __ __
 72
    65
 73
     6
 40
0.000770
 49
0.000220
 49
-0.000110
 49
0.000220
 49
-0.000110
 49
0.000000
 49
-0.000110
  0
LTYPE
  2
DIVIDE
 70
    64
  3
__ . . __ . . __ . . __ . . __ . . __ . . __
 72
    65
 73
     6
 40
0.000550
 49
0.000220
 49
-0.000110
 49
0.000000
 49
-0.000110
 49
0.000000
 49
-0.000110
  0
LTYPE
  2
DOTDOT
 70
    64
  3
 . .  . .  . .  . .  . .  . . 
 72
    65
 73
     5
 40
0.000242
 49
-0.000110
 49
0.000000
 49
-0.000110
 49
0.000000
 49
-0.000110
  0
ENDTAB
  0
TABLE
  2
STYLE
 70
     2
  0
STYLE
 70
     0
  2
SN0
 40
0.000000
 41
0.000440
 50
0.000000
 71
     0
 42
0.000000
  3
ROMAND
  0
STYLE
 70
    68
  2
SV0
 40
0.000000
 41
0.000440
 50
0.000000
 71
     0
 42
0.000000
  3
ROMAND
  0
ENDTAB
  0
TABLE
  2
LAYER
 70
     3
  0
LAYER
  2
FOREGROUND
 70
    64
 62
     7
  6
CONTINUOUS
  0
LAYER
  2
BACKGROUND
 70
    65
 62
    -7
  6
CONTINUOUS
  0
LAYER
  2
0
 70
    64
 62
     7
  6
CONTINUOUS
  0
ENDTAB
  0
ENDSEC
  0
SECTION
  2
ENTITIES
  0
POLYLINE
  8
FOREGROUND
  6
CONTINUOUS
 66
     1
 40
0.000000
 41
0.000000
  0
VERTEX
  8
FOREGROUND
  6
CONTINUOUS
 10
0.000000
 20
9.239120
  0
VERTEX
  8
FOREGROUND
  6
CONTINUOUS
 10
8.499920
 20
9.239120
  0
VERTEX
  8
FOREGROUND
  6
CONTINUOUS
 10
8.499920
 20
-1.760880
  0
VERTEX
  8
FOREGROUND
  6
CONTINUOUS
 10
0.000000
 20
-1.760880
  0
VERTEX
  8
FOREGROUND
  6
CONTINUOUS
 10
0.000000
 20
9.239120
  0
SEQEND
  8
0
  0
POLYLINE
  8
FOREGROUND
  6
CONTINUOUS
 66
     1
 40
0.000000
 41
0.000000
  0
VERTEX
  8
FOREGROUND
  6
CONTINUOUS
 10
0.000000
 20
9.239120
  0
VERTEX
  8
FOREGROUND
  6
CONTINUOUS
 10
8.499920
 20
9.239120
  0
VERTEX
  8
FOREGROUND
  6
CONTINUOUS
 10
8.499920
 20
-1.760880
  0
VERTEX
  8
FOREGROUND
  6
CONTINUOUS
 10
0.000000
 20
-1.760880
  0
VERTEX
  8
FOREGROUND
  6
CONTINUOUS
 10
0.000000
 20
9.239120
  0
SEQEND
  8
0
  0
POLYLINE
  8
0
  6
CONTINUOUS
 66
     1
 40
0.000000
 41
0.000000
  0
VERTEX
  8
0
  6
CONTINUOUS
 10
6.215880
 20
6.590320
  0
VERTEX
  8
0
  6
CONTINUOUS
 10
6.215880
 20
5.841000
  0
VERTEX
  8
0
  6
CONTINUOUS
 10
2.255440
 20
5.841000
  0
VERTEX
  8
0
  6
CONTINUOUS
 10
2.255440
 20
6.589880
  0
VERTEX
  8
0
  6
CONTINUOUS
 10
2.373800
 20
6.556440
  0
VERTEX
  8
0
  6
CONTINUOUS
 10
2.492600
 20
6.524760
  0
VERTEX
  8
0
  6
CONTINUOUS
 10
2.612280
 20
6.495280
  0
VERTEX
  8
0
  6
CONTINUOUS
 10
2.732840
 20
6.467560
  0
VERTEX
  8
0
  6
CONTINUOUS
 10
2.854280
 20
6.442040
  0
VERTEX
  8
0
  6
CONTINUOUS
 10
2.976600
 20
6.418720
  0
VERTEX
  8
0
  6
CONTINUOUS
 10
3.099360
 20
6.397600
  0
VERTEX
  8
0
  6
CONTINUOUS
 10
3.223000
 20
6.378680
  0
VERTEX
  8
0
  6
CONTINUOUS
 10
3.347520
 20
6.361960
  0
VERTEX
  8
0
  6
CONTINUOUS
 10
3.472480
 20
6.347000
  0
VERTEX
  8
0
  6
CONTINUOUS
 10
3.597880
 20
6.334680
  0
VERTEX
  8
0
  6
CONTINUOUS
 10
3.724600
 20
6.324560
  0
VERTEX
  8
0
  6
CONTINUOUS
 10
3.851320
 20
6.316640
  0
VERTEX
  8
0
  6
CONTINUOUS
 10
3.978920
 20
6.310480
  0
VERTEX
  8
0
  6
CONTINUOUS
 10
4.106960
 20
6.307400
  0
VERTEX
  8
0
  6
CONTINUOUS
 10
4.235880
 20
6.306080
  0
VERTEX
  8
0
  6
CONTINUOUS
 10
4.364360
 20
6.307400
  0
VERTEX
  8
0
  6
CONTINUOUS
 10
4.492840
 20
6.310480
  0
VERTEX
  8
0
  6
CONTINUOUS
 10
4.620000
 20
6.316640
  0
VERTEX
  8
0
  6
CONTINUOUS
 10
4.747160
 20
6.324560
  0
VERTEX
  8
0
  6
CONTINUOUS
 10
4.873440
 20
6.334680
  0
VERTEX
  8
0
  6
CONTINUOUS
 10
4.999280
 20
6.347000
  0
VERTEX
  8
0
  6
CONTINUOUS
 10
5.124240
 20
6.361960
  0
VERTEX
  8
0
  6
CONTINUOUS
 10
5.248760
 20
6.378680
  0
VERTEX
  8
0
  6
CONTINUOUS
 10
5.372400
 20
6.397600
  0
VERTEX
  8
0
  6
CONTINUOUS
 10
5.495160
 20
6.419160
  0
VERTEX
  8
0
  6
CONTINUOUS
 10
5.617480
 20
6.442480
  0
VERTEX
  8
0
  6
CONTINUOUS
 10
5.738920
 20
6.467560
  0
VERTEX
  8
0
  6
CONTINUOUS
 10
5.859480
 20
6.495280
  0
VERTEX
  8
0
  6
CONTINUOUS
 10
5.979160
 20
6.524760
  0
VERTEX
  8
0
  6
CONTINUOUS
 10
6.097960
 20
6.556440
  0
VERTEX
  8
0
  6
CONTINUOUS
 10
6.216320
 20
6.590320
  0
SEQEND
  8
0
  0
SOLID
  8
0
 62
    15
 10
3.889600
 20
3.806880
 11
3.895760
 21
4.556640
 12
4.146560
 22
3.802040
 13
4.152720
 23
4.552240
  0
POLYLINE
  8
0
  6
CONTINUOUS
 66
     1
 40
0.000000
 41
0.000000
  0
VERTEX
  8
0
  6
CONTINUOUS
 10
3.889600
 20
3.806880
  0
VERTEX
  8
0
  6
CONTINUOUS
 10
3.895760
 20
4.556640
  0
VERTEX
  8
0
  6
CONTINUOUS
 10
4.152720
 20
4.552240
  0
VERTEX
  8
0
  6
CONTINUOUS
 10
4.146560
 20
3.802040
  0
VERTEX
  8
0
  6
CONTINUOUS
 10
3.889600
 20
3.806880
  0
SEQEND
  8
0
  0
SOLID
  8
0
 62
    15
 10
2.166120
 20
4.086280
 11
2.172280
 21
4.836040
 12
2.403280
 22
4.021160
 13
2.409000
 23
4.770920
  0
POLYLINE
  8
0
  6
CONTINUOUS
 66
     1
 40
0.000000
 41
0.000000
  0
VERTEX
  8
0
  6
CONTINUOUS
 10
2.166120
 20
4.086280
  0
VERTEX
  8
0
  6
CONTINUOUS
 10
2.172280
 20
4.836040
  0
VERTEX
  8
0
  6
CONTINUOUS
 10
2.409000
 20
4.770920
  0
VERTEX
  8
0
  6
CONTINUOUS
 10
2.403280
 20
4.021160
  0
VERTEX
  8
0
  6
CONTINUOUS
 10
2.166120
 20
4.086280
  0
SEQEND
  8
0
  0
SOLID
  8
0
 62
    15
 10
2.403280
 20
4.021160
 11
2.409000
 21
4.770920
 12
2.643520
 22
3.963960
 13
2.649680
 23
4.713720
  0
POLYLINE
  8
0
  6
CONTINUOUS
 66
     1
 40
0.000000
 41
0.000000
  0
VERTEX
  8
0
  6
CONTINUOUS
 10
2.403280
 20
4.021160
  0
VERTEX
  8
0
  6
CONTINUOUS
 10
2.409000
 20
4.770920
  0
VERTEX
  8
0
  6
CONTINUOUS
 10
2.649680
 20
4.713720
  0
VERTEX
  8
0
  6
CONTINUOUS
 10
2.643520
 20
3.963960
  0
VERTEX
  8
0
  6
CONTINUOUS
 10
2.403280
 20
4.021160
  0
SEQEND
  8
0
  0
SOLID
  8
0
 62
    15
 10
2.643520
 20
3.963960
 11
2.649680
 21
4.713720
 12
2.887280
 22
3.915120
 13
2.893440
 23
4.665320
  0
POLYLINE
  8
0
  6
CONTINUOUS
 66
     1
 40
0.000000
 41
0.000000
  0
VERTEX
  8
0
  6
CONTINUOUS
 10
2.643520
 20
3.963960
  0
VERTEX
  8
0
  6
CONTINUOUS
 10
2.649680
 20
4.713720
  0
VERTEX
  8
0
  6
CONTINUOUS
 10
2.893440
 20
4.665320
  0
VERTEX
  8
0
  6
CONTINUOUS
 10
2.887280
 20
3.915120
  0
VERTEX
  8
0
  6
CONTINUOUS
 10
2.643520
 20
3.963960
  0
SEQEND
  8
0
  0
SOLID
  8
0
 62
    15
 10
2.887280
 20
3.915120
 11
2.893440
 21
4.665320
 12
3.133680
 22
3.875080
 13
3.139840
 23
4.624840
  0
POLYLINE
  8
0
  6
CONTINUOUS
 66
     1
 40
0.000000
 41
0.000000
  0
VERTEX
  8
0
  6
CONTINUOUS
 10
2.887280
 20
3.915120
  0
VERTEX
  8
0
  6
CONTINUOUS
 10
2.893440
 20
4.665320
  0
VERTEX
  8
0
  6
CONTINUOUS
 10
3.139840
 20
4.624840
  0
VERTEX
  8
0
  6
CONTINUOUS
 10
3.133680
 20
3.875080
  0
VERTEX
  8
0
  6
CONTINUOUS
 10
2.887280
 20
3.915120
  0
SEQEND
  8
0
  0
SOLID
  8
0
 62
    15
 10
3.133680
 20
3.875080
 11
3.139840
 21
4.624840
 12
3.383160
 22
3.843400
 13
3.389320
 23
4.593160
  0
POLYLINE
  8
0
  6
CONTINUOUS
 66
     1
 40
0.000000
 41
0.000000
  0
VERTEX
  8
0
  6
CONTINUOUS
 10
3.133680
 20
3.875080
  0
VERTEX
  8
0
  6
CONTINUOUS
 10
3.139840
 20
4.624840
  0
VERTEX
  8
0
  6
CONTINUOUS
 10
3.389320
 20
4.593160
  0
VERTEX
  8
0
  6
CONTINUOUS
 10
3.383160
 20
3.843400
  0
VERTEX
  8
0
  6
CONTINUOUS
 10
3.133680
 20
3.875080
  0
SEQEND
  8
0
  0
SOLID
  8
0
 62
    15
 10
3.383160
 20
3.843400
 11
3.389320
 21
4.593160
 12
3.635280
 22
3.820520
 13
3.641000
 23
4.570720
  0
POLYLINE
  8
0
  6
CONTINUOUS
 66
     1
 40
0.000000
 41
0.000000
  0
VERTEX
  8
0
  6
CONTINUOUS
 10
3.383160
 20
3.843400
  0
VERTEX
  8
0
  6
CONTINUOUS
 10
3.389320
 20
4.593160
  0
VERTEX
  8
0
  6
CONTINUOUS
 10
3.641000
 20
4.570720
  0
VERTEX
  8
0
  6
CONTINUOUS
 10
3.635280
 20
3.820520
  0
VERTEX
  8
0
  6
CONTINUOUS
 10
3.383160
 20
3.843400
  0
SEQEND
  8
0
  0
SOLID
  8
0
 62
    15
 10
3.635280
 20
3.820520
 11
3.641000
 21
4.570720
 12
3.889600
 22
3.806880
 13
3.895760
 23
4.556640
  0
POLYLINE
  8
0
  6
CONTINUOUS
 66
     1
 40
0.000000
 41
0.000000
  0
VERTEX
  8
0
  6
CONTINUOUS
 10
3.635280
 20
3.820520
  0
VERTEX
  8
0
  6
CONTINUOUS
 10
3.641000
 20
4.570720
  0
VERTEX
  8
0
  6
CONTINUOUS
 10
3.895760
 20
4.556640
  0
VERTEX
  8
0
  6
CONTINUOUS
 10
3.889600
 20
3.806880
  0
VERTEX
  8
0
  6
CONTINUOUS
 10
3.635280
 20
3.820520
  0
SEQEND
  8
0
  0
SOLID
  8
0
 62
    15
 10
6.132720
 20
4.836040
 11
6.132720
 21
4.087600
 12
6.126560
 22
4.086280
 13
6.126560
 23
3.337400
  0
POLYLINE
  8
0
  6
CONTINUOUS
 66
     1
 40
0.000000
 41
0.000000
  0
VERTEX
  8
0
  6
CONTINUOUS
 10
6.132720
 20
4.836040
  0
VERTEX
  8
0
  6
CONTINUOUS
 10
6.132720
 20
4.087600
  0
VERTEX
  8
0
  6
CONTINUOUS
 10
6.126560
 20
3.337400
  0
VERTEX
  8
0
  6
CONTINUOUS
 10
6.126560
 20
4.086280
  0
VERTEX
  8
0
  6
CONTINUOUS
 10
6.132720
 20
4.836040
  0
SEQEND
  8
0
  0
SOLID
  8
0
 62
    15
 10
5.889840
 20
4.021160
 11
5.896000
 21
4.770920
 12
6.127440
 22
4.086280
 13
6.133160
 23
4.836480
  0
POLYLINE
  8
0
  6
CONTINUOUS
 66
     1
 40
0.000000
 41
0.000000
  0
VERTEX
  8
0
  6
CONTINUOUS
 10
5.889840
 20
4.021160
  0
VERTEX
  8
0
  6
CONTINUOUS
 10
5.896000
 20
4.770920
  0
VERTEX
  8
0
  6
CONTINUOUS
 10
6.133160
 20
4.836480
  0
VERTEX
  8
0
  6
CONTINUOUS
 10
6.127440
 20
4.086280
  0
VERTEX
  8
0
  6
CONTINUOUS
 10
5.889840
 20
4.021160
  0
SEQEND
  8
0
  0
SOLID
  8
0
 62
    15
 10
4.146560
 20
3.802040
 11
4.152720
 21
4.552240
 12
4.403520
 22
3.806880
 13
4.409240
 23
4.556640
  0
POLYLINE
  8
0
  6
CONTINUOUS
 66
     1
 40
0.000000
 41
0.000000
  0
VERTEX
  8
0
  6
CONTINUOUS
 10
4.146560
 20
3.802040
  0
VERTEX
  8
0
  6
CONTINUOUS
 10
4.152720
 20
4.552240
  0
VERTEX
  8
0
  6
CONTINUOUS
 10
4.409240
 20
4.556640
  0
VERTEX
  8
0
  6
CONTINUOUS
 10
4.403520
 20
3.806880
  0
VERTEX
  8
0
  6
CONTINUOUS
 10
4.146560
 20
3.802040
  0
SEQEND
  8
0
  0
SOLID
  8
0
 62
    15
 10
4.403520
 20
3.806880
 11
4.409240
 21
4.556640
 12
4.657840
 22
3.820520
 13
4.664000
 23
4.570720
  0
POLYLINE
  8
0
  6
CONTINUOUS
 66
     1
 40
0.000000
 41
0.000000
  0
VERTEX
  8
0
  6
CONTINUOUS
 10
4.403520
 20
3.806880
  0
VERTEX
  8
0
  6
CONTINUOUS
 10
4.409240
 20
4.556640
  0
VERTEX
  8
0
  6
CONTINUOUS
 10
4.664000
 20
4.570720
  0
VERTEX
  8
0
  6
CONTINUOUS
 10
4.657840
 20
3.820520
  0
VERTEX
  8
0
  6
CONTINUOUS
 10
4.403520
 20
3.806880
  0
SEQEND
  8
0
  0
SOLID
  8
0
 62
    15
 10
4.657840
 20
3.820520
 11
4.664000
 21
4.570720
 12
4.909960
 22
3.843400
 13
4.916120
 23
4.593160
  0
POLYLINE
  8
0
  6
CONTINUOUS
 66
     1
 40
0.000000
 41
0.000000
  0
VERTEX
  8
0
  6
CONTINUOUS
 10
4.657840
 20
3.820520
  0
VERTEX
  8
0
  6
CONTINUOUS
 10
4.664000
 20
4.570720
  0
VERTEX
  8
0
  6
CONTINUOUS
 10
4.916120
 20
4.593160
  0
VERTEX
  8
0
  6
CONTINUOUS
 10
4.909960
 20
3.843400
  0
VERTEX
  8
0
  6
CONTINUOUS
 10
4.657840
 20
3.820520
  0
SEQEND
  8
0
  0
SOLID
  8
0
 62
    15
 10
4.909960
 20
3.843400
 11
4.916120
 21
4.593160
 12
5.159440
 22
3.875080
 13
5.165160
 23
4.624840
  0
POLYLINE
  8
0
  6
CONTINUOUS
 66
     1
 40
0.000000
 41
0.000000
  0
VERTEX
  8
0
  6
CONTINUOUS
 10
4.909960
 20
3.843400
  0
VERTEX
  8
0
  6
CONTINUOUS
 10
4.916120
 20
4.593160
  0
VERTEX
  8
0
  6
CONTINUOUS
 10
5.165160
 20
4.624840
  0
VERTEX
  8
0
  6
CONTINUOUS
 10
5.159440
 20
3.875080
  0
VERTEX
  8
0
  6
CONTINUOUS
 10
4.909960
 20
3.843400
  0
SEQEND
  8
0
  0
SOLID
  8
0
 62
    15
 10
5.159440
 20
3.875080
 11
5.165160
 21
4.624840
 12
5.405840
 22
3.915120
 13
5.412000
 23
4.665320
  0
POLYLINE
  8
0
  6
CONTINUOUS
 66
     1
 40
0.000000
 41
0.000000
  0
VERTEX
  8
0
  6
CONTINUOUS
 10
5.159440
 20
3.875080
  0
VERTEX
  8
0
  6
CONTINUOUS
 10
5.165160
 20
4.624840
  0
VERTEX
  8
0
  6
CONTINUOUS
 10
5.412000
 20
4.665320
  0
VERTEX
  8
0
  6
CONTINUOUS
 10
5.405840
 20
3.915120
  0
VERTEX
  8
0
  6
CONTINUOUS
 10
5.159440
 20
3.875080
  0
SEQEND
  8
0
  0
SOLID
  8
0
 62
    15
 10
5.405840
 20
3.915120
 11
5.412000
 21
4.665320
 12
5.649600
 22
3.963960
 13
5.655320
 23
4.714160
  0
POLYLINE
  8
0
  6
CONTINUOUS
 66
     1
 40
0.000000
 41
0.000000
  0
VERTEX
  8
0
  6
CONTINUOUS
 10
5.405840
 20
3.915120
  0
VERTEX
  8
0
  6
CONTINUOUS
 10
5.412000
 20
4.665320
  0
VERTEX
  8
0
  6
CONTINUOUS
 10
5.655320
 20
4.714160
  0
VERTEX
  8
0
  6
CONTINUOUS
 10
5.649600
 20
3.963960
  0
VERTEX
  8
0
  6
CONTINUOUS
 10
5.405840
 20
3.915120
  0
SEQEND
  8
0
  0
SOLID
  8
0
 62
    15
 10
5.649600
 20
3.963960
 11
5.655320
 21
4.714160
 12
5.889840
 22
4.021160
 13
5.896000
 23
4.770920
  0
POLYLINE
  8
0
  6
CONTINUOUS
 66
     1
 40
0.000000
 41
0.000000
  0
VERTEX
  8
0
  6
CONTINUOUS
 10
5.649600
 20
3.963960
  0
VERTEX
  8
0
  6
CONTINUOUS
 10
5.655320
 20
4.714160
  0
VERTEX
  8
0
  6
CONTINUOUS
 10
5.896000
 20
4.770920
  0
VERTEX
  8
0
  6
CONTINUOUS
 10
5.889840
 20
4.021160
  0
VERTEX
  8
0
  6
CONTINUOUS
 10
5.649600
 20
3.963960
  0
SEQEND
  8
0
  0
SOLID
  8
0
 62
    15
 10
6.126560
 20
4.086280
 11
6.132720
 21
4.836480
 12
6.126560
 22
4.086280
 13
6.132720
 23
4.836040
  0
POLYLINE
  8
0
  6
CONTINUOUS
 66
     1
 40
0.000000
 41
0.000000
  0
VERTEX
  8
0
  6
CONTINUOUS
 10
6.126560
 20
4.086280
  0
VERTEX
  8
0
  6
CONTINUOUS
 10
6.132720
 20
4.836480
  0
VERTEX
  8
0
  6
CONTINUOUS
 10
6.132720
 20
4.836040
  0
VERTEX
  8
0
  6
CONTINUOUS
 10
6.126560
 20
4.086280
  0
SEQEND
  8
0
  0
POLYLINE
  8
0
  6
CONTINUOUS
 66
     1
 40
0.000000
 41
0.000000
  0
VERTEX
  8
0
  6
CONTINUOUS
 10
6.126560
 20
4.086280
  0
VERTEX
  8
0
  6
CONTINUOUS
 10
6.126560
 20
3.337400
  0
VERTEX
  8
0
  6
CONTINUOUS
 10
2.166120
 20
3.337400
  0
VERTEX
  8
0
  6
CONTINUOUS
 10
2.166120
 20
4.086280
  0
VERTEX
  8
0
  6
CONTINUOUS
 10
2.403280
 20
4.021160
  0
VERTEX
  8
0
  6
CONTINUOUS
 10
2.643520
 20
3.963960
  0
VERTEX
  8
0
  6
CONTINUOUS
 10
2.887280
 20
3.915120
  0
VERTEX
  8
0
  6
CONTINUOUS
 10
3.133680
 20
3.875080
  0
VERTEX
  8
0
  6
CONTINUOUS
 10
3.383160
 20
3.843400
  0
VERTEX
  8
0
  6
CONTINUOUS
 10
3.635280
 20
3.820520
  0
VERTEX
  8
0
  6
CONTINUOUS
 10
3.889600
 20
3.806880
  0
VERTEX
  8
0
  6
CONTINUOUS
 10
4.146560
 20
3.802040
  0
VERTEX
  8
0
  6
CONTINUOUS
 10
4.403520
 20
3.806880
  0
VERTEX
  8
0
  6
CONTINUOUS
 10
4.657840
 20
3.820520
  0
VERTEX
  8
0
  6
CONTINUOUS
 10
4.909960
 20
3.843400
  0
VERTEX
  8
0
  6
CONTINUOUS
 10
5.159440
 20
3.875080
  0
VERTEX
  8
0
  6
CONTINUOUS
 10
5.405840
 20
3.915120
  0
VERTEX
  8
0
  6
CONTINUOUS
 10
5.649600
 20
3.963960
  0
VERTEX
  8
0
  6
CONTINUOUS
 10
5.889840
 20
4.021160
  0
VERTEX
  8
0
  6
CONTINUOUS
 10
6.127440
 20
4.086280
  0
VERTEX
  8
0
  6
CONTINUOUS
 10
6.126560
 20
4.086280
  0
SEQEND
  8
0
  0
TEXT
  8
0
 10
3.807760
 20
3.098920
 40
0.138162
  1
BA  1322
 41
1.000000
  7
SN0
 71
     0
 72
     5
 11
4.489631
 21
3.098920
  0
TEXT
  8
0
 10
3.792360
 20
2.897400
 40
0.138162
  1
7" Radius
 41
1.000000
  7
SN0
 71
     0
 72
     5
 11
4.505428
 21
2.897400
  0
TEXT
  8
0
 10
3.589520
 20
2.696320
 40
0.138162
  1
3-15/16" Chord
 41
1.000000
  7
SN0
 71
     0
 72
     5
 11
4.707740
 21
2.696320
  0
TEXT
  8
0
 10
3.922600
 20
5.668520
 40
0.138162
  1
BA  1322
 41
1.000000
  7
SN0
 71
     0
 72
     5
 11
4.604471
 21
5.668520
  0
TEXT
  8
0
 10
3.907200
 20
5.467000
 40
0.138162
  1
7" Radius
 41
1.000000
  7
SN0
 71
     0
 72
     5
 11
4.620268
 21
5.467000
  0
TEXT
  8
0
 10
3.703920
 20
5.265480
 40
0.138162
  1
3-15/16" Chord
 41
1.000000
  7
SN0
 71
     0
 72
     5
 11
4.822140
 21
5.265480
  0
ENDSEC
  0
EOF
