  0
SECTION
  2
HEADER
  9
$ACADVER
  1
AC1006
  9
$EXTMIN
 10
1.542200
 20
1.278200
  9
$EXTMAX
 10
7.192240
 20
7.601440
  9
$LTSCALE
 40
0.044000
  9
$PDMODE
 70
    35
  9
$PDSIZE
 40
0.035200
  0
ENDSEC
  0
SECTION
  2
TABLES
  0
TABLE
  2
LTYPE
 70
     9
  0
LTYPE
  2
CONTINUOUS
 70
    64
  3
Solid line
 72
    65
 73
     0
 40
0.000000
  0
LTYPE
  2
DASHED
 70
    64
  3
__ __ __ __ __ __ __ __ __ __ __ __ __ __ __
 72
    65
 73
     2
 40
0.000330
 49
0.000220
 49
-0.000110
  0
LTYPE
  2
HIDDEN
 70
    64
  3
 _ _ _ _ _ _ _ _ _ _ _ _ _ _ _ _ _ _ _ _ _ _
 72
    65
 73
     2
 40
0.000165
 49
0.000110
 49
-0.000055
  0
LTYPE
  2
CENTER
 70
    64
  3
____ _ ____ _ ____ _ ____ _ ____ _ ____ _ ____
 72
    65
 73
     4
 40
0.000880
 49
0.000550
 49
-0.000110
 49
0.000110
 49
-0.000110
  0
LTYPE
  2
PHANTOM
 70
    64
  3
_____ _ _ _____ _ _ _____ _ _ _____ _ _ ____
 72
    65
 73
     6
 40
0.001100
 49
0.000550
 49
-0.000110
 49
0.000110
 49
-0.000110
 49
0.000110
 49
-0.000110
  0
LTYPE
  2
DOT
 70
    64
  3
...............................................
 72
    65
 73
     2
 40
0.000110
 49
0.000000
 49
-0.000110
  0
LTYPE
  2
DASHDOT
 70
    64
  3
__ . __ . __ . __ . __ . __ . __ . __ . __ . __
 72
    65
 73
     4
 40
0.000440
 49
0.000220
 49
-0.000110
 49
0.000000
 49
-0.000110
  0
LTYPE
  2
BORDER
 70
    64
  3
__ __ . __ __ . __ __ . __ __ . __ __ . __ __
 72
    65
 73
     6
 40
0.000770
 49
0.000220
 49
-0.000110
 49
0.000220
 49
-0.000110
 49
0.000000
 49
-0.000110
  0
LTYPE
  2
DIVIDE
 70
    64
  3
__ . . __ . . __ . . __ . . __ . . __ . . __
 72
    65
 73
     6
 40
0.000550
 49
0.000220
 49
-0.000110
 49
0.000000
 49
-0.000110
 49
0.000000
 49
-0.000110
  0
LTYPE
  2
DOTDOT
 70
    64
  3
 . .  . .  . .  . .  . .  . . 
 72
    65
 73
     5
 40
0.000242
 49
-0.000110
 49
0.000000
 49
-0.000110
 49
0.000000
 49
-0.000110
  0
ENDTAB
  0
TABLE
  2
STYLE
 70
     2
  0
STYLE
 70
     0
  2
SN0
 40
0.000000
 41
0.000440
 50
0.000000
 71
     0
 42
0.000000
  3
ROMAND
  0
STYLE
 70
    68
  2
SV0
 40
0.000000
 41
0.000440
 50
0.000000
 71
     0
 42
0.000000
  3
ROMAND
  0
ENDTAB
  0
TABLE
  2
LAYER
 70
     3
  0
LAYER
  2
FOREGROUND
 70
    64
 62
     7
  6
CONTINUOUS
  0
LAYER
  2
BACKGROUND
 70
    65
 62
    -7
  6
CONTINUOUS
  0
LAYER
  2
0
 70
    64
 62
     7
  6
CONTINUOUS
  0
ENDTAB
  0
ENDSEC
  0
SECTION
  2
ENTITIES
  0
POLYLINE
  8
FOREGROUND
  6
CONTINUOUS
 66
     1
 40
0.000000
 41
0.000000
  0
VERTEX
  8
FOREGROUND
  6
CONTINUOUS
 10
0.000000
 20
8.879640
  0
VERTEX
  8
FOREGROUND
  6
CONTINUOUS
 10
8.499920
 20
8.879640
  0
VERTEX
  8
FOREGROUND
  6
CONTINUOUS
 10
8.499920
 20
-2.120360
  0
VERTEX
  8
FOREGROUND
  6
CONTINUOUS
 10
0.000000
 20
-2.120360
  0
VERTEX
  8
FOREGROUND
  6
CONTINUOUS
 10
0.000000
 20
8.879640
  0
SEQEND
  8
0
  0
POLYLINE
  8
FOREGROUND
  6
CONTINUOUS
 66
     1
 40
0.000000
 41
0.000000
  0
VERTEX
  8
FOREGROUND
  6
CONTINUOUS
 10
0.000000
 20
8.879640
  0
VERTEX
  8
FOREGROUND
  6
CONTINUOUS
 10
8.499920
 20
8.879640
  0
VERTEX
  8
FOREGROUND
  6
CONTINUOUS
 10
8.499920
 20
-2.120360
  0
VERTEX
  8
FOREGROUND
  6
CONTINUOUS
 10
0.000000
 20
-2.120360
  0
VERTEX
  8
FOREGROUND
  6
CONTINUOUS
 10
0.000000
 20
8.879640
  0
SEQEND
  8
0
  0
POLYLINE
  8
0
  6
CONTINUOUS
 66
     1
 40
0.014080
 41
0.014080
  0
VERTEX
  8
0
  6
CONTINUOUS
 10
1.824680
 20
6.765440
  0
VERTEX
  8
0
  6
CONTINUOUS
 10
6.505400
 20
6.765440
  0
VERTEX
  8
0
  6
CONTINUOUS
 10
7.182120
 20
7.096760
  0
VERTEX
  8
0
  6
CONTINUOUS
 10
6.906680
 20
7.539400
  0
VERTEX
  8
0
  6
CONTINUOUS
 10
6.486040
 20
7.296080
  0
VERTEX
  8
0
  6
CONTINUOUS
 10
6.441600
 20
7.296080
  0
VERTEX
  8
0
  6
CONTINUOUS
 10
6.323680
 20
7.361640
  0
VERTEX
  8
0
  6
CONTINUOUS
 10
6.210160
 20
7.418400
  0
VERTEX
  8
0
  6
CONTINUOUS
 10
6.155160
 20
7.443920
  0
VERTEX
  8
0
  6
CONTINUOUS
 10
6.045600
 20
7.487920
  0
VERTEX
  8
0
  6
CONTINUOUS
 10
5.991480
 20
7.506840
  0
VERTEX
  8
0
  6
CONTINUOUS
 10
5.936920
 20
7.524000
  0
VERTEX
  8
0
  6
CONTINUOUS
 10
5.882360
 20
7.538960
  0
VERTEX
  8
0
  6
CONTINUOUS
 10
5.826920
 20
7.551720
  0
VERTEX
  8
0
  6
CONTINUOUS
 10
5.714280
 20
7.571520
  0
VERTEX
  8
0
  6
CONTINUOUS
 10
5.596800
 20
7.583400
  0
VERTEX
  8
0
  6
CONTINUOUS
 10
5.504840
 20
7.586920
  0
VERTEX
  8
0
  6
CONTINUOUS
 10
5.408480
 20
7.586480
  0
VERTEX
  8
0
  6
CONTINUOUS
 10
5.341600
 20
7.583840
  0
VERTEX
  8
0
  6
CONTINUOUS
 10
5.236440
 20
7.576360
  0
VERTEX
  8
0
  6
CONTINUOUS
 10
5.086400
 20
7.560080
  0
VERTEX
  8
0
  6
CONTINUOUS
 10
4.924040
 20
7.536320
  0
VERTEX
  8
0
  6
CONTINUOUS
 10
4.700080
 20
7.497160
  0
VERTEX
  8
0
  6
CONTINUOUS
 10
4.397360
 20
7.435560
  0
VERTEX
  8
0
  6
CONTINUOUS
 10
4.000920
 20
7.349760
  0
VERTEX
  8
0
  6
CONTINUOUS
 10
3.791480
 20
7.310600
  0
VERTEX
  8
0
  6
CONTINUOUS
 10
3.601840
 20
7.281120
  0
VERTEX
  8
0
  6
CONTINUOUS
 10
3.471160
 20
7.265280
  0
VERTEX
  8
0
  6
CONTINUOUS
 10
3.389760
 20
7.257360
  0
VERTEX
  8
0
  6
CONTINUOUS
 10
3.274920
 20
7.250320
  0
VERTEX
  8
0
  6
CONTINUOUS
 10
3.203200
 20
7.247680
  0
VERTEX
  8
0
  6
CONTINUOUS
 10
3.102880
 20
7.248120
  0
VERTEX
  8
0
  6
CONTINUOUS
 10
3.009600
 20
7.252960
  0
VERTEX
  8
0
  6
CONTINUOUS
 10
2.923800
 20
7.262200
  0
VERTEX
  8
0
  6
CONTINUOUS
 10
2.844160
 20
7.274960
  0
VERTEX
  8
0
  6
CONTINUOUS
 10
2.770680
 20
7.292120
  0
VERTEX
  8
0
  6
CONTINUOUS
 10
2.702040
 20
7.312360
  0
VERTEX
  8
0
  6
CONTINUOUS
 10
2.638680
 20
7.336120
  0
VERTEX
  8
0
  6
CONTINUOUS
 10
2.559920
 20
7.372200
  0
VERTEX
  8
0
  6
CONTINUOUS
 10
2.522960
 20
7.392440
  0
VERTEX
  8
0
  6
CONTINUOUS
 10
2.453000
 20
7.436440
  0
VERTEX
  8
0
  6
CONTINUOUS
 10
2.419120
 20
7.459760
  0
VERTEX
  8
0
  6
CONTINUOUS
 10
2.354000
 20
7.509920
  0
VERTEX
  8
0
  6
CONTINUOUS
 10
2.259400
 20
7.591760
  0
VERTEX
  8
0
  6
CONTINUOUS
 10
1.553200
 20
7.075640
  0
VERTEX
  8
0
  6
CONTINUOUS
 10
1.823360
 20
6.765440
  0
VERTEX
  8
0
  6
CONTINUOUS
 10
1.824680
 20
6.765440
  0
SEQEND
  8
0
  0
SOLID
  8
0
 62
    15
 10
3.997400
 20
4.018080
 11
4.648160
 21
3.633960
 12
3.912480
 22
3.803360
 13
4.563240
 23
3.419240
  0
POLYLINE
  8
0
  6
CONTINUOUS
 66
     1
 40
0.000000
 41
0.000000
  0
VERTEX
  8
0
  6
CONTINUOUS
 10
3.997400
 20
4.018080
  0
VERTEX
  8
0
  6
CONTINUOUS
 10
4.648160
 20
3.633960
  0
VERTEX
  8
0
  6
CONTINUOUS
 10
4.563240
 20
3.419240
  0
VERTEX
  8
0
  6
CONTINUOUS
 10
3.912480
 20
3.803360
  0
VERTEX
  8
0
  6
CONTINUOUS
 10
3.997400
 20
4.018080
  0
SEQEND
  8
0
  0
SOLID
  8
0
 62
    15
 10
5.234680
 20
5.490320
 11
5.885000
 21
5.106200
 12
5.074520
 22
5.445000
 13
5.725280
 23
5.060880
  0
POLYLINE
  8
0
  6
CONTINUOUS
 66
     1
 40
0.000000
 41
0.000000
  0
VERTEX
  8
0
  6
CONTINUOUS
 10
5.234680
 20
5.490320
  0
VERTEX
  8
0
  6
CONTINUOUS
 10
5.885000
 20
5.106200
  0
VERTEX
  8
0
  6
CONTINUOUS
 10
5.725280
 20
5.060880
  0
VERTEX
  8
0
  6
CONTINUOUS
 10
5.074520
 20
5.445000
  0
VERTEX
  8
0
  6
CONTINUOUS
 10
5.234680
 20
5.490320
  0
SEQEND
  8
0
  0
SOLID
  8
0
 62
    15
 10
5.074520
 20
5.445000
 11
5.725280
 21
5.060880
 12
4.922280
 22
5.382960
 13
5.572600
 23
4.998840
  0
POLYLINE
  8
0
  6
CONTINUOUS
 66
     1
 40
0.000000
 41
0.000000
  0
VERTEX
  8
0
  6
CONTINUOUS
 10
5.074520
 20
5.445000
  0
VERTEX
  8
0
  6
CONTINUOUS
 10
5.725280
 20
5.060880
  0
VERTEX
  8
0
  6
CONTINUOUS
 10
5.572600
 20
4.998840
  0
VERTEX
  8
0
  6
CONTINUOUS
 10
4.922280
 20
5.382960
  0
VERTEX
  8
0
  6
CONTINUOUS
 10
5.074520
 20
5.445000
  0
SEQEND
  8
0
  0
SOLID
  8
0
 62
    15
 10
4.922280
 20
5.382960
 11
5.572600
 21
4.998840
 12
4.774000
 22
5.292760
 13
5.424320
 23
4.908640
  0
POLYLINE
  8
0
  6
CONTINUOUS
 66
     1
 40
0.000000
 41
0.000000
  0
VERTEX
  8
0
  6
CONTINUOUS
 10
4.922280
 20
5.382960
  0
VERTEX
  8
0
  6
CONTINUOUS
 10
5.572600
 20
4.998840
  0
VERTEX
  8
0
  6
CONTINUOUS
 10
5.424320
 20
4.908640
  0
VERTEX
  8
0
  6
CONTINUOUS
 10
4.774000
 20
5.292760
  0
VERTEX
  8
0
  6
CONTINUOUS
 10
4.922280
 20
5.382960
  0
SEQEND
  8
0
  0
SOLID
  8
0
 62
    15
 10
4.774000
 20
5.292760
 11
5.424320
 21
4.908640
 12
4.627480
 22
5.162960
 13
5.277800
 23
4.778840
  0
POLYLINE
  8
0
  6
CONTINUOUS
 66
     1
 40
0.000000
 41
0.000000
  0
VERTEX
  8
0
  6
CONTINUOUS
 10
4.774000
 20
5.292760
  0
VERTEX
  8
0
  6
CONTINUOUS
 10
5.424320
 20
4.908640
  0
VERTEX
  8
0
  6
CONTINUOUS
 10
5.277800
 20
4.778840
  0
VERTEX
  8
0
  6
CONTINUOUS
 10
4.627480
 20
5.162960
  0
VERTEX
  8
0
  6
CONTINUOUS
 10
4.774000
 20
5.292760
  0
SEQEND
  8
0
  0
SOLID
  8
0
 62
    15
 10
4.627480
 20
5.162960
 11
5.277800
 21
4.778840
 12
4.479200
 22
4.982120
 13
5.129520
 23
4.598440
  0
POLYLINE
  8
0
  6
CONTINUOUS
 66
     1
 40
0.000000
 41
0.000000
  0
VERTEX
  8
0
  6
CONTINUOUS
 10
4.627480
 20
5.162960
  0
VERTEX
  8
0
  6
CONTINUOUS
 10
5.277800
 20
4.778840
  0
VERTEX
  8
0
  6
CONTINUOUS
 10
5.129520
 20
4.598440
  0
VERTEX
  8
0
  6
CONTINUOUS
 10
4.479200
 20
4.982120
  0
VERTEX
  8
0
  6
CONTINUOUS
 10
4.627480
 20
5.162960
  0
SEQEND
  8
0
  0
SOLID
  8
0
 62
    15
 10
4.479200
 20
4.982120
 11
5.129520
 21
4.598440
 12
4.403520
 22
4.869040
 13
5.054280
 23
4.484920
  0
POLYLINE
  8
0
  6
CONTINUOUS
 66
     1
 40
0.000000
 41
0.000000
  0
VERTEX
  8
0
  6
CONTINUOUS
 10
4.479200
 20
4.982120
  0
VERTEX
  8
0
  6
CONTINUOUS
 10
5.129520
 20
4.598440
  0
VERTEX
  8
0
  6
CONTINUOUS
 10
5.054280
 20
4.484920
  0
VERTEX
  8
0
  6
CONTINUOUS
 10
4.403520
 20
4.869040
  0
VERTEX
  8
0
  6
CONTINUOUS
 10
4.479200
 20
4.982120
  0
SEQEND
  8
0
  0
SOLID
  8
0
 62
    15
 10
4.403520
 20
4.869040
 11
5.054280
 21
4.484920
 12
4.326960
 22
4.738800
 13
4.977280
 23
4.354680
  0
POLYLINE
  8
0
  6
CONTINUOUS
 66
     1
 40
0.000000
 41
0.000000
  0
VERTEX
  8
0
  6
CONTINUOUS
 10
4.403520
 20
4.869040
  0
VERTEX
  8
0
  6
CONTINUOUS
 10
5.054280
 20
4.484920
  0
VERTEX
  8
0
  6
CONTINUOUS
 10
4.977280
 20
4.354680
  0
VERTEX
  8
0
  6
CONTINUOUS
 10
4.326960
 20
4.738800
  0
VERTEX
  8
0
  6
CONTINUOUS
 10
4.403520
 20
4.869040
  0
SEQEND
  8
0
  0
SOLID
  8
0
 62
    15
 10
4.326960
 20
4.738800
 11
4.977280
 21
4.354680
 12
4.248200
 22
4.590080
 13
4.898520
 23
4.205960
  0
POLYLINE
  8
0
  6
CONTINUOUS
 66
     1
 40
0.000000
 41
0.000000
  0
VERTEX
  8
0
  6
CONTINUOUS
 10
4.326960
 20
4.738800
  0
VERTEX
  8
0
  6
CONTINUOUS
 10
4.977280
 20
4.354680
  0
VERTEX
  8
0
  6
CONTINUOUS
 10
4.898520
 20
4.205960
  0
VERTEX
  8
0
  6
CONTINUOUS
 10
4.248200
 20
4.590080
  0
VERTEX
  8
0
  6
CONTINUOUS
 10
4.326960
 20
4.738800
  0
SEQEND
  8
0
  0
SOLID
  8
0
 62
    15
 10
4.248200
 20
4.590080
 11
4.898520
 21
4.205960
 12
4.167240
 22
4.421120
 13
4.817560
 23
4.037440
  0
POLYLINE
  8
0
  6
CONTINUOUS
 66
     1
 40
0.000000
 41
0.000000
  0
VERTEX
  8
0
  6
CONTINUOUS
 10
4.248200
 20
4.590080
  0
VERTEX
  8
0
  6
CONTINUOUS
 10
4.898520
 20
4.205960
  0
VERTEX
  8
0
  6
CONTINUOUS
 10
4.817560
 20
4.037440
  0
VERTEX
  8
0
  6
CONTINUOUS
 10
4.167240
 20
4.421120
  0
VERTEX
  8
0
  6
CONTINUOUS
 10
4.248200
 20
4.590080
  0
SEQEND
  8
0
  0
SOLID
  8
0
 62
    15
 10
4.167240
 20
4.421120
 11
4.817560
 21
4.037440
 12
4.083640
 22
4.231040
 13
4.734400
 23
3.846920
  0
POLYLINE
  8
0
  6
CONTINUOUS
 66
     1
 40
0.000000
 41
0.000000
  0
VERTEX
  8
0
  6
CONTINUOUS
 10
4.167240
 20
4.421120
  0
VERTEX
  8
0
  6
CONTINUOUS
 10
4.817560
 20
4.037440
  0
VERTEX
  8
0
  6
CONTINUOUS
 10
4.734400
 20
3.846920
  0
VERTEX
  8
0
  6
CONTINUOUS
 10
4.083640
 20
4.231040
  0
VERTEX
  8
0
  6
CONTINUOUS
 10
4.167240
 20
4.421120
  0
SEQEND
  8
0
  0
SOLID
  8
0
 62
    15
 10
4.083640
 20
4.231040
 11
4.734400
 21
3.846920
 12
3.997400
 22
4.018080
 13
4.648160
 23
3.633960
  0
POLYLINE
  8
0
  6
CONTINUOUS
 66
     1
 40
0.000000
 41
0.000000
  0
VERTEX
  8
0
  6
CONTINUOUS
 10
4.083640
 20
4.231040
  0
VERTEX
  8
0
  6
CONTINUOUS
 10
4.734400
 20
3.846920
  0
VERTEX
  8
0
  6
CONTINUOUS
 10
4.648160
 20
3.633960
  0
VERTEX
  8
0
  6
CONTINUOUS
 10
3.997400
 20
4.018080
  0
VERTEX
  8
0
  6
CONTINUOUS
 10
4.083640
 20
4.231040
  0
SEQEND
  8
0
  0
SOLID
  8
0
 62
    15
 10
5.200360
 20
6.364600
 11
5.850680
 21
5.980480
 12
5.234680
 22
5.490320
 13
5.885000
 23
5.106200
  0
POLYLINE
  8
0
  6
CONTINUOUS
 66
     1
 40
0.000000
 41
0.000000
  0
VERTEX
  8
0
  6
CONTINUOUS
 10
5.200360
 20
6.364600
  0
VERTEX
  8
0
  6
CONTINUOUS
 10
5.850680
 20
5.980480
  0
VERTEX
  8
0
  6
CONTINUOUS
 10
5.885000
 20
5.106200
  0
VERTEX
  8
0
  6
CONTINUOUS
 10
5.234680
 20
5.490320
  0
VERTEX
  8
0
  6
CONTINUOUS
 10
5.200360
 20
6.364600
  0
SEQEND
  8
0
  0
SOLID
  8
0
 62
    15
 10
3.912480
 20
3.803360
 11
4.563240
 21
3.419240
 12
3.832840
 22
3.608440
 13
4.483160
 23
3.224320
  0
POLYLINE
  8
0
  6
CONTINUOUS
 66
     1
 40
0.000000
 41
0.000000
  0
VERTEX
  8
0
  6
CONTINUOUS
 10
3.912480
 20
3.803360
  0
VERTEX
  8
0
  6
CONTINUOUS
 10
4.563240
 20
3.419240
  0
VERTEX
  8
0
  6
CONTINUOUS
 10
4.483160
 20
3.224320
  0
VERTEX
  8
0
  6
CONTINUOUS
 10
3.832840
 20
3.608440
  0
VERTEX
  8
0
  6
CONTINUOUS
 10
3.912480
 20
3.803360
  0
SEQEND
  8
0
  0
SOLID
  8
0
 62
    15
 10
3.832840
 20
3.608440
 11
4.483160
 21
3.224320
 12
3.757160
 22
3.431560
 13
4.407480
 23
3.047440
  0
POLYLINE
  8
0
  6
CONTINUOUS
 66
     1
 40
0.000000
 41
0.000000
  0
VERTEX
  8
0
  6
CONTINUOUS
 10
3.832840
 20
3.608440
  0
VERTEX
  8
0
  6
CONTINUOUS
 10
4.483160
 20
3.224320
  0
VERTEX
  8
0
  6
CONTINUOUS
 10
4.407480
 20
3.047440
  0
VERTEX
  8
0
  6
CONTINUOUS
 10
3.757160
 20
3.431560
  0
VERTEX
  8
0
  6
CONTINUOUS
 10
3.832840
 20
3.608440
  0
SEQEND
  8
0
  0
SOLID
  8
0
 62
    15
 10
3.757160
 20
3.431560
 11
4.407480
 21
3.047440
 12
3.684560
 22
3.271400
 13
4.334880
 23
2.887720
  0
POLYLINE
  8
0
  6
CONTINUOUS
 66
     1
 40
0.000000
 41
0.000000
  0
VERTEX
  8
0
  6
CONTINUOUS
 10
3.757160
 20
3.431560
  0
VERTEX
  8
0
  6
CONTINUOUS
 10
4.407480
 20
3.047440
  0
VERTEX
  8
0
  6
CONTINUOUS
 10
4.334880
 20
2.887720
  0
VERTEX
  8
0
  6
CONTINUOUS
 10
3.684560
 20
3.271400
  0
VERTEX
  8
0
  6
CONTINUOUS
 10
3.757160
 20
3.431560
  0
SEQEND
  8
0
  0
SOLID
  8
0
 62
    15
 10
3.684560
 20
3.271400
 11
4.334880
 21
2.887720
 12
3.543760
 22
2.997280
 13
4.194080
 23
2.613160
  0
POLYLINE
  8
0
  6
CONTINUOUS
 66
     1
 40
0.000000
 41
0.000000
  0
VERTEX
  8
0
  6
CONTINUOUS
 10
3.684560
 20
3.271400
  0
VERTEX
  8
0
  6
CONTINUOUS
 10
4.334880
 20
2.887720
  0
VERTEX
  8
0
  6
CONTINUOUS
 10
4.194080
 20
2.613160
  0
VERTEX
  8
0
  6
CONTINUOUS
 10
3.543760
 20
2.997280
  0
VERTEX
  8
0
  6
CONTINUOUS
 10
3.684560
 20
3.271400
  0
SEQEND
  8
0
  0
SOLID
  8
0
 62
    15
 10
3.543760
 20
2.997280
 11
4.194080
 21
2.613160
 12
3.402520
 22
2.774200
 13
4.052840
 23
2.390080
  0
POLYLINE
  8
0
  6
CONTINUOUS
 66
     1
 40
0.000000
 41
0.000000
  0
VERTEX
  8
0
  6
CONTINUOUS
 10
3.543760
 20
2.997280
  0
VERTEX
  8
0
  6
CONTINUOUS
 10
4.194080
 20
2.613160
  0
VERTEX
  8
0
  6
CONTINUOUS
 10
4.052840
 20
2.390080
  0
VERTEX
  8
0
  6
CONTINUOUS
 10
3.402520
 20
2.774200
  0
VERTEX
  8
0
  6
CONTINUOUS
 10
3.543760
 20
2.997280
  0
SEQEND
  8
0
  0
SOLID
  8
0
 62
    15
 10
3.402520
 20
2.774200
 11
4.052840
 21
2.390080
 12
3.251600
 22
2.592040
 13
3.901920
 23
2.208360
  0
POLYLINE
  8
0
  6
CONTINUOUS
 66
     1
 40
0.000000
 41
0.000000
  0
VERTEX
  8
0
  6
CONTINUOUS
 10
3.402520
 20
2.774200
  0
VERTEX
  8
0
  6
CONTINUOUS
 10
4.052840
 20
2.390080
  0
VERTEX
  8
0
  6
CONTINUOUS
 10
3.901920
 20
2.208360
  0
VERTEX
  8
0
  6
CONTINUOUS
 10
3.251600
 20
2.592040
  0
VERTEX
  8
0
  6
CONTINUOUS
 10
3.402520
 20
2.774200
  0
SEQEND
  8
0
  0
SOLID
  8
0
 62
    15
 10
3.251600
 20
2.592040
 11
3.901920
 21
2.208360
 12
3.082640
 22
2.440240
 13
3.732960
 23
2.056120
  0
POLYLINE
  8
0
  6
CONTINUOUS
 66
     1
 40
0.000000
 41
0.000000
  0
VERTEX
  8
0
  6
CONTINUOUS
 10
3.251600
 20
2.592040
  0
VERTEX
  8
0
  6
CONTINUOUS
 10
3.901920
 20
2.208360
  0
VERTEX
  8
0
  6
CONTINUOUS
 10
3.732960
 20
2.056120
  0
VERTEX
  8
0
  6
CONTINUOUS
 10
3.082640
 20
2.440240
  0
VERTEX
  8
0
  6
CONTINUOUS
 10
3.251600
 20
2.592040
  0
SEQEND
  8
0
  0
SOLID
  8
0
 62
    15
 10
3.082640
 20
2.440240
 11
3.732960
 21
2.056120
 12
2.887280
 22
2.307800
 13
3.537600
 23
1.923680
  0
POLYLINE
  8
0
  6
CONTINUOUS
 66
     1
 40
0.000000
 41
0.000000
  0
VERTEX
  8
0
  6
CONTINUOUS
 10
3.082640
 20
2.440240
  0
VERTEX
  8
0
  6
CONTINUOUS
 10
3.732960
 20
2.056120
  0
VERTEX
  8
0
  6
CONTINUOUS
 10
3.537600
 20
1.923680
  0
VERTEX
  8
0
  6
CONTINUOUS
 10
2.887280
 20
2.307800
  0
VERTEX
  8
0
  6
CONTINUOUS
 10
3.082640
 20
2.440240
  0
SEQEND
  8
0
  0
SOLID
  8
0
 62
    15
 10
2.887280
 20
2.307800
 11
3.537600
 21
1.923680
 12
2.656720
 22
2.184160
 13
3.307040
 23
1.800040
  0
POLYLINE
  8
0
  6
CONTINUOUS
 66
     1
 40
0.000000
 41
0.000000
  0
VERTEX
  8
0
  6
CONTINUOUS
 10
2.887280
 20
2.307800
  0
VERTEX
  8
0
  6
CONTINUOUS
 10
3.537600
 20
1.923680
  0
VERTEX
  8
0
  6
CONTINUOUS
 10
3.307040
 20
1.800040
  0
VERTEX
  8
0
  6
CONTINUOUS
 10
2.656720
 20
2.184160
  0
VERTEX
  8
0
  6
CONTINUOUS
 10
2.887280
 20
2.307800
  0
SEQEND
  8
0
  0
SOLID
  8
0
 62
    15
 10
2.656720
 20
2.184160
 11
3.307040
 21
1.800040
 12
2.632080
 22
2.147200
 13
3.282400
 23
1.763520
  0
POLYLINE
  8
0
  6
CONTINUOUS
 66
     1
 40
0.000000
 41
0.000000
  0
VERTEX
  8
0
  6
CONTINUOUS
 10
2.656720
 20
2.184160
  0
VERTEX
  8
0
  6
CONTINUOUS
 10
3.307040
 20
1.800040
  0
VERTEX
  8
0
  6
CONTINUOUS
 10
3.282400
 20
1.763520
  0
VERTEX
  8
0
  6
CONTINUOUS
 10
2.632080
 20
2.147200
  0
VERTEX
  8
0
  6
CONTINUOUS
 10
2.656720
 20
2.184160
  0
SEQEND
  8
0
  0
SOLID
  8
0
 62
    15
 10
2.632080
 20
2.147200
 11
3.282400
 21
1.763520
 12
2.598640
 22
1.662320
 13
3.249400
 23
1.278200
  0
POLYLINE
  8
0
  6
CONTINUOUS
 66
     1
 40
0.000000
 41
0.000000
  0
VERTEX
  8
0
  6
CONTINUOUS
 10
2.632080
 20
2.147200
  0
VERTEX
  8
0
  6
CONTINUOUS
 10
3.282400
 20
1.763520
  0
VERTEX
  8
0
  6
CONTINUOUS
 10
3.249400
 20
1.278200
  0
VERTEX
  8
0
  6
CONTINUOUS
 10
2.598640
 20
1.662320
  0
VERTEX
  8
0
  6
CONTINUOUS
 10
2.632080
 20
2.147200
  0
SEQEND
  8
0
  0
SOLID
  8
0
 62
    15
 10
2.598640
 20
1.662320
 11
3.249400
 21
1.278200
 12
2.078120
 22
1.680800
 13
2.728440
 23
1.296680
  0
POLYLINE
  8
0
  6
CONTINUOUS
 66
     1
 40
0.000000
 41
0.000000
  0
VERTEX
  8
0
  6
CONTINUOUS
 10
2.598640
 20
1.662320
  0
VERTEX
  8
0
  6
CONTINUOUS
 10
3.249400
 20
1.278200
  0
VERTEX
  8
0
  6
CONTINUOUS
 10
2.728440
 20
1.296680
  0
VERTEX
  8
0
  6
CONTINUOUS
 10
2.078120
 20
1.680800
  0
VERTEX
  8
0
  6
CONTINUOUS
 10
2.598640
 20
1.662320
  0
SEQEND
  8
0
  0
POLYLINE
  8
0
  6
CONTINUOUS
 66
     1
 40
0.000000
 41
0.000000
  0
VERTEX
  8
0
  6
CONTINUOUS
 10
4.791600
 20
6.313560
  0
VERTEX
  8
0
  6
CONTINUOUS
 10
5.200360
 20
6.364600
  0
VERTEX
  8
0
  6
CONTINUOUS
 10
5.234680
 20
5.490320
  0
VERTEX
  8
0
  6
CONTINUOUS
 10
5.074520
 20
5.445000
  0
VERTEX
  8
0
  6
CONTINUOUS
 10
4.922280
 20
5.382960
  0
VERTEX
  8
0
  6
CONTINUOUS
 10
4.774000
 20
5.292760
  0
VERTEX
  8
0
  6
CONTINUOUS
 10
4.627480
 20
5.162960
  0
VERTEX
  8
0
  6
CONTINUOUS
 10
4.479200
 20
4.982120
  0
VERTEX
  8
0
  6
CONTINUOUS
 10
4.403520
 20
4.869040
  0
VERTEX
  8
0
  6
CONTINUOUS
 10
4.326960
 20
4.738800
  0
VERTEX
  8
0
  6
CONTINUOUS
 10
4.248200
 20
4.590080
  0
VERTEX
  8
0
  6
CONTINUOUS
 10
4.167240
 20
4.421120
  0
VERTEX
  8
0
  6
CONTINUOUS
 10
4.083640
 20
4.231040
  0
VERTEX
  8
0
  6
CONTINUOUS
 10
3.997400
 20
4.018080
  0
VERTEX
  8
0
  6
CONTINUOUS
 10
3.912480
 20
3.803360
  0
VERTEX
  8
0
  6
CONTINUOUS
 10
3.832840
 20
3.608440
  0
VERTEX
  8
0
  6
CONTINUOUS
 10
3.757160
 20
3.431560
  0
VERTEX
  8
0
  6
CONTINUOUS
 10
3.684560
 20
3.271400
  0
VERTEX
  8
0
  6
CONTINUOUS
 10
3.543760
 20
2.997280
  0
VERTEX
  8
0
  6
CONTINUOUS
 10
3.402520
 20
2.774200
  0
VERTEX
  8
0
  6
CONTINUOUS
 10
3.251600
 20
2.592040
  0
VERTEX
  8
0
  6
CONTINUOUS
 10
3.082640
 20
2.440240
  0
VERTEX
  8
0
  6
CONTINUOUS
 10
2.887280
 20
2.307800
  0
VERTEX
  8
0
  6
CONTINUOUS
 10
2.656720
 20
2.184160
  0
VERTEX
  8
0
  6
CONTINUOUS
 10
2.632080
 20
2.147200
  0
VERTEX
  8
0
  6
CONTINUOUS
 10
2.598640
 20
1.662320
  0
VERTEX
  8
0
  6
CONTINUOUS
 10
2.078120
 20
1.680800
  0
VERTEX
  8
0
  6
CONTINUOUS
 10
2.180200
 20
2.427040
  0
VERTEX
  8
0
  6
CONTINUOUS
 10
4.791160
 20
6.312240
  0
VERTEX
  8
0
  6
CONTINUOUS
 10
4.791600
 20
6.313560
  0
SEQEND
  8
0
  0
TEXT
  8
0
 10
3.917760
 20
1.572120
 40
0.137957
  1
BA  1321
 41
1.000000
  7
SN0
 71
     0
 72
     5
 11
4.600354
 21
1.572120
  0
TEXT
  8
0
 10
3.762000
 20
1.370600
 40
0.137957
  1
7/8" x 5-9/16"
 41
1.000000
  7
SN0
 71
     0
 72
     5
 11
4.755065
 21
1.370600
  0
TEXT
  8
0
 10
5.034480
 20
7.074320
 40
0.137957
  1
BA  1321
 41
1.000000
  7
SN0
 71
     0
 72
     5
 11
5.717074
 21
7.074320
  0
TEXT
  8
0
 10
4.878720
 20
6.872800
 40
0.137957
  1
7/8" x 5-9/16"
 41
1.000000
  7
SN0
 71
     0
 72
     5
 11
5.871785
 21
6.872800
  0
ENDSEC
  0
EOF
