  0
SECTION
  2
HEADER
  9
$ACADVER
  1
AC1006
  9
$EXTMIN
 10
1.933360
 20
2.552000
  9
$EXTMAX
 10
4.709760
 20
6.928240
  9
$LTSCALE
 40
0.044000
  9
$PDMODE
 70
    35
  9
$PDSIZE
 40
0.035200
  0
ENDSEC
  0
SECTION
  2
TABLES
  0
TABLE
  2
LTYPE
 70
     9
  0
LTYPE
  2
CONTINUOUS
 70
    64
  3
Solid line
 72
    65
 73
     0
 40
0.000000
  0
LTYPE
  2
DASHED
 70
    64
  3
__ __ __ __ __ __ __ __ __ __ __ __ __ __ __
 72
    65
 73
     2
 40
0.000330
 49
0.000220
 49
-0.000110
  0
LTYPE
  2
HIDDEN
 70
    64
  3
 _ _ _ _ _ _ _ _ _ _ _ _ _ _ _ _ _ _ _ _ _ _
 72
    65
 73
     2
 40
0.000165
 49
0.000110
 49
-0.000055
  0
LTYPE
  2
CENTER
 70
    64
  3
____ _ ____ _ ____ _ ____ _ ____ _ ____ _ ____
 72
    65
 73
     4
 40
0.000880
 49
0.000550
 49
-0.000110
 49
0.000110
 49
-0.000110
  0
LTYPE
  2
PHANTOM
 70
    64
  3
_____ _ _ _____ _ _ _____ _ _ _____ _ _ ____
 72
    65
 73
     6
 40
0.001100
 49
0.000550
 49
-0.000110
 49
0.000110
 49
-0.000110
 49
0.000110
 49
-0.000110
  0
LTYPE
  2
DOT
 70
    64
  3
...............................................
 72
    65
 73
     2
 40
0.000110
 49
0.000000
 49
-0.000110
  0
LTYPE
  2
DASHDOT
 70
    64
  3
__ . __ . __ . __ . __ . __ . __ . __ . __ . __
 72
    65
 73
     4
 40
0.000440
 49
0.000220
 49
-0.000110
 49
0.000000
 49
-0.000110
  0
LTYPE
  2
BORDER
 70
    64
  3
__ __ . __ __ . __ __ . __ __ . __ __ . __ __
 72
    65
 73
     6
 40
0.000770
 49
0.000220
 49
-0.000110
 49
0.000220
 49
-0.000110
 49
0.000000
 49
-0.000110
  0
LTYPE
  2
DIVIDE
 70
    64
  3
__ . . __ . . __ . . __ . . __ . . __ . . __
 72
    65
 73
     6
 40
0.000550
 49
0.000220
 49
-0.000110
 49
0.000000
 49
-0.000110
 49
0.000000
 49
-0.000110
  0
LTYPE
  2
DOTDOT
 70
    64
  3
 . .  . .  . .  . .  . .  . . 
 72
    65
 73
     5
 40
0.000242
 49
-0.000110
 49
0.000000
 49
-0.000110
 49
0.000000
 49
-0.000110
  0
ENDTAB
  0
TABLE
  2
STYLE
 70
     2
  0
STYLE
 70
     0
  2
SN0
 40
0.000000
 41
0.000440
 50
0.000000
 71
     0
 42
0.000000
  3
ROMAND
  0
STYLE
 70
    68
  2
SV0
 40
0.000000
 41
0.000440
 50
0.000000
 71
     0
 42
0.000000
  3
ROMAND
  0
ENDTAB
  0
TABLE
  2
LAYER
 70
     3
  0
LAYER
  2
FOREGROUND
 70
    64
 62
     7
  6
CONTINUOUS
  0
LAYER
  2
BACKGROUND
 70
    65
 62
    -7
  6
CONTINUOUS
  0
LAYER
  2
0
 70
    64
 62
     7
  6
CONTINUOUS
  0
ENDTAB
  0
ENDSEC
  0
SECTION
  2
ENTITIES
  0
POLYLINE
  8
FOREGROUND
  6
CONTINUOUS
 66
     1
 40
0.000000
 41
0.000000
  0
VERTEX
  8
FOREGROUND
  6
CONTINUOUS
 10
0.000000
 20
9.480240
  0
VERTEX
  8
FOREGROUND
  6
CONTINUOUS
 10
8.499920
 20
9.480240
  0
VERTEX
  8
FOREGROUND
  6
CONTINUOUS
 10
8.499920
 20
-1.519760
  0
VERTEX
  8
FOREGROUND
  6
CONTINUOUS
 10
0.000000
 20
-1.519760
  0
VERTEX
  8
FOREGROUND
  6
CONTINUOUS
 10
0.000000
 20
9.480240
  0
SEQEND
  8
0
  0
POLYLINE
  8
FOREGROUND
  6
CONTINUOUS
 66
     1
 40
0.000000
 41
0.000000
  0
VERTEX
  8
FOREGROUND
  6
CONTINUOUS
 10
0.000000
 20
9.480240
  0
VERTEX
  8
FOREGROUND
  6
CONTINUOUS
 10
8.499920
 20
9.480240
  0
VERTEX
  8
FOREGROUND
  6
CONTINUOUS
 10
8.499920
 20
-1.519760
  0
VERTEX
  8
FOREGROUND
  6
CONTINUOUS
 10
0.000000
 20
-1.519760
  0
VERTEX
  8
FOREGROUND
  6
CONTINUOUS
 10
0.000000
 20
9.480240
  0
SEQEND
  8
0
  0
SOLID
  8
0
 62
    15
 10
2.519880
 20
4.114880
 11
3.164920
 21
4.487120
 12
2.526480
 22
4.082760
 13
3.171960
 23
4.455000
  0
POLYLINE
  8
0
  6
CONTINUOUS
 66
     1
 40
0.000000
 41
0.000000
  0
VERTEX
  8
0
  6
CONTINUOUS
 10
2.519880
 20
4.114880
  0
VERTEX
  8
0
  6
CONTINUOUS
 10
3.164920
 20
4.487120
  0
VERTEX
  8
0
  6
CONTINUOUS
 10
3.171960
 20
4.455000
  0
VERTEX
  8
0
  6
CONTINUOUS
 10
2.526480
 20
4.082760
  0
VERTEX
  8
0
  6
CONTINUOUS
 10
2.519880
 20
4.114880
  0
SEQEND
  8
0
  0
SOLID
  8
0
 62
    15
 10
2.403280
 20
4.404840
 11
3.048760
 21
4.777080
 12
2.403280
 22
4.350720
 13
3.048760
 23
4.722960
  0
POLYLINE
  8
0
  6
CONTINUOUS
 66
     1
 40
0.000000
 41
0.000000
  0
VERTEX
  8
0
  6
CONTINUOUS
 10
2.403280
 20
4.404840
  0
VERTEX
  8
0
  6
CONTINUOUS
 10
3.048760
 20
4.777080
  0
VERTEX
  8
0
  6
CONTINUOUS
 10
3.048760
 20
4.722960
  0
VERTEX
  8
0
  6
CONTINUOUS
 10
2.403280
 20
4.350720
  0
VERTEX
  8
0
  6
CONTINUOUS
 10
2.403280
 20
4.404840
  0
SEQEND
  8
0
  0
SOLID
  8
0
 62
    15
 10
2.403280
 20
4.350720
 11
3.048760
 21
4.722960
 12
2.434520
 22
4.347200
 13
3.079560
 23
4.719440
  0
POLYLINE
  8
0
  6
CONTINUOUS
 66
     1
 40
0.000000
 41
0.000000
  0
VERTEX
  8
0
  6
CONTINUOUS
 10
2.403280
 20
4.350720
  0
VERTEX
  8
0
  6
CONTINUOUS
 10
3.048760
 20
4.722960
  0
VERTEX
  8
0
  6
CONTINUOUS
 10
3.079560
 20
4.719440
  0
VERTEX
  8
0
  6
CONTINUOUS
 10
2.434520
 20
4.347200
  0
VERTEX
  8
0
  6
CONTINUOUS
 10
2.403280
 20
4.350720
  0
SEQEND
  8
0
  0
SOLID
  8
0
 62
    15
 10
2.434520
 20
4.347200
 11
3.079560
 21
4.719440
 12
2.458280
 22
4.337080
 13
3.103760
 23
4.709320
  0
POLYLINE
  8
0
  6
CONTINUOUS
 66
     1
 40
0.000000
 41
0.000000
  0
VERTEX
  8
0
  6
CONTINUOUS
 10
2.434520
 20
4.347200
  0
VERTEX
  8
0
  6
CONTINUOUS
 10
3.079560
 20
4.719440
  0
VERTEX
  8
0
  6
CONTINUOUS
 10
3.103760
 20
4.709320
  0
VERTEX
  8
0
  6
CONTINUOUS
 10
2.458280
 20
4.337080
  0
VERTEX
  8
0
  6
CONTINUOUS
 10
2.434520
 20
4.347200
  0
SEQEND
  8
0
  0
SOLID
  8
0
 62
    15
 10
2.458280
 20
4.337080
 11
3.103760
 21
4.709320
 12
2.476320
 22
4.320800
 13
3.121800
 23
4.693040
  0
POLYLINE
  8
0
  6
CONTINUOUS
 66
     1
 40
0.000000
 41
0.000000
  0
VERTEX
  8
0
  6
CONTINUOUS
 10
2.458280
 20
4.337080
  0
VERTEX
  8
0
  6
CONTINUOUS
 10
3.103760
 20
4.709320
  0
VERTEX
  8
0
  6
CONTINUOUS
 10
3.121800
 20
4.693040
  0
VERTEX
  8
0
  6
CONTINUOUS
 10
2.476320
 20
4.320800
  0
VERTEX
  8
0
  6
CONTINUOUS
 10
2.458280
 20
4.337080
  0
SEQEND
  8
0
  0
SOLID
  8
0
 62
    15
 10
2.476320
 20
4.320800
 11
3.121800
 21
4.693040
 12
2.489520
 22
4.299240
 13
3.134560
 23
4.671480
  0
POLYLINE
  8
0
  6
CONTINUOUS
 66
     1
 40
0.000000
 41
0.000000
  0
VERTEX
  8
0
  6
CONTINUOUS
 10
2.476320
 20
4.320800
  0
VERTEX
  8
0
  6
CONTINUOUS
 10
3.121800
 20
4.693040
  0
VERTEX
  8
0
  6
CONTINUOUS
 10
3.134560
 20
4.671480
  0
VERTEX
  8
0
  6
CONTINUOUS
 10
2.489520
 20
4.299240
  0
VERTEX
  8
0
  6
CONTINUOUS
 10
2.476320
 20
4.320800
  0
SEQEND
  8
0
  0
SOLID
  8
0
 62
    15
 10
1.933800
 20
3.971000
 11
2.579280
 21
4.343240
 12
1.967240
 22
3.983760
 13
2.612280
 23
4.356440
  0
POLYLINE
  8
0
  6
CONTINUOUS
 66
     1
 40
0.000000
 41
0.000000
  0
VERTEX
  8
0
  6
CONTINUOUS
 10
1.933800
 20
3.971000
  0
VERTEX
  8
0
  6
CONTINUOUS
 10
2.579280
 20
4.343240
  0
VERTEX
  8
0
  6
CONTINUOUS
 10
2.612280
 20
4.356440
  0
VERTEX
  8
0
  6
CONTINUOUS
 10
1.967240
 20
3.983760
  0
VERTEX
  8
0
  6
CONTINUOUS
 10
1.933800
 20
3.971000
  0
SEQEND
  8
0
  0
SOLID
  8
0
 62
    15
 10
2.498320
 20
4.273720
 11
3.143800
 21
4.646400
 12
2.504480
 22
4.245120
 13
3.149520
 23
4.617360
  0
POLYLINE
  8
0
  6
CONTINUOUS
 66
     1
 40
0.000000
 41
0.000000
  0
VERTEX
  8
0
  6
CONTINUOUS
 10
2.498320
 20
4.273720
  0
VERTEX
  8
0
  6
CONTINUOUS
 10
3.143800
 20
4.646400
  0
VERTEX
  8
0
  6
CONTINUOUS
 10
3.149520
 20
4.617360
  0
VERTEX
  8
0
  6
CONTINUOUS
 10
2.504480
 20
4.245120
  0
VERTEX
  8
0
  6
CONTINUOUS
 10
2.498320
 20
4.273720
  0
SEQEND
  8
0
  0
SOLID
  8
0
 62
    15
 10
2.504480
 20
4.245120
 11
3.149520
 21
4.617360
 12
2.508440
 22
4.213880
 13
3.153920
 23
4.586120
  0
POLYLINE
  8
0
  6
CONTINUOUS
 66
     1
 40
0.000000
 41
0.000000
  0
VERTEX
  8
0
  6
CONTINUOUS
 10
2.504480
 20
4.245120
  0
VERTEX
  8
0
  6
CONTINUOUS
 10
3.149520
 20
4.617360
  0
VERTEX
  8
0
  6
CONTINUOUS
 10
3.153920
 20
4.586120
  0
VERTEX
  8
0
  6
CONTINUOUS
 10
2.508440
 20
4.213880
  0
VERTEX
  8
0
  6
CONTINUOUS
 10
2.504480
 20
4.245120
  0
SEQEND
  8
0
  0
SOLID
  8
0
 62
    15
 10
2.508440
 20
4.213880
 11
3.153920
 21
4.586120
 12
2.510200
 22
4.197600
 13
3.155680
 23
4.569840
  0
POLYLINE
  8
0
  6
CONTINUOUS
 66
     1
 40
0.000000
 41
0.000000
  0
VERTEX
  8
0
  6
CONTINUOUS
 10
2.508440
 20
4.213880
  0
VERTEX
  8
0
  6
CONTINUOUS
 10
3.153920
 20
4.586120
  0
VERTEX
  8
0
  6
CONTINUOUS
 10
3.155680
 20
4.569840
  0
VERTEX
  8
0
  6
CONTINUOUS
 10
2.510200
 20
4.197600
  0
VERTEX
  8
0
  6
CONTINUOUS
 10
2.508440
 20
4.213880
  0
SEQEND
  8
0
  0
SOLID
  8
0
 62
    15
 10
2.510200
 20
4.197600
 11
3.155680
 21
4.569840
 12
2.511960
 22
4.181320
 13
3.157000
 23
4.553560
  0
POLYLINE
  8
0
  6
CONTINUOUS
 66
     1
 40
0.000000
 41
0.000000
  0
VERTEX
  8
0
  6
CONTINUOUS
 10
2.510200
 20
4.197600
  0
VERTEX
  8
0
  6
CONTINUOUS
 10
3.155680
 20
4.569840
  0
VERTEX
  8
0
  6
CONTINUOUS
 10
3.157000
 20
4.553560
  0
VERTEX
  8
0
  6
CONTINUOUS
 10
2.511960
 20
4.181320
  0
VERTEX
  8
0
  6
CONTINUOUS
 10
2.510200
 20
4.197600
  0
SEQEND
  8
0
  0
SOLID
  8
0
 62
    15
 10
2.511960
 20
4.181320
 11
3.157000
 21
4.553560
 12
2.519880
 22
4.114880
 13
3.164920
 23
4.487120
  0
POLYLINE
  8
0
  6
CONTINUOUS
 66
     1
 40
0.000000
 41
0.000000
  0
VERTEX
  8
0
  6
CONTINUOUS
 10
2.511960
 20
4.181320
  0
VERTEX
  8
0
  6
CONTINUOUS
 10
3.157000
 20
4.553560
  0
VERTEX
  8
0
  6
CONTINUOUS
 10
3.164920
 20
4.487120
  0
VERTEX
  8
0
  6
CONTINUOUS
 10
2.519880
 20
4.114880
  0
VERTEX
  8
0
  6
CONTINUOUS
 10
2.511960
 20
4.181320
  0
SEQEND
  8
0
  0
SOLID
  8
0
 62
    15
 10
2.282720
 20
4.404840
 11
2.928200
 21
4.777080
 12
2.403280
 22
4.404840
 13
3.048760
 23
4.777080
  0
POLYLINE
  8
0
  6
CONTINUOUS
 66
     1
 40
0.000000
 41
0.000000
  0
VERTEX
  8
0
  6
CONTINUOUS
 10
2.282720
 20
4.404840
  0
VERTEX
  8
0
  6
CONTINUOUS
 10
2.928200
 20
4.777080
  0
VERTEX
  8
0
  6
CONTINUOUS
 10
3.048760
 20
4.777080
  0
VERTEX
  8
0
  6
CONTINUOUS
 10
2.403280
 20
4.404840
  0
VERTEX
  8
0
  6
CONTINUOUS
 10
2.282720
 20
4.404840
  0
SEQEND
  8
0
  0
SOLID
  8
0
 62
    15
 10
2.526480
 20
4.082760
 11
3.171960
 21
4.455000
 12
2.536600
 22
4.052840
 13
3.181640
 23
4.425080
  0
POLYLINE
  8
0
  6
CONTINUOUS
 66
     1
 40
0.000000
 41
0.000000
  0
VERTEX
  8
0
  6
CONTINUOUS
 10
2.526480
 20
4.082760
  0
VERTEX
  8
0
  6
CONTINUOUS
 10
3.171960
 20
4.455000
  0
VERTEX
  8
0
  6
CONTINUOUS
 10
3.181640
 20
4.425080
  0
VERTEX
  8
0
  6
CONTINUOUS
 10
2.536600
 20
4.052840
  0
VERTEX
  8
0
  6
CONTINUOUS
 10
2.526480
 20
4.082760
  0
SEQEND
  8
0
  0
SOLID
  8
0
 62
    15
 10
2.536600
 20
4.052840
 11
3.181640
 21
4.425080
 12
2.550680
 22
4.026000
 13
3.196160
 23
4.398240
  0
POLYLINE
  8
0
  6
CONTINUOUS
 66
     1
 40
0.000000
 41
0.000000
  0
VERTEX
  8
0
  6
CONTINUOUS
 10
2.536600
 20
4.052840
  0
VERTEX
  8
0
  6
CONTINUOUS
 10
3.181640
 20
4.425080
  0
VERTEX
  8
0
  6
CONTINUOUS
 10
3.196160
 20
4.398240
  0
VERTEX
  8
0
  6
CONTINUOUS
 10
2.550680
 20
4.026000
  0
VERTEX
  8
0
  6
CONTINUOUS
 10
2.536600
 20
4.052840
  0
SEQEND
  8
0
  0
SOLID
  8
0
 62
    15
 10
2.550680
 20
4.026000
 11
3.196160
 21
4.398240
 12
2.570480
 22
4.002680
 13
3.215520
 23
4.374920
  0
POLYLINE
  8
0
  6
CONTINUOUS
 66
     1
 40
0.000000
 41
0.000000
  0
VERTEX
  8
0
  6
CONTINUOUS
 10
2.550680
 20
4.026000
  0
VERTEX
  8
0
  6
CONTINUOUS
 10
3.196160
 20
4.398240
  0
VERTEX
  8
0
  6
CONTINUOUS
 10
3.215520
 20
4.374920
  0
VERTEX
  8
0
  6
CONTINUOUS
 10
2.570480
 20
4.002680
  0
VERTEX
  8
0
  6
CONTINUOUS
 10
2.550680
 20
4.026000
  0
SEQEND
  8
0
  0
SOLID
  8
0
 62
    15
 10
2.570480
 20
4.002680
 11
3.215520
 21
4.374920
 12
2.596000
 22
3.983760
 13
3.241480
 23
4.356440
  0
POLYLINE
  8
0
  6
CONTINUOUS
 66
     1
 40
0.000000
 41
0.000000
  0
VERTEX
  8
0
  6
CONTINUOUS
 10
2.570480
 20
4.002680
  0
VERTEX
  8
0
  6
CONTINUOUS
 10
3.215520
 20
4.374920
  0
VERTEX
  8
0
  6
CONTINUOUS
 10
3.241480
 20
4.356440
  0
VERTEX
  8
0
  6
CONTINUOUS
 10
2.596000
 20
3.983760
  0
VERTEX
  8
0
  6
CONTINUOUS
 10
2.570480
 20
4.002680
  0
SEQEND
  8
0
  0
SOLID
  8
0
 62
    15
 10
2.596000
 20
3.983760
 11
3.241480
 21
4.356440
 12
2.629440
 22
3.971000
 13
3.274480
 23
4.343240
  0
POLYLINE
  8
0
  6
CONTINUOUS
 66
     1
 40
0.000000
 41
0.000000
  0
VERTEX
  8
0
  6
CONTINUOUS
 10
2.596000
 20
3.983760
  0
VERTEX
  8
0
  6
CONTINUOUS
 10
3.241480
 20
4.356440
  0
VERTEX
  8
0
  6
CONTINUOUS
 10
3.274480
 20
4.343240
  0
VERTEX
  8
0
  6
CONTINUOUS
 10
2.629440
 20
3.971000
  0
VERTEX
  8
0
  6
CONTINUOUS
 10
2.596000
 20
3.983760
  0
SEQEND
  8
0
  0
SOLID
  8
0
 62
    15
 10
2.404600
 20
3.778280
 11
3.050080
 21
4.150520
 12
2.404600
 22
3.019280
 13
3.050080
 23
3.391520
  0
POLYLINE
  8
0
  6
CONTINUOUS
 66
     1
 40
0.000000
 41
0.000000
  0
VERTEX
  8
0
  6
CONTINUOUS
 10
2.404600
 20
3.778280
  0
VERTEX
  8
0
  6
CONTINUOUS
 10
3.050080
 20
4.150520
  0
VERTEX
  8
0
  6
CONTINUOUS
 10
3.050080
 20
3.391520
  0
VERTEX
  8
0
  6
CONTINUOUS
 10
2.404600
 20
3.019280
  0
VERTEX
  8
0
  6
CONTINUOUS
 10
2.404600
 20
3.778280
  0
SEQEND
  8
0
  0
SOLID
  8
0
 62
    15
 10
2.629440
 20
3.971000
 11
3.274480
 21
4.343240
 12
2.629440
 22
3.778280
 13
3.274480
 23
4.150520
  0
POLYLINE
  8
0
  6
CONTINUOUS
 66
     1
 40
0.000000
 41
0.000000
  0
VERTEX
  8
0
  6
CONTINUOUS
 10
2.629440
 20
3.971000
  0
VERTEX
  8
0
  6
CONTINUOUS
 10
3.274480
 20
4.343240
  0
VERTEX
  8
0
  6
CONTINUOUS
 10
3.274480
 20
4.150520
  0
VERTEX
  8
0
  6
CONTINUOUS
 10
2.629440
 20
3.778280
  0
VERTEX
  8
0
  6
CONTINUOUS
 10
2.629440
 20
3.971000
  0
SEQEND
  8
0
  0
SOLID
  8
0
 62
    15
 10
2.489520
 20
4.299240
 11
3.134560
 21
4.671480
 12
2.498320
 22
4.273720
 13
3.143800
 23
4.646400
  0
POLYLINE
  8
0
  6
CONTINUOUS
 66
     1
 40
0.000000
 41
0.000000
  0
VERTEX
  8
0
  6
CONTINUOUS
 10
2.489520
 20
4.299240
  0
VERTEX
  8
0
  6
CONTINUOUS
 10
3.134560
 20
4.671480
  0
VERTEX
  8
0
  6
CONTINUOUS
 10
3.143800
 20
4.646400
  0
VERTEX
  8
0
  6
CONTINUOUS
 10
2.498320
 20
4.273720
  0
VERTEX
  8
0
  6
CONTINUOUS
 10
2.489520
 20
4.299240
  0
SEQEND
  8
0
  0
SOLID
  8
0
 62
    15
 10
2.104960
 20
4.337080
 11
2.750000
 21
4.709320
 12
2.128720
 22
4.347200
 13
2.774200
 23
4.719440
  0
POLYLINE
  8
0
  6
CONTINUOUS
 66
     1
 40
0.000000
 41
0.000000
  0
VERTEX
  8
0
  6
CONTINUOUS
 10
2.104960
 20
4.337080
  0
VERTEX
  8
0
  6
CONTINUOUS
 10
2.750000
 20
4.709320
  0
VERTEX
  8
0
  6
CONTINUOUS
 10
2.774200
 20
4.719440
  0
VERTEX
  8
0
  6
CONTINUOUS
 10
2.128720
 20
4.347200
  0
VERTEX
  8
0
  6
CONTINUOUS
 10
2.104960
 20
4.337080
  0
SEQEND
  8
0
  0
SOLID
  8
0
 62
    15
 10
2.128720
 20
4.347200
 11
2.774200
 21
4.719440
 12
2.159960
 22
4.350720
 13
2.805000
 23
4.722960
  0
POLYLINE
  8
0
  6
CONTINUOUS
 66
     1
 40
0.000000
 41
0.000000
  0
VERTEX
  8
0
  6
CONTINUOUS
 10
2.128720
 20
4.347200
  0
VERTEX
  8
0
  6
CONTINUOUS
 10
2.774200
 20
4.719440
  0
VERTEX
  8
0
  6
CONTINUOUS
 10
2.805000
 20
4.722960
  0
VERTEX
  8
0
  6
CONTINUOUS
 10
2.159960
 20
4.350720
  0
VERTEX
  8
0
  6
CONTINUOUS
 10
2.128720
 20
4.347200
  0
SEQEND
  8
0
  0
SOLID
  8
0
 62
    15
 10
2.159960
 20
4.404840
 11
2.805000
 21
4.777080
 12
2.280520
 22
4.404840
 13
2.925560
 23
4.777080
  0
POLYLINE
  8
0
  6
CONTINUOUS
 66
     1
 40
0.000000
 41
0.000000
  0
VERTEX
  8
0
  6
CONTINUOUS
 10
2.159960
 20
4.404840
  0
VERTEX
  8
0
  6
CONTINUOUS
 10
2.805000
 20
4.777080
  0
VERTEX
  8
0
  6
CONTINUOUS
 10
2.925560
 20
4.777080
  0
VERTEX
  8
0
  6
CONTINUOUS
 10
2.280520
 20
4.404840
  0
VERTEX
  8
0
  6
CONTINUOUS
 10
2.159960
 20
4.404840
  0
SEQEND
  8
0
  0
SOLID
  8
0
 62
    15
 10
2.280520
 20
4.404840
 11
2.925560
 21
4.777080
 12
2.282720
 22
4.404840
 13
2.928200
 23
4.777080
  0
POLYLINE
  8
0
  6
CONTINUOUS
 66
     1
 40
0.000000
 41
0.000000
  0
VERTEX
  8
0
  6
CONTINUOUS
 10
2.280520
 20
4.404840
  0
VERTEX
  8
0
  6
CONTINUOUS
 10
2.925560
 20
4.777080
  0
VERTEX
  8
0
  6
CONTINUOUS
 10
2.928200
 20
4.777080
  0
VERTEX
  8
0
  6
CONTINUOUS
 10
2.282720
 20
4.404840
  0
VERTEX
  8
0
  6
CONTINUOUS
 10
2.280520
 20
4.404840
  0
SEQEND
  8
0
  0
POLYLINE
  8
0
  6
CONTINUOUS
 66
     1
 40
0.000000
 41
0.000000
  0
VERTEX
  8
0
  6
CONTINUOUS
 10
2.282720
 20
4.404840
  0
VERTEX
  8
0
  6
CONTINUOUS
 10
2.403280
 20
4.404840
  0
VERTEX
  8
0
  6
CONTINUOUS
 10
2.403280
 20
4.350720
  0
VERTEX
  8
0
  6
CONTINUOUS
 10
2.434520
 20
4.347200
  0
VERTEX
  8
0
  6
CONTINUOUS
 10
2.458280
 20
4.337080
  0
VERTEX
  8
0
  6
CONTINUOUS
 10
2.476320
 20
4.320800
  0
VERTEX
  8
0
  6
CONTINUOUS
 10
2.489520
 20
4.299240
  0
VERTEX
  8
0
  6
CONTINUOUS
 10
2.498320
 20
4.273720
  0
VERTEX
  8
0
  6
CONTINUOUS
 10
2.504480
 20
4.245120
  0
VERTEX
  8
0
  6
CONTINUOUS
 10
2.508440
 20
4.213880
  0
VERTEX
  8
0
  6
CONTINUOUS
 10
2.510200
 20
4.197600
  0
VERTEX
  8
0
  6
CONTINUOUS
 10
2.511960
 20
4.181320
  0
VERTEX
  8
0
  6
CONTINUOUS
 10
2.519880
 20
4.114880
  0
VERTEX
  8
0
  6
CONTINUOUS
 10
2.526480
 20
4.082760
  0
VERTEX
  8
0
  6
CONTINUOUS
 10
2.536600
 20
4.052840
  0
VERTEX
  8
0
  6
CONTINUOUS
 10
2.550680
 20
4.026000
  0
VERTEX
  8
0
  6
CONTINUOUS
 10
2.570480
 20
4.002680
  0
VERTEX
  8
0
  6
CONTINUOUS
 10
2.596000
 20
3.983760
  0
VERTEX
  8
0
  6
CONTINUOUS
 10
2.629440
 20
3.971000
  0
VERTEX
  8
0
  6
CONTINUOUS
 10
2.629440
 20
3.778280
  0
VERTEX
  8
0
  6
CONTINUOUS
 10
2.404600
 20
3.778280
  0
VERTEX
  8
0
  6
CONTINUOUS
 10
2.404600
 20
3.019280
  0
VERTEX
  8
0
  6
CONTINUOUS
 10
2.158640
 20
3.019280
  0
VERTEX
  8
0
  6
CONTINUOUS
 10
2.158640
 20
3.778280
  0
VERTEX
  8
0
  6
CONTINUOUS
 10
1.933800
 20
3.778280
  0
VERTEX
  8
0
  6
CONTINUOUS
 10
1.933800
 20
3.971000
  0
VERTEX
  8
0
  6
CONTINUOUS
 10
1.967240
 20
3.983760
  0
VERTEX
  8
0
  6
CONTINUOUS
 10
1.992760
 20
4.002680
  0
VERTEX
  8
0
  6
CONTINUOUS
 10
2.012560
 20
4.026000
  0
VERTEX
  8
0
  6
CONTINUOUS
 10
2.026640
 20
4.052840
  0
VERTEX
  8
0
  6
CONTINUOUS
 10
2.036760
 20
4.082760
  0
VERTEX
  8
0
  6
CONTINUOUS
 10
2.043360
 20
4.114880
  0
VERTEX
  8
0
  6
CONTINUOUS
 10
2.051280
 20
4.181320
  0
VERTEX
  8
0
  6
CONTINUOUS
 10
2.053040
 20
4.197600
  0
VERTEX
  8
0
  6
CONTINUOUS
 10
2.054800
 20
4.213880
  0
VERTEX
  8
0
  6
CONTINUOUS
 10
2.058760
 20
4.245120
  0
VERTEX
  8
0
  6
CONTINUOUS
 10
2.064920
 20
4.273720
  0
VERTEX
  8
0
  6
CONTINUOUS
 10
2.073720
 20
4.299240
  0
VERTEX
  8
0
  6
CONTINUOUS
 10
2.086920
 20
4.320800
  0
VERTEX
  8
0
  6
CONTINUOUS
 10
2.104960
 20
4.337080
  0
VERTEX
  8
0
  6
CONTINUOUS
 10
2.128720
 20
4.347200
  0
VERTEX
  8
0
  6
CONTINUOUS
 10
2.159960
 20
4.350720
  0
VERTEX
  8
0
  6
CONTINUOUS
 10
2.159960
 20
4.404840
  0
VERTEX
  8
0
  6
CONTINUOUS
 10
2.280520
 20
4.404840
  0
VERTEX
  8
0
  6
CONTINUOUS
 10
2.282720
 20
4.404840
  0
SEQEND
  8
0
  0
SOLID
  8
0
 62
    15
 10
3.307920
 20
4.412760
 11
3.960440
 21
4.782800
 12
4.057240
 22
4.412760
 13
4.709760
 23
4.782800
  0
POLYLINE
  8
0
  6
CONTINUOUS
 66
     1
 40
0.000000
 41
0.000000
  0
VERTEX
  8
0
  6
CONTINUOUS
 10
3.307920
 20
4.412760
  0
VERTEX
  8
0
  6
CONTINUOUS
 10
3.960440
 20
4.782800
  0
VERTEX
  8
0
  6
CONTINUOUS
 10
4.709760
 20
4.782800
  0
VERTEX
  8
0
  6
CONTINUOUS
 10
4.057240
 20
4.412760
  0
VERTEX
  8
0
  6
CONTINUOUS
 10
3.307920
 20
4.412760
  0
SEQEND
  8
0
  0
SOLID
  8
0
 62
    15
 10
3.309240
 20
3.786200
 11
3.961760
 21
4.156240
 12
3.533640
 22
3.786200
 13
4.186160
 23
4.156240
  0
POLYLINE
  8
0
  6
CONTINUOUS
 66
     1
 40
0.000000
 41
0.000000
  0
VERTEX
  8
0
  6
CONTINUOUS
 10
3.309240
 20
3.786200
  0
VERTEX
  8
0
  6
CONTINUOUS
 10
3.961760
 20
4.156240
  0
VERTEX
  8
0
  6
CONTINUOUS
 10
4.186160
 20
4.156240
  0
VERTEX
  8
0
  6
CONTINUOUS
 10
3.533640
 20
3.786200
  0
VERTEX
  8
0
  6
CONTINUOUS
 10
3.309240
 20
3.786200
  0
SEQEND
  8
0
  0
SOLID
  8
0
 62
    15
 10
4.057240
 20
4.412760
 11
4.709760
 21
4.782800
 12
4.057240
 22
3.019280
 13
4.709760
 23
3.389320
  0
POLYLINE
  8
0
  6
CONTINUOUS
 66
     1
 40
0.000000
 41
0.000000
  0
VERTEX
  8
0
  6
CONTINUOUS
 10
4.057240
 20
4.412760
  0
VERTEX
  8
0
  6
CONTINUOUS
 10
4.709760
 20
4.782800
  0
VERTEX
  8
0
  6
CONTINUOUS
 10
4.709760
 20
3.389320
  0
VERTEX
  8
0
  6
CONTINUOUS
 10
4.057240
 20
3.019280
  0
VERTEX
  8
0
  6
CONTINUOUS
 10
4.057240
 20
4.412760
  0
SEQEND
  8
0
  0
POLYLINE
  8
0
  6
CONTINUOUS
 66
     1
 40
0.000000
 41
0.000000
  0
VERTEX
  8
0
  6
CONTINUOUS
 10
3.309240
 20
3.027200
  0
VERTEX
  8
0
  6
CONTINUOUS
 10
3.309240
 20
3.786200
  0
VERTEX
  8
0
  6
CONTINUOUS
 10
3.533640
 20
3.786200
  0
VERTEX
  8
0
  6
CONTINUOUS
 10
3.533640
 20
3.978920
  0
VERTEX
  8
0
  6
CONTINUOUS
 10
3.500640
 20
3.991680
  0
VERTEX
  8
0
  6
CONTINUOUS
 10
3.474680
 20
4.010600
  0
VERTEX
  8
0
  6
CONTINUOUS
 10
3.455320
 20
4.033920
  0
VERTEX
  8
0
  6
CONTINUOUS
 10
3.441240
 20
4.060760
  0
VERTEX
  8
0
  6
CONTINUOUS
 10
3.431120
 20
4.090680
  0
VERTEX
  8
0
  6
CONTINUOUS
 10
3.424520
 20
4.122800
  0
VERTEX
  8
0
  6
CONTINUOUS
 10
3.416160
 20
4.189240
  0
VERTEX
  8
0
  6
CONTINUOUS
 10
3.414840
 20
4.205520
  0
VERTEX
  8
0
  6
CONTINUOUS
 10
3.413080
 20
4.221800
  0
VERTEX
  8
0
  6
CONTINUOUS
 10
3.409120
 20
4.253040
  0
VERTEX
  8
0
  6
CONTINUOUS
 10
3.402960
 20
4.281640
  0
VERTEX
  8
0
  6
CONTINUOUS
 10
3.393720
 20
4.307160
  0
VERTEX
  8
0
  6
CONTINUOUS
 10
3.380960
 20
4.328720
  0
VERTEX
  8
0
  6
CONTINUOUS
 10
3.362920
 20
4.345000
  0
VERTEX
  8
0
  6
CONTINUOUS
 10
3.339160
 20
4.355120
  0
VERTEX
  8
0
  6
CONTINUOUS
 10
3.307920
 20
4.358640
  0
VERTEX
  8
0
  6
CONTINUOUS
 10
3.307920
 20
4.412760
  0
VERTEX
  8
0
  6
CONTINUOUS
 10
4.057240
 20
4.412760
  0
VERTEX
  8
0
  6
CONTINUOUS
 10
4.057240
 20
3.019280
  0
VERTEX
  8
0
  6
CONTINUOUS
 10
3.311880
 20
3.019280
  0
VERTEX
  8
0
  6
CONTINUOUS
 10
3.309240
 20
3.027200
  0
SEQEND
  8
0
  0
TEXT
  8
0
 10
2.788280
 20
2.752200
 40
0.138203
  1
BA  1320A & B
 41
1.000000
  7
SN0
 71
     0
 72
     5
 11
3.809694
 21
2.752200
  0
TEXT
  8
0
 10
3.124000
 20
2.599520
 40
0.138203
  1
1-3/8"
 41
1.000000
  7
SN0
 71
     0
 72
     5
 11
3.525082
 21
2.599520
  0
POLYLINE
  8
0
  6
CONTINUOUS
 66
     1
 40
0.014080
 41
0.014080
  0
VERTEX
  8
0
  6
CONTINUOUS
 10
2.748240
 20
6.920320
  0
VERTEX
  8
0
  6
CONTINUOUS
 10
2.868800
 20
6.920320
  0
VERTEX
  8
0
  6
CONTINUOUS
 10
2.868800
 20
6.866640
  0
VERTEX
  8
0
  6
CONTINUOUS
 10
2.885080
 20
6.865760
  0
VERTEX
  8
0
  6
CONTINUOUS
 10
2.900040
 20
6.863120
  0
VERTEX
  8
0
  6
CONTINUOUS
 10
2.912800
 20
6.858720
  0
VERTEX
  8
0
  6
CONTINUOUS
 10
2.923800
 20
6.853000
  0
VERTEX
  8
0
  6
CONTINUOUS
 10
2.933480
 20
6.845520
  0
VERTEX
  8
0
  6
CONTINUOUS
 10
2.941840
 20
6.836720
  0
VERTEX
  8
0
  6
CONTINUOUS
 10
2.948880
 20
6.826600
  0
VERTEX
  8
0
  6
CONTINUOUS
 10
2.959440
 20
6.802840
  0
VERTEX
  8
0
  6
CONTINUOUS
 10
2.966920
 20
6.775560
  0
VERTEX
  8
0
  6
CONTINUOUS
 10
2.973960
 20
6.729800
  0
VERTEX
  8
0
  6
CONTINUOUS
 10
2.984960
 20
6.630800
  0
VERTEX
  8
0
  6
CONTINUOUS
 10
2.991560
 20
6.598680
  0
VERTEX
  8
0
  6
CONTINUOUS
 10
3.001680
 20
6.568760
  0
VERTEX
  8
0
  6
CONTINUOUS
 10
3.015760
 20
6.541480
  0
VERTEX
  8
0
  6
CONTINUOUS
 10
3.035560
 20
6.518600
  0
VERTEX
  8
0
  6
CONTINUOUS
 10
3.047440
 20
6.508480
  0
VERTEX
  8
0
  6
CONTINUOUS
 10
3.076920
 20
6.492640
  0
VERTEX
  8
0
  6
CONTINUOUS
 10
3.094520
 20
6.486920
  0
VERTEX
  8
0
  6
CONTINUOUS
 10
3.094520
 20
6.293760
  0
VERTEX
  8
0
  6
CONTINUOUS
 10
2.987160
 20
6.293760
  0
VERTEX
  8
0
  6
CONTINUOUS
 10
2.987600
 20
6.293760
  0
VERTEX
  8
0
  6
CONTINUOUS
 10
2.869680
 20
6.293760
  0
VERTEX
  8
0
  6
CONTINUOUS
 10
2.869680
 20
5.534760
  0
VERTEX
  8
0
  6
CONTINUOUS
 10
2.623720
 20
5.534760
  0
VERTEX
  8
0
  6
CONTINUOUS
 10
2.623720
 20
6.294200
  0
VERTEX
  8
0
  6
CONTINUOUS
 10
2.399320
 20
6.293760
  0
VERTEX
  8
0
  6
CONTINUOUS
 10
2.399320
 20
6.486920
  0
VERTEX
  8
0
  6
CONTINUOUS
 10
2.416920
 20
6.492640
  0
VERTEX
  8
0
  6
CONTINUOUS
 10
2.446400
 20
6.508480
  0
VERTEX
  8
0
  6
CONTINUOUS
 10
2.468840
 20
6.529600
  0
VERTEX
  8
0
  6
CONTINUOUS
 10
2.485560
 20
6.554680
  0
VERTEX
  8
0
  6
CONTINUOUS
 10
2.497440
 20
6.583280
  0
VERTEX
  8
0
  6
CONTINUOUS
 10
2.505800
 20
6.614520
  0
VERTEX
  8
0
  6
CONTINUOUS
 10
2.513280
 20
6.663800
  0
VERTEX
  8
0
  6
CONTINUOUS
 10
2.523840
 20
6.761040
  0
VERTEX
  8
0
  6
CONTINUOUS
 10
2.533960
 20
6.802840
  0
VERTEX
  8
0
  6
CONTINUOUS
 10
2.544960
 20
6.826600
  0
VERTEX
  8
0
  6
CONTINUOUS
 10
2.552000
 20
6.836720
  0
VERTEX
  8
0
  6
CONTINUOUS
 10
2.560360
 20
6.845520
  0
VERTEX
  8
0
  6
CONTINUOUS
 10
2.570040
 20
6.853000
  0
VERTEX
  8
0
  6
CONTINUOUS
 10
2.581040
 20
6.858720
  0
VERTEX
  8
0
  6
CONTINUOUS
 10
2.593800
 20
6.863120
  0
VERTEX
  8
0
  6
CONTINUOUS
 10
2.616680
 20
6.866640
  0
VERTEX
  8
0
  6
CONTINUOUS
 10
2.625040
 20
6.866640
  0
VERTEX
  8
0
  6
CONTINUOUS
 10
2.625040
 20
6.920320
  0
VERTEX
  8
0
  6
CONTINUOUS
 10
2.748240
 20
6.920320
  0
SEQEND
  8
0
  0
POLYLINE
  8
0
  6
CONTINUOUS
 66
     1
 40
0.014080
 41
0.014080
  0
VERTEX
  8
0
  6
CONTINUOUS
 10
3.256880
 20
5.521560
  0
VERTEX
  8
0
  6
CONTINUOUS
 10
3.256880
 20
6.280560
  0
VERTEX
  8
0
  6
CONTINUOUS
 10
3.374800
 20
6.280560
  0
VERTEX
  8
0
  6
CONTINUOUS
 10
3.373920
 20
6.280560
  0
VERTEX
  8
0
  6
CONTINUOUS
 10
3.481280
 20
6.280560
  0
VERTEX
  8
0
  6
CONTINUOUS
 10
3.481280
 20
6.473280
  0
VERTEX
  8
0
  6
CONTINUOUS
 10
3.472040
 20
6.475920
  0
VERTEX
  8
0
  6
CONTINUOUS
 10
3.463680
 20
6.479000
  0
VERTEX
  8
0
  6
CONTINUOUS
 10
3.448280
 20
6.486480
  0
VERTEX
  8
0
  6
CONTINUOUS
 10
3.434200
 20
6.494840
  0
VERTEX
  8
0
  6
CONTINUOUS
 10
3.422320
 20
6.504960
  0
VERTEX
  8
0
  6
CONTINUOUS
 10
3.411760
 20
6.515960
  0
VERTEX
  8
0
  6
CONTINUOUS
 10
3.402960
 20
6.528280
  0
VERTEX
  8
0
  6
CONTINUOUS
 10
3.395040
 20
6.541480
  0
VERTEX
  8
0
  6
CONTINUOUS
 10
3.388440
 20
6.555120
  0
VERTEX
  8
0
  6
CONTINUOUS
 10
3.383160
 20
6.570080
  0
VERTEX
  8
0
  6
CONTINUOUS
 10
3.378760
 20
6.585040
  0
VERTEX
  8
0
  6
CONTINUOUS
 10
3.374800
 20
6.600880
  0
VERTEX
  8
0
  6
CONTINUOUS
 10
3.371720
 20
6.617160
  0
VERTEX
  8
0
  6
CONTINUOUS
 10
3.367320
 20
6.650160
  0
VERTEX
  8
0
  6
CONTINUOUS
 10
3.363800
 20
6.683600
  0
VERTEX
  8
0
  6
CONTINUOUS
 10
3.360720
 20
6.716160
  0
VERTEX
  8
0
  6
CONTINUOUS
 10
3.356760
 20
6.747400
  0
VERTEX
  8
0
  6
CONTINUOUS
 10
3.353680
 20
6.762360
  0
VERTEX
  8
0
  6
CONTINUOUS
 10
3.350600
 20
6.776440
  0
VERTEX
  8
0
  6
CONTINUOUS
 10
3.346640
 20
6.789640
  0
VERTEX
  8
0
  6
CONTINUOUS
 10
3.341360
 20
6.801960
  0
VERTEX
  8
0
  6
CONTINUOUS
 10
3.335640
 20
6.812960
  0
VERTEX
  8
0
  6
CONTINUOUS
 10
3.328600
 20
6.823080
  0
VERTEX
  8
0
  6
CONTINUOUS
 10
3.320240
 20
6.831880
  0
VERTEX
  8
0
  6
CONTINUOUS
 10
3.310560
 20
6.839360
  0
VERTEX
  8
0
  6
CONTINUOUS
 10
3.299560
 20
6.845520
  0
VERTEX
  8
0
  6
CONTINUOUS
 10
3.286800
 20
6.849920
  0
VERTEX
  8
0
  6
CONTINUOUS
 10
3.271840
 20
6.852560
  0
VERTEX
  8
0
  6
CONTINUOUS
 10
3.263920
 20
6.853440
  0
VERTEX
  8
0
  6
CONTINUOUS
 10
3.255560
 20
6.853440
  0
VERTEX
  8
0
  6
CONTINUOUS
 10
3.255560
 20
6.907120
  0
VERTEX
  8
0
  6
CONTINUOUS
 10
4.004880
 20
6.907120
  0
VERTEX
  8
0
  6
CONTINUOUS
 10
4.004880
 20
5.513640
  0
VERTEX
  8
0
  6
CONTINUOUS
 10
3.259520
 20
5.513640
  0
VERTEX
  8
0
  6
CONTINUOUS
 10
3.256880
 20
5.521560
  0
SEQEND
  8
0
  0
TEXT
  8
0
 10
2.707320
 20
5.271640
 40
0.138203
  1
BA  1320A & B
 41
1.000000
  7
SN0
 71
     0
 72
     5
 11
3.728734
 21
5.271640
  0
TEXT
  8
0
 10
3.043040
 20
5.118960
 40
0.138203
  1
1-3/8"
 41
1.000000
  7
SN0
 71
     0
 72
     5
 11
3.444122
 21
5.118960
  0
ENDSEC
  0
EOF
