  0
SECTION
  2
HEADER
  9
$ACADVER
  1
AC1006
  9
$EXTMIN
 10
3.046560
 20
1.054680
  9
$EXTMAX
 10
5.985760
 20
5.199480
  9
$LTSCALE
 40
0.044000
  9
$PDMODE
 70
    35
  9
$PDSIZE
 40
0.035200
  0
ENDSEC
  0
SECTION
  2
TABLES
  0
TABLE
  2
LTYPE
 70
     9
  0
LTYPE
  2
CONTINUOUS
 70
    64
  3
Solid line
 72
    65
 73
     0
 40
0.000000
  0
LTYPE
  2
DASHED
 70
    64
  3
__ __ __ __ __ __ __ __ __ __ __ __ __ __ __
 72
    65
 73
     2
 40
0.000330
 49
0.000220
 49
-0.000110
  0
LTYPE
  2
HIDDEN
 70
    64
  3
 _ _ _ _ _ _ _ _ _ _ _ _ _ _ _ _ _ _ _ _ _ _
 72
    65
 73
     2
 40
0.000165
 49
0.000110
 49
-0.000055
  0
LTYPE
  2
CENTER
 70
    64
  3
____ _ ____ _ ____ _ ____ _ ____ _ ____ _ ____
 72
    65
 73
     4
 40
0.000880
 49
0.000550
 49
-0.000110
 49
0.000110
 49
-0.000110
  0
LTYPE
  2
PHANTOM
 70
    64
  3
_____ _ _ _____ _ _ _____ _ _ _____ _ _ ____
 72
    65
 73
     6
 40
0.001100
 49
0.000550
 49
-0.000110
 49
0.000110
 49
-0.000110
 49
0.000110
 49
-0.000110
  0
LTYPE
  2
DOT
 70
    64
  3
...............................................
 72
    65
 73
     2
 40
0.000110
 49
0.000000
 49
-0.000110
  0
LTYPE
  2
DASHDOT
 70
    64
  3
__ . __ . __ . __ . __ . __ . __ . __ . __ . __
 72
    65
 73
     4
 40
0.000440
 49
0.000220
 49
-0.000110
 49
0.000000
 49
-0.000110
  0
LTYPE
  2
BORDER
 70
    64
  3
__ __ . __ __ . __ __ . __ __ . __ __ . __ __
 72
    65
 73
     6
 40
0.000770
 49
0.000220
 49
-0.000110
 49
0.000220
 49
-0.000110
 49
0.000000
 49
-0.000110
  0
LTYPE
  2
DIVIDE
 70
    64
  3
__ . . __ . . __ . . __ . . __ . . __ . . __
 72
    65
 73
     6
 40
0.000550
 49
0.000220
 49
-0.000110
 49
0.000000
 49
-0.000110
 49
0.000000
 49
-0.000110
  0
LTYPE
  2
DOTDOT
 70
    64
  3
 . .  . .  . .  . .  . .  . . 
 72
    65
 73
     5
 40
0.000242
 49
-0.000110
 49
0.000000
 49
-0.000110
 49
0.000000
 49
-0.000110
  0
ENDTAB
  0
TABLE
  2
STYLE
 70
     2
  0
STYLE
 70
     0
  2
SN0
 40
0.000000
 41
0.000440
 50
0.000000
 71
     0
 42
0.000000
  3
ROMAND
  0
STYLE
 70
    68
  2
SV0
 40
0.000000
 41
0.000440
 50
0.000000
 71
     0
 42
0.000000
  3
ROMAND
  0
ENDTAB
  0
TABLE
  2
LAYER
 70
     3
  0
LAYER
  2
FOREGROUND
 70
    64
 62
     7
  6
CONTINUOUS
  0
LAYER
  2
BACKGROUND
 70
    65
 62
    -7
  6
CONTINUOUS
  0
LAYER
  2
0
 70
    64
 62
     7
  6
CONTINUOUS
  0
ENDTAB
  0
ENDSEC
  0
SECTION
  2
ENTITIES
  0
POLYLINE
  8
FOREGROUND
  6
CONTINUOUS
 66
     1
 40
0.000000
 41
0.000000
  0
VERTEX
  8
FOREGROUND
  6
CONTINUOUS
 10
0.000000
 20
6.254160
  0
VERTEX
  8
FOREGROUND
  6
CONTINUOUS
 10
8.499920
 20
6.254160
  0
VERTEX
  8
FOREGROUND
  6
CONTINUOUS
 10
8.499920
 20
-4.745840
  0
VERTEX
  8
FOREGROUND
  6
CONTINUOUS
 10
0.000000
 20
-4.745840
  0
VERTEX
  8
FOREGROUND
  6
CONTINUOUS
 10
0.000000
 20
6.254160
  0
SEQEND
  8
0
  0
POLYLINE
  8
FOREGROUND
  6
CONTINUOUS
 66
     1
 40
0.000000
 41
0.000000
  0
VERTEX
  8
FOREGROUND
  6
CONTINUOUS
 10
0.000000
 20
6.254160
  0
VERTEX
  8
FOREGROUND
  6
CONTINUOUS
 10
8.499920
 20
6.254160
  0
VERTEX
  8
FOREGROUND
  6
CONTINUOUS
 10
8.499920
 20
-4.745840
  0
VERTEX
  8
FOREGROUND
  6
CONTINUOUS
 10
0.000000
 20
-4.745840
  0
VERTEX
  8
FOREGROUND
  6
CONTINUOUS
 10
0.000000
 20
6.254160
  0
SEQEND
  8
0
  0
TEXT
  8
0
 10
4.920080
 20
4.360840
 40
0.138113
  1
BA  1319
 41
1.000000
  7
SN0
 71
     0
 72
     5
 11
5.602314
 21
4.360840
  0
TEXT
  8
0
 10
4.810080
 20
4.159320
 40
0.138113
  1
3/4" x 2-3/4"
 41
1.000000
  7
SN0
 71
     0
 72
     5
 11
5.709916
 21
4.159320
  0
POLYLINE
  8
0
  6
CONTINUOUS
 66
     1
 40
0.000000
 41
0.000000
  0
VERTEX
  8
0
  6
CONTINUOUS
 10
5.596360
 20
3.938000
  0
VERTEX
  8
0
  6
CONTINUOUS
 10
5.985320
 20
4.338840
  0
VERTEX
  8
0
  6
CONTINUOUS
 10
5.630240
 20
4.683360
  0
VERTEX
  8
0
  6
CONTINUOUS
 10
5.580520
 20
4.634960
  0
VERTEX
  8
0
  6
CONTINUOUS
 10
5.531680
 20
4.595800
  0
VERTEX
  8
0
  6
CONTINUOUS
 10
5.483720
 20
4.565000
  0
VERTEX
  8
0
  6
CONTINUOUS
 10
5.436640
 20
4.542560
  0
VERTEX
  8
0
  6
CONTINUOUS
 10
5.390880
 20
4.527600
  0
VERTEX
  8
0
  6
CONTINUOUS
 10
5.368000
 20
4.522760
  0
VERTEX
  8
0
  6
CONTINUOUS
 10
5.324000
 20
4.517920
  0
VERTEX
  8
0
  6
CONTINUOUS
 10
5.302440
 20
4.517480
  0
VERTEX
  8
0
  6
CONTINUOUS
 10
5.260200
 20
4.521000
  0
VERTEX
  8
0
  6
CONTINUOUS
 10
5.219280
 20
4.529800
  0
VERTEX
  8
0
  6
CONTINUOUS
 10
5.179680
 20
4.542560
  0
VERTEX
  8
0
  6
CONTINUOUS
 10
5.141840
 20
4.559280
  0
VERTEX
  8
0
  6
CONTINUOUS
 10
5.088160
 20
4.590080
  0
VERTEX
  8
0
  6
CONTINUOUS
 10
5.038000
 20
4.625280
  0
VERTEX
  8
0
  6
CONTINUOUS
 10
4.977720
 20
4.676760
  0
VERTEX
  8
0
  6
CONTINUOUS
 10
4.909080
 20
4.608120
  0
VERTEX
  8
0
  6
CONTINUOUS
 10
4.888400
 20
4.621760
  0
VERTEX
  8
0
  6
CONTINUOUS
 10
4.864640
 20
4.630120
  0
VERTEX
  8
0
  6
CONTINUOUS
 10
4.839120
 20
4.631440
  0
VERTEX
  8
0
  6
CONTINUOUS
 10
4.826800
 20
4.629680
  0
VERTEX
  8
0
  6
CONTINUOUS
 10
4.814480
 20
4.625720
  0
VERTEX
  8
0
  6
CONTINUOUS
 10
4.802600
 20
4.620000
  0
VERTEX
  8
0
  6
CONTINUOUS
 10
4.781920
 20
4.601520
  0
VERTEX
  8
0
  6
CONTINUOUS
 10
4.773560
 20
4.589200
  0
VERTEX
  8
0
  6
CONTINUOUS
 10
4.763880
 20
4.565880
  0
VERTEX
  8
0
  6
CONTINUOUS
 10
4.759480
 20
4.546960
  0
VERTEX
  8
0
  6
CONTINUOUS
 10
4.757280
 20
4.525840
  0
VERTEX
  8
0
  6
CONTINUOUS
 10
4.757280
 20
4.513960
  0
VERTEX
  8
0
  6
CONTINUOUS
 10
4.705800
 20
4.481400
  0
VERTEX
  8
0
  6
CONTINUOUS
 10
4.650360
 20
4.454560
  0
VERTEX
  8
0
  6
CONTINUOUS
 10
4.591840
 20
4.433000
  0
VERTEX
  8
0
  6
CONTINUOUS
 10
4.530240
 20
4.416720
  0
VERTEX
  8
0
  6
CONTINUOUS
 10
4.488000
 20
4.408360
  0
VERTEX
  8
0
  6
CONTINUOUS
 10
4.444880
 20
4.402200
  0
VERTEX
  8
0
  6
CONTINUOUS
 10
4.356000
 20
4.395600
  0
VERTEX
  8
0
  6
CONTINUOUS
 10
4.310680
 20
4.395600
  0
VERTEX
  8
0
  6
CONTINUOUS
 10
4.265360
 20
4.396920
  0
VERTEX
  8
0
  6
CONTINUOUS
 10
4.219600
 20
4.400000
  0
VERTEX
  8
0
  6
CONTINUOUS
 10
4.128080
 20
4.411000
  0
VERTEX
  8
0
  6
CONTINUOUS
 10
4.037440
 20
4.428160
  0
VERTEX
  8
0
  6
CONTINUOUS
 10
3.948560
 20
4.450160
  0
VERTEX
  8
0
  6
CONTINUOUS
 10
3.862760
 20
4.477440
  0
VERTEX
  8
0
  6
CONTINUOUS
 10
3.781360
 20
4.508240
  0
VERTEX
  8
0
  6
CONTINUOUS
 10
3.705240
 20
4.543000
  0
VERTEX
  8
0
  6
CONTINUOUS
 10
3.669160
 20
4.561480
  0
VERTEX
  8
0
  6
CONTINUOUS
 10
3.603160
 20
4.600200
  0
VERTEX
  8
0
  6
CONTINUOUS
 10
3.545080
 20
4.641120
  0
VERTEX
  8
0
  6
CONTINUOUS
 10
3.496240
 20
4.683360
  0
VERTEX
  8
0
  6
CONTINUOUS
 10
3.235320
 20
4.423760
  0
VERTEX
  8
0
  6
CONTINUOUS
 10
3.760680
 20
3.934040
  0
VERTEX
  8
0
  6
CONTINUOUS
 10
5.596360
 20
3.937120
  0
VERTEX
  8
0
  6
CONTINUOUS
 10
5.596360
 20
3.938000
  0
SEQEND
  8
0
  0
SOLID
  8
0
 62
    15
 10
4.235440
 20
2.144120
 11
4.890160
 21
1.770120
 12
4.238520
 22
2.115520
 13
4.893240
 23
1.741080
  0
POLYLINE
  8
0
  6
CONTINUOUS
 66
     1
 40
0.000000
 41
0.000000
  0
VERTEX
  8
0
  6
CONTINUOUS
 10
4.235440
 20
2.144120
  0
VERTEX
  8
0
  6
CONTINUOUS
 10
4.890160
 20
1.770120
  0
VERTEX
  8
0
  6
CONTINUOUS
 10
4.893240
 20
1.741080
  0
VERTEX
  8
0
  6
CONTINUOUS
 10
4.238520
 20
2.115520
  0
VERTEX
  8
0
  6
CONTINUOUS
 10
4.235440
 20
2.144120
  0
SEQEND
  8
0
  0
SOLID
  8
0
 62
    15
 10
5.210040
 20
2.975720
 11
5.864320
 21
2.601280
 12
5.145360
 22
2.971320
 13
5.800080
 23
2.596880
  0
POLYLINE
  8
0
  6
CONTINUOUS
 66
     1
 40
0.000000
 41
0.000000
  0
VERTEX
  8
0
  6
CONTINUOUS
 10
5.210040
 20
2.975720
  0
VERTEX
  8
0
  6
CONTINUOUS
 10
5.864320
 20
2.601280
  0
VERTEX
  8
0
  6
CONTINUOUS
 10
5.800080
 20
2.596880
  0
VERTEX
  8
0
  6
CONTINUOUS
 10
5.145360
 20
2.971320
  0
VERTEX
  8
0
  6
CONTINUOUS
 10
5.210040
 20
2.975720
  0
SEQEND
  8
0
  0
SOLID
  8
0
 62
    15
 10
5.145360
 20
2.971320
 11
5.800080
 21
2.596880
 12
5.075400
 22
2.959440
 13
5.730120
 23
2.585000
  0
POLYLINE
  8
0
  6
CONTINUOUS
 66
     1
 40
0.000000
 41
0.000000
  0
VERTEX
  8
0
  6
CONTINUOUS
 10
5.145360
 20
2.971320
  0
VERTEX
  8
0
  6
CONTINUOUS
 10
5.800080
 20
2.596880
  0
VERTEX
  8
0
  6
CONTINUOUS
 10
5.730120
 20
2.585000
  0
VERTEX
  8
0
  6
CONTINUOUS
 10
5.075400
 20
2.959440
  0
VERTEX
  8
0
  6
CONTINUOUS
 10
5.145360
 20
2.971320
  0
SEQEND
  8
0
  0
SOLID
  8
0
 62
    15
 10
5.075400
 20
2.959440
 11
5.730120
 21
2.585000
 12
4.923600
 22
2.915000
 13
5.578320
 23
2.540560
  0
POLYLINE
  8
0
  6
CONTINUOUS
 66
     1
 40
0.000000
 41
0.000000
  0
VERTEX
  8
0
  6
CONTINUOUS
 10
5.075400
 20
2.959440
  0
VERTEX
  8
0
  6
CONTINUOUS
 10
5.730120
 20
2.585000
  0
VERTEX
  8
0
  6
CONTINUOUS
 10
5.578320
 20
2.540560
  0
VERTEX
  8
0
  6
CONTINUOUS
 10
4.923600
 20
2.915000
  0
VERTEX
  8
0
  6
CONTINUOUS
 10
5.075400
 20
2.959440
  0
SEQEND
  8
0
  0
SOLID
  8
0
 62
    15
 10
4.923600
 20
2.915000
 11
5.578320
 21
2.540560
 12
4.764320
 22
2.844600
 13
5.419040
 23
2.470160
  0
POLYLINE
  8
0
  6
CONTINUOUS
 66
     1
 40
0.000000
 41
0.000000
  0
VERTEX
  8
0
  6
CONTINUOUS
 10
4.923600
 20
2.915000
  0
VERTEX
  8
0
  6
CONTINUOUS
 10
5.578320
 20
2.540560
  0
VERTEX
  8
0
  6
CONTINUOUS
 10
5.419040
 20
2.470160
  0
VERTEX
  8
0
  6
CONTINUOUS
 10
4.764320
 20
2.844600
  0
VERTEX
  8
0
  6
CONTINUOUS
 10
4.923600
 20
2.915000
  0
SEQEND
  8
0
  0
SOLID
  8
0
 62
    15
 10
4.764320
 20
2.844600
 11
5.419040
 21
2.470160
 12
4.607240
 22
2.751320
 13
5.261520
 23
2.376880
  0
POLYLINE
  8
0
  6
CONTINUOUS
 66
     1
 40
0.000000
 41
0.000000
  0
VERTEX
  8
0
  6
CONTINUOUS
 10
4.764320
 20
2.844600
  0
VERTEX
  8
0
  6
CONTINUOUS
 10
5.419040
 20
2.470160
  0
VERTEX
  8
0
  6
CONTINUOUS
 10
5.261520
 20
2.376880
  0
VERTEX
  8
0
  6
CONTINUOUS
 10
4.607240
 20
2.751320
  0
VERTEX
  8
0
  6
CONTINUOUS
 10
4.764320
 20
2.844600
  0
SEQEND
  8
0
  0
SOLID
  8
0
 62
    15
 10
4.607240
 20
2.751320
 11
5.261520
 21
2.376880
 12
4.461600
 22
2.638240
 13
5.116320
 23
2.264240
  0
POLYLINE
  8
0
  6
CONTINUOUS
 66
     1
 40
0.000000
 41
0.000000
  0
VERTEX
  8
0
  6
CONTINUOUS
 10
4.607240
 20
2.751320
  0
VERTEX
  8
0
  6
CONTINUOUS
 10
5.261520
 20
2.376880
  0
VERTEX
  8
0
  6
CONTINUOUS
 10
5.116320
 20
2.264240
  0
VERTEX
  8
0
  6
CONTINUOUS
 10
4.461600
 20
2.638240
  0
VERTEX
  8
0
  6
CONTINUOUS
 10
4.607240
 20
2.751320
  0
SEQEND
  8
0
  0
SOLID
  8
0
 62
    15
 10
4.461600
 20
2.638240
 11
5.116320
 21
2.264240
 12
4.337960
 22
2.508440
 13
4.992680
 23
2.134000
  0
POLYLINE
  8
0
  6
CONTINUOUS
 66
     1
 40
0.000000
 41
0.000000
  0
VERTEX
  8
0
  6
CONTINUOUS
 10
4.461600
 20
2.638240
  0
VERTEX
  8
0
  6
CONTINUOUS
 10
5.116320
 20
2.264240
  0
VERTEX
  8
0
  6
CONTINUOUS
 10
4.992680
 20
2.134000
  0
VERTEX
  8
0
  6
CONTINUOUS
 10
4.337960
 20
2.508440
  0
VERTEX
  8
0
  6
CONTINUOUS
 10
4.461600
 20
2.638240
  0
SEQEND
  8
0
  0
SOLID
  8
0
 62
    15
 10
4.337960
 20
2.508440
 11
4.992680
 21
2.134000
 12
4.287360
 22
2.438040
 13
4.941640
 23
2.063600
  0
POLYLINE
  8
0
  6
CONTINUOUS
 66
     1
 40
0.000000
 41
0.000000
  0
VERTEX
  8
0
  6
CONTINUOUS
 10
4.337960
 20
2.508440
  0
VERTEX
  8
0
  6
CONTINUOUS
 10
4.992680
 20
2.134000
  0
VERTEX
  8
0
  6
CONTINUOUS
 10
4.941640
 20
2.063600
  0
VERTEX
  8
0
  6
CONTINUOUS
 10
4.287360
 20
2.438040
  0
VERTEX
  8
0
  6
CONTINUOUS
 10
4.337960
 20
2.508440
  0
SEQEND
  8
0
  0
SOLID
  8
0
 62
    15
 10
4.287360
 20
2.438040
 11
4.941640
 21
2.063600
 12
4.245560
 22
2.364560
 13
4.900280
 23
1.990120
  0
POLYLINE
  8
0
  6
CONTINUOUS
 66
     1
 40
0.000000
 41
0.000000
  0
VERTEX
  8
0
  6
CONTINUOUS
 10
4.287360
 20
2.438040
  0
VERTEX
  8
0
  6
CONTINUOUS
 10
4.941640
 20
2.063600
  0
VERTEX
  8
0
  6
CONTINUOUS
 10
4.900280
 20
1.990120
  0
VERTEX
  8
0
  6
CONTINUOUS
 10
4.245560
 20
2.364560
  0
VERTEX
  8
0
  6
CONTINUOUS
 10
4.287360
 20
2.438040
  0
SEQEND
  8
0
  0
SOLID
  8
0
 62
    15
 10
4.245560
 20
2.364560
 11
4.900280
 21
1.990120
 12
4.214320
 22
2.288000
 13
4.868600
 23
1.913560
  0
POLYLINE
  8
0
  6
CONTINUOUS
 66
     1
 40
0.000000
 41
0.000000
  0
VERTEX
  8
0
  6
CONTINUOUS
 10
4.245560
 20
2.364560
  0
VERTEX
  8
0
  6
CONTINUOUS
 10
4.900280
 20
1.990120
  0
VERTEX
  8
0
  6
CONTINUOUS
 10
4.868600
 20
1.913560
  0
VERTEX
  8
0
  6
CONTINUOUS
 10
4.214320
 20
2.288000
  0
VERTEX
  8
0
  6
CONTINUOUS
 10
4.245560
 20
2.364560
  0
SEQEND
  8
0
  0
SOLID
  8
0
 62
    15
 10
4.214320
 20
2.288000
 11
4.868600
 21
1.913560
 12
4.194080
 22
2.208800
 13
4.848800
 23
1.834800
  0
POLYLINE
  8
0
  6
CONTINUOUS
 66
     1
 40
0.000000
 41
0.000000
  0
VERTEX
  8
0
  6
CONTINUOUS
 10
4.214320
 20
2.288000
  0
VERTEX
  8
0
  6
CONTINUOUS
 10
4.868600
 20
1.913560
  0
VERTEX
  8
0
  6
CONTINUOUS
 10
4.848800
 20
1.834800
  0
VERTEX
  8
0
  6
CONTINUOUS
 10
4.194080
 20
2.208800
  0
VERTEX
  8
0
  6
CONTINUOUS
 10
4.214320
 20
2.288000
  0
SEQEND
  8
0
  0
SOLID
  8
0
 62
    15
 10
4.194080
 20
2.208800
 11
4.848800
 21
1.834800
 12
4.221360
 22
2.175800
 13
4.876080
 23
1.801360
  0
POLYLINE
  8
0
  6
CONTINUOUS
 66
     1
 40
0.000000
 41
0.000000
  0
VERTEX
  8
0
  6
CONTINUOUS
 10
4.194080
 20
2.208800
  0
VERTEX
  8
0
  6
CONTINUOUS
 10
4.848800
 20
1.834800
  0
VERTEX
  8
0
  6
CONTINUOUS
 10
4.876080
 20
1.801360
  0
VERTEX
  8
0
  6
CONTINUOUS
 10
4.221360
 20
2.175800
  0
VERTEX
  8
0
  6
CONTINUOUS
 10
4.194080
 20
2.208800
  0
SEQEND
  8
0
  0
SOLID
  8
0
 62
    15
 10
4.221360
 20
2.175800
 11
4.876080
 21
1.801360
 12
4.235440
 22
2.144120
 13
4.890160
 23
1.770120
  0
POLYLINE
  8
0
  6
CONTINUOUS
 66
     1
 40
0.000000
 41
0.000000
  0
VERTEX
  8
0
  6
CONTINUOUS
 10
4.221360
 20
2.175800
  0
VERTEX
  8
0
  6
CONTINUOUS
 10
4.876080
 20
1.801360
  0
VERTEX
  8
0
  6
CONTINUOUS
 10
4.890160
 20
1.770120
  0
VERTEX
  8
0
  6
CONTINUOUS
 10
4.235440
 20
2.144120
  0
VERTEX
  8
0
  6
CONTINUOUS
 10
4.221360
 20
2.175800
  0
SEQEND
  8
0
  0
SOLID
  8
0
 62
    15
 10
5.212680
 20
3.343560
 11
5.867400
 21
2.969560
 12
5.210040
 22
2.975720
 13
5.864320
 23
2.601280
  0
POLYLINE
  8
0
  6
CONTINUOUS
 66
     1
 40
0.000000
 41
0.000000
  0
VERTEX
  8
0
  6
CONTINUOUS
 10
5.212680
 20
3.343560
  0
VERTEX
  8
0
  6
CONTINUOUS
 10
5.867400
 20
2.969560
  0
VERTEX
  8
0
  6
CONTINUOUS
 10
5.864320
 20
2.601280
  0
VERTEX
  8
0
  6
CONTINUOUS
 10
5.210040
 20
2.975720
  0
VERTEX
  8
0
  6
CONTINUOUS
 10
5.212680
 20
3.343560
  0
SEQEND
  8
0
  0
SOLID
  8
0
 62
    15
 10
4.238520
 20
2.115520
 11
4.893240
 21
1.741080
 12
4.232360
 22
2.089560
 13
4.886640
 23
1.715120
  0
POLYLINE
  8
0
  6
CONTINUOUS
 66
     1
 40
0.000000
 41
0.000000
  0
VERTEX
  8
0
  6
CONTINUOUS
 10
4.238520
 20
2.115520
  0
VERTEX
  8
0
  6
CONTINUOUS
 10
4.893240
 20
1.741080
  0
VERTEX
  8
0
  6
CONTINUOUS
 10
4.886640
 20
1.715120
  0
VERTEX
  8
0
  6
CONTINUOUS
 10
4.232360
 20
2.089560
  0
VERTEX
  8
0
  6
CONTINUOUS
 10
4.238520
 20
2.115520
  0
SEQEND
  8
0
  0
SOLID
  8
0
 62
    15
 10
4.232360
 20
2.089560
 11
4.886640
 21
1.715120
 12
4.199800
 22
2.051280
 13
4.854080
 23
1.676840
  0
POLYLINE
  8
0
  6
CONTINUOUS
 66
     1
 40
0.000000
 41
0.000000
  0
VERTEX
  8
0
  6
CONTINUOUS
 10
4.232360
 20
2.089560
  0
VERTEX
  8
0
  6
CONTINUOUS
 10
4.886640
 20
1.715120
  0
VERTEX
  8
0
  6
CONTINUOUS
 10
4.854080
 20
1.676840
  0
VERTEX
  8
0
  6
CONTINUOUS
 10
4.199800
 20
2.051280
  0
VERTEX
  8
0
  6
CONTINUOUS
 10
4.232360
 20
2.089560
  0
SEQEND
  8
0
  0
SOLID
  8
0
 62
    15
 10
4.199800
 20
2.051280
 11
4.854080
 21
1.676840
 12
4.152720
 22
2.035440
 13
4.807000
 23
1.661000
  0
POLYLINE
  8
0
  6
CONTINUOUS
 66
     1
 40
0.000000
 41
0.000000
  0
VERTEX
  8
0
  6
CONTINUOUS
 10
4.199800
 20
2.051280
  0
VERTEX
  8
0
  6
CONTINUOUS
 10
4.854080
 20
1.676840
  0
VERTEX
  8
0
  6
CONTINUOUS
 10
4.807000
 20
1.661000
  0
VERTEX
  8
0
  6
CONTINUOUS
 10
4.152720
 20
2.035440
  0
VERTEX
  8
0
  6
CONTINUOUS
 10
4.199800
 20
2.051280
  0
SEQEND
  8
0
  0
SOLID
  8
0
 62
    15
 10
4.152720
 20
2.035440
 11
4.807000
 21
1.661000
 12
4.151840
 22
1.938640
 13
4.806560
 23
1.564200
  0
POLYLINE
  8
0
  6
CONTINUOUS
 66
     1
 40
0.000000
 41
0.000000
  0
VERTEX
  8
0
  6
CONTINUOUS
 10
4.152720
 20
2.035440
  0
VERTEX
  8
0
  6
CONTINUOUS
 10
4.807000
 20
1.661000
  0
VERTEX
  8
0
  6
CONTINUOUS
 10
4.806560
 20
1.564200
  0
VERTEX
  8
0
  6
CONTINUOUS
 10
4.151840
 20
1.938640
  0
VERTEX
  8
0
  6
CONTINUOUS
 10
4.152720
 20
2.035440
  0
SEQEND
  8
0
  0
SOLID
  8
0
 62
    15
 10
4.151840
 20
1.938640
 11
4.806560
 21
1.564200
 12
4.073080
 22
1.932480
 13
4.727800
 23
1.558040
  0
POLYLINE
  8
0
  6
CONTINUOUS
 66
     1
 40
0.000000
 41
0.000000
  0
VERTEX
  8
0
  6
CONTINUOUS
 10
4.151840
 20
1.938640
  0
VERTEX
  8
0
  6
CONTINUOUS
 10
4.806560
 20
1.564200
  0
VERTEX
  8
0
  6
CONTINUOUS
 10
4.727800
 20
1.558040
  0
VERTEX
  8
0
  6
CONTINUOUS
 10
4.073080
 20
1.932480
  0
VERTEX
  8
0
  6
CONTINUOUS
 10
4.151840
 20
1.938640
  0
SEQEND
  8
0
  0
SOLID
  8
0
 62
    15
 10
4.073080
 20
1.932480
 11
4.727800
 21
1.558040
 12
3.992560
 22
1.917960
 13
4.646840
 23
1.543520
  0
POLYLINE
  8
0
  6
CONTINUOUS
 66
     1
 40
0.000000
 41
0.000000
  0
VERTEX
  8
0
  6
CONTINUOUS
 10
4.073080
 20
1.932480
  0
VERTEX
  8
0
  6
CONTINUOUS
 10
4.727800
 20
1.558040
  0
VERTEX
  8
0
  6
CONTINUOUS
 10
4.646840
 20
1.543520
  0
VERTEX
  8
0
  6
CONTINUOUS
 10
3.992560
 20
1.917960
  0
VERTEX
  8
0
  6
CONTINUOUS
 10
4.073080
 20
1.932480
  0
SEQEND
  8
0
  0
SOLID
  8
0
 62
    15
 10
3.992560
 20
1.917960
 11
4.646840
 21
1.543520
 12
3.914240
 22
1.891560
 13
4.568520
 23
1.517120
  0
POLYLINE
  8
0
  6
CONTINUOUS
 66
     1
 40
0.000000
 41
0.000000
  0
VERTEX
  8
0
  6
CONTINUOUS
 10
3.992560
 20
1.917960
  0
VERTEX
  8
0
  6
CONTINUOUS
 10
4.646840
 20
1.543520
  0
VERTEX
  8
0
  6
CONTINUOUS
 10
4.568520
 20
1.517120
  0
VERTEX
  8
0
  6
CONTINUOUS
 10
3.914240
 20
1.891560
  0
VERTEX
  8
0
  6
CONTINUOUS
 10
3.992560
 20
1.917960
  0
SEQEND
  8
0
  0
SOLID
  8
0
 62
    15
 10
3.914240
 20
1.891560
 11
4.568520
 21
1.517120
 12
3.841640
 22
1.850200
 13
4.496360
 23
1.475760
  0
POLYLINE
  8
0
  6
CONTINUOUS
 66
     1
 40
0.000000
 41
0.000000
  0
VERTEX
  8
0
  6
CONTINUOUS
 10
3.914240
 20
1.891560
  0
VERTEX
  8
0
  6
CONTINUOUS
 10
4.568520
 20
1.517120
  0
VERTEX
  8
0
  6
CONTINUOUS
 10
4.496360
 20
1.475760
  0
VERTEX
  8
0
  6
CONTINUOUS
 10
3.841640
 20
1.850200
  0
VERTEX
  8
0
  6
CONTINUOUS
 10
3.914240
 20
1.891560
  0
SEQEND
  8
0
  0
SOLID
  8
0
 62
    15
 10
3.841640
 20
1.850200
 11
4.496360
 21
1.475760
 12
3.779600
 22
1.791240
 13
4.434320
 23
1.416800
  0
POLYLINE
  8
0
  6
CONTINUOUS
 66
     1
 40
0.000000
 41
0.000000
  0
VERTEX
  8
0
  6
CONTINUOUS
 10
3.841640
 20
1.850200
  0
VERTEX
  8
0
  6
CONTINUOUS
 10
4.496360
 20
1.475760
  0
VERTEX
  8
0
  6
CONTINUOUS
 10
4.434320
 20
1.416800
  0
VERTEX
  8
0
  6
CONTINUOUS
 10
3.779600
 20
1.791240
  0
VERTEX
  8
0
  6
CONTINUOUS
 10
3.841640
 20
1.850200
  0
SEQEND
  8
0
  0
SOLID
  8
0
 62
    15
 10
3.779600
 20
1.791240
 11
4.434320
 21
1.416800
 12
3.731640
 22
1.710720
 13
4.385920
 23
1.336280
  0
POLYLINE
  8
0
  6
CONTINUOUS
 66
     1
 40
0.000000
 41
0.000000
  0
VERTEX
  8
0
  6
CONTINUOUS
 10
3.779600
 20
1.791240
  0
VERTEX
  8
0
  6
CONTINUOUS
 10
4.434320
 20
1.416800
  0
VERTEX
  8
0
  6
CONTINUOUS
 10
4.385920
 20
1.336280
  0
VERTEX
  8
0
  6
CONTINUOUS
 10
3.731640
 20
1.710720
  0
VERTEX
  8
0
  6
CONTINUOUS
 10
3.779600
 20
1.791240
  0
SEQEND
  8
0
  0
SOLID
  8
0
 62
    15
 10
3.731640
 20
1.710720
 11
4.385920
 21
1.336280
 12
3.701280
 22
1.606440
 13
4.356000
 23
1.232000
  0
POLYLINE
  8
0
  6
CONTINUOUS
 66
     1
 40
0.000000
 41
0.000000
  0
VERTEX
  8
0
  6
CONTINUOUS
 10
3.731640
 20
1.710720
  0
VERTEX
  8
0
  6
CONTINUOUS
 10
4.385920
 20
1.336280
  0
VERTEX
  8
0
  6
CONTINUOUS
 10
4.356000
 20
1.232000
  0
VERTEX
  8
0
  6
CONTINUOUS
 10
3.701280
 20
1.606440
  0
VERTEX
  8
0
  6
CONTINUOUS
 10
3.731640
 20
1.710720
  0
SEQEND
  8
0
  0
SOLID
  8
0
 62
    15
 10
3.701280
 20
1.606440
 11
4.356000
 21
1.232000
 12
3.694240
 22
1.543960
 13
4.348960
 23
1.169520
  0
POLYLINE
  8
0
  6
CONTINUOUS
 66
     1
 40
0.000000
 41
0.000000
  0
VERTEX
  8
0
  6
CONTINUOUS
 10
3.701280
 20
1.606440
  0
VERTEX
  8
0
  6
CONTINUOUS
 10
4.356000
 20
1.232000
  0
VERTEX
  8
0
  6
CONTINUOUS
 10
4.348960
 20
1.169520
  0
VERTEX
  8
0
  6
CONTINUOUS
 10
3.694240
 20
1.543960
  0
VERTEX
  8
0
  6
CONTINUOUS
 10
3.701280
 20
1.606440
  0
SEQEND
  8
0
  0
SOLID
  8
0
 62
    15
 10
3.694240
 20
1.543960
 11
4.348960
 21
1.169520
 12
3.692920
 22
1.474440
 13
4.347640
 23
1.100000
  0
POLYLINE
  8
0
  6
CONTINUOUS
 66
     1
 40
0.000000
 41
0.000000
  0
VERTEX
  8
0
  6
CONTINUOUS
 10
3.694240
 20
1.543960
  0
VERTEX
  8
0
  6
CONTINUOUS
 10
4.348960
 20
1.169520
  0
VERTEX
  8
0
  6
CONTINUOUS
 10
4.347640
 20
1.100000
  0
VERTEX
  8
0
  6
CONTINUOUS
 10
3.692920
 20
1.474440
  0
VERTEX
  8
0
  6
CONTINUOUS
 10
3.694240
 20
1.543960
  0
SEQEND
  8
0
  0
SOLID
  8
0
 62
    15
 10
3.692920
 20
1.474440
 11
4.347640
 21
1.100000
 12
3.198360
 22
1.469600
 13
3.852640
 23
1.095160
  0
POLYLINE
  8
0
  6
CONTINUOUS
 66
     1
 40
0.000000
 41
0.000000
  0
VERTEX
  8
0
  6
CONTINUOUS
 10
3.692920
 20
1.474440
  0
VERTEX
  8
0
  6
CONTINUOUS
 10
4.347640
 20
1.100000
  0
VERTEX
  8
0
  6
CONTINUOUS
 10
3.852640
 20
1.095160
  0
VERTEX
  8
0
  6
CONTINUOUS
 10
3.198360
 20
1.469600
  0
VERTEX
  8
0
  6
CONTINUOUS
 10
3.692920
 20
1.474440
  0
SEQEND
  8
0
  0
POLYLINE
  8
0
  6
CONTINUOUS
 66
     1
 40
0.000000
 41
0.000000
  0
VERTEX
  8
0
  6
CONTINUOUS
 10
3.192200
 20
2.029280
  0
VERTEX
  8
0
  6
CONTINUOUS
 10
4.494600
 20
3.322440
  0
VERTEX
  8
0
  6
CONTINUOUS
 10
5.212680
 20
3.343560
  0
VERTEX
  8
0
  6
CONTINUOUS
 10
5.210040
 20
2.975720
  0
VERTEX
  8
0
  6
CONTINUOUS
 10
5.145360
 20
2.971320
  0
VERTEX
  8
0
  6
CONTINUOUS
 10
5.075400
 20
2.959440
  0
VERTEX
  8
0
  6
CONTINUOUS
 10
4.923600
 20
2.915000
  0
VERTEX
  8
0
  6
CONTINUOUS
 10
4.764320
 20
2.844600
  0
VERTEX
  8
0
  6
CONTINUOUS
 10
4.607240
 20
2.751320
  0
VERTEX
  8
0
  6
CONTINUOUS
 10
4.461600
 20
2.638240
  0
VERTEX
  8
0
  6
CONTINUOUS
 10
4.337960
 20
2.508440
  0
VERTEX
  8
0
  6
CONTINUOUS
 10
4.287360
 20
2.438040
  0
VERTEX
  8
0
  6
CONTINUOUS
 10
4.245560
 20
2.364560
  0
VERTEX
  8
0
  6
CONTINUOUS
 10
4.214320
 20
2.288000
  0
VERTEX
  8
0
  6
CONTINUOUS
 10
4.194080
 20
2.208800
  0
VERTEX
  8
0
  6
CONTINUOUS
 10
4.221360
 20
2.175800
  0
VERTEX
  8
0
  6
CONTINUOUS
 10
4.235440
 20
2.144120
  0
VERTEX
  8
0
  6
CONTINUOUS
 10
4.238520
 20
2.115520
  0
VERTEX
  8
0
  6
CONTINUOUS
 10
4.232360
 20
2.089560
  0
VERTEX
  8
0
  6
CONTINUOUS
 10
4.199800
 20
2.051280
  0
VERTEX
  8
0
  6
CONTINUOUS
 10
4.152720
 20
2.035440
  0
VERTEX
  8
0
  6
CONTINUOUS
 10
4.151840
 20
1.938640
  0
VERTEX
  8
0
  6
CONTINUOUS
 10
4.073080
 20
1.932480
  0
VERTEX
  8
0
  6
CONTINUOUS
 10
3.992560
 20
1.917960
  0
VERTEX
  8
0
  6
CONTINUOUS
 10
3.914240
 20
1.891560
  0
VERTEX
  8
0
  6
CONTINUOUS
 10
3.841640
 20
1.850200
  0
VERTEX
  8
0
  6
CONTINUOUS
 10
3.779600
 20
1.791240
  0
VERTEX
  8
0
  6
CONTINUOUS
 10
3.731640
 20
1.710720
  0
VERTEX
  8
0
  6
CONTINUOUS
 10
3.701280
 20
1.606440
  0
VERTEX
  8
0
  6
CONTINUOUS
 10
3.694240
 20
1.543960
  0
VERTEX
  8
0
  6
CONTINUOUS
 10
3.692920
 20
1.474440
  0
VERTEX
  8
0
  6
CONTINUOUS
 10
3.198360
 20
1.469600
  0
VERTEX
  8
0
  6
CONTINUOUS
 10
3.192640
 20
2.028400
  0
VERTEX
  8
0
  6
CONTINUOUS
 10
3.192200
 20
2.029280
  0
SEQEND
  8
0
  0
TEXT
  8
0
 10
4.945160
 20
1.301520
 40
0.138113
  1
BA  1319
 41
1.000000
  7
SN0
 71
     0
 72
     5
 11
5.627394
 21
1.301520
  0
TEXT
  8
0
 10
4.835600
 20
1.100000
 40
0.138113
  1
3/4" x 2-3/4"
 41
1.000000
  7
SN0
 71
     0
 72
     5
 11
5.735436
 21
1.100000
  0
TEXT
  8
0
 10
3.046560
 20
5.048120
 40
0.138113
  1
Similar to 
 41
1.000000
  7
SN0
 71
     0
 72
     5
 11
3.782055
 21
5.048120
  0
TEXT
  8
0
 10
3.046560
 20
4.846600
 40
0.138113
  1
BA  1313
 41
1.000000
  7
SN0
 71
     0
 72
     5
 11
3.728794
 21
4.846600
  0
ENDSEC
  0
EOF
