  0
SECTION
  2
HEADER
  9
$ACADVER
  1
AC1006
  9
$EXTMIN
 10
2.595560
 20
2.774640
  9
$EXTMAX
 10
5.852000
 20
8.378040
  9
$LTSCALE
 40
0.044000
  9
$PDMODE
 70
    35
  9
$PDSIZE
 40
0.035200
  0
ENDSEC
  0
SECTION
  2
TABLES
  0
TABLE
  2
LTYPE
 70
     9
  0
LTYPE
  2
CONTINUOUS
 70
    64
  3
Solid line
 72
    65
 73
     0
 40
0.000000
  0
LTYPE
  2
DASHED
 70
    64
  3
__ __ __ __ __ __ __ __ __ __ __ __ __ __ __
 72
    65
 73
     2
 40
0.000330
 49
0.000220
 49
-0.000110
  0
LTYPE
  2
HIDDEN
 70
    64
  3
 _ _ _ _ _ _ _ _ _ _ _ _ _ _ _ _ _ _ _ _ _ _
 72
    65
 73
     2
 40
0.000165
 49
0.000110
 49
-0.000055
  0
LTYPE
  2
CENTER
 70
    64
  3
____ _ ____ _ ____ _ ____ _ ____ _ ____ _ ____
 72
    65
 73
     4
 40
0.000880
 49
0.000550
 49
-0.000110
 49
0.000110
 49
-0.000110
  0
LTYPE
  2
PHANTOM
 70
    64
  3
_____ _ _ _____ _ _ _____ _ _ _____ _ _ ____
 72
    65
 73
     6
 40
0.001100
 49
0.000550
 49
-0.000110
 49
0.000110
 49
-0.000110
 49
0.000110
 49
-0.000110
  0
LTYPE
  2
DOT
 70
    64
  3
...............................................
 72
    65
 73
     2
 40
0.000110
 49
0.000000
 49
-0.000110
  0
LTYPE
  2
DASHDOT
 70
    64
  3
__ . __ . __ . __ . __ . __ . __ . __ . __ . __
 72
    65
 73
     4
 40
0.000440
 49
0.000220
 49
-0.000110
 49
0.000000
 49
-0.000110
  0
LTYPE
  2
BORDER
 70
    64
  3
__ __ . __ __ . __ __ . __ __ . __ __ . __ __
 72
    65
 73
     6
 40
0.000770
 49
0.000220
 49
-0.000110
 49
0.000220
 49
-0.000110
 49
0.000000
 49
-0.000110
  0
LTYPE
  2
DIVIDE
 70
    64
  3
__ . . __ . . __ . . __ . . __ . . __ . . __
 72
    65
 73
     6
 40
0.000550
 49
0.000220
 49
-0.000110
 49
0.000000
 49
-0.000110
 49
0.000000
 49
-0.000110
  0
LTYPE
  2
DOTDOT
 70
    64
  3
 . .  . .  . .  . .  . .  . . 
 72
    65
 73
     5
 40
0.000242
 49
-0.000110
 49
0.000000
 49
-0.000110
 49
0.000000
 49
-0.000110
  0
ENDTAB
  0
TABLE
  2
STYLE
 70
     2
  0
STYLE
 70
     0
  2
SN0
 40
0.000000
 41
0.000440
 50
0.000000
 71
     0
 42
0.000000
  3
ROMAND
  0
STYLE
 70
    68
  2
SV0
 40
0.000000
 41
0.000440
 50
0.000000
 71
     0
 42
0.000000
  3
ROMAND
  0
ENDTAB
  0
TABLE
  2
LAYER
 70
     3
  0
LAYER
  2
FOREGROUND
 70
    64
 62
     7
  6
CONTINUOUS
  0
LAYER
  2
BACKGROUND
 70
    65
 62
    -7
  6
CONTINUOUS
  0
LAYER
  2
0
 70
    64
 62
     7
  6
CONTINUOUS
  0
ENDTAB
  0
ENDSEC
  0
SECTION
  2
ENTITIES
  0
POLYLINE
  8
FOREGROUND
  6
CONTINUOUS
 66
     1
 40
0.000000
 41
0.000000
  0
VERTEX
  8
FOREGROUND
  6
CONTINUOUS
 10
0.000000
 20
11.152680
  0
VERTEX
  8
FOREGROUND
  6
CONTINUOUS
 10
8.499920
 20
11.152680
  0
VERTEX
  8
FOREGROUND
  6
CONTINUOUS
 10
8.499920
 20
0.152680
  0
VERTEX
  8
FOREGROUND
  6
CONTINUOUS
 10
0.000000
 20
0.152680
  0
VERTEX
  8
FOREGROUND
  6
CONTINUOUS
 10
0.000000
 20
11.152680
  0
SEQEND
  8
0
  0
POLYLINE
  8
FOREGROUND
  6
CONTINUOUS
 66
     1
 40
0.000000
 41
0.000000
  0
VERTEX
  8
FOREGROUND
  6
CONTINUOUS
 10
0.000000
 20
11.152680
  0
VERTEX
  8
FOREGROUND
  6
CONTINUOUS
 10
8.499920
 20
11.152680
  0
VERTEX
  8
FOREGROUND
  6
CONTINUOUS
 10
8.499920
 20
0.152680
  0
VERTEX
  8
FOREGROUND
  6
CONTINUOUS
 10
0.000000
 20
0.152680
  0
VERTEX
  8
FOREGROUND
  6
CONTINUOUS
 10
0.000000
 20
11.152680
  0
SEQEND
  8
0
  0
POLYLINE
  8
0
  6
CONTINUOUS
 66
     1
 40
0.014080
 41
0.014080
  0
VERTEX
  8
0
  6
CONTINUOUS
 10
5.843640
 20
7.689880
  0
VERTEX
  8
0
  6
CONTINUOUS
 10
2.603480
 20
7.689880
  0
VERTEX
  8
0
  6
CONTINUOUS
 10
2.603920
 20
8.205120
  0
VERTEX
  8
0
  6
CONTINUOUS
 10
2.607000
 20
8.232840
  0
VERTEX
  8
0
  6
CONTINUOUS
 10
2.617560
 20
8.268480
  0
VERTEX
  8
0
  6
CONTINUOUS
 10
2.627240
 20
8.288720
  0
VERTEX
  8
0
  6
CONTINUOUS
 10
2.645720
 20
8.313800
  0
VERTEX
  8
0
  6
CONTINUOUS
 10
2.667280
 20
8.332720
  0
VERTEX
  8
0
  6
CONTINUOUS
 10
2.698520
 20
8.351200
  0
VERTEX
  8
0
  6
CONTINUOUS
 10
2.730200
 20
8.362200
  0
VERTEX
  8
0
  6
CONTINUOUS
 10
2.759240
 20
8.368360
  0
VERTEX
  8
0
  6
CONTINUOUS
 10
2.790480
 20
8.370560
  0
VERTEX
  8
0
  6
CONTINUOUS
 10
3.240600
 20
8.370120
  0
VERTEX
  8
0
  6
CONTINUOUS
 10
3.260840
 20
8.367040
  0
VERTEX
  8
0
  6
CONTINUOUS
 10
3.289880
 20
8.356920
  0
VERTEX
  8
0
  6
CONTINUOUS
 10
3.307920
 20
8.347680
  0
VERTEX
  8
0
  6
CONTINUOUS
 10
3.325080
 20
8.335800
  0
VERTEX
  8
0
  6
CONTINUOUS
 10
3.356320
 20
8.307640
  0
VERTEX
  8
0
  6
CONTINUOUS
 10
3.382720
 20
8.274640
  0
VERTEX
  8
0
  6
CONTINUOUS
 10
3.403400
 20
8.239440
  0
VERTEX
  8
0
  6
CONTINUOUS
 10
3.417920
 20
8.204680
  0
VERTEX
  8
0
  6
CONTINUOUS
 10
3.425400
 20
8.172560
  0
VERTEX
  8
0
  6
CONTINUOUS
 10
3.426280
 20
8.158480
  0
VERTEX
  8
0
  6
CONTINUOUS
 10
3.492280
 20
8.158480
  0
VERTEX
  8
0
  6
CONTINUOUS
 10
3.494920
 20
8.186200
  0
VERTEX
  8
0
  6
CONTINUOUS
 10
3.503280
 20
8.212600
  0
VERTEX
  8
0
  6
CONTINUOUS
 10
3.515600
 20
8.235920
  0
VERTEX
  8
0
  6
CONTINUOUS
 10
3.532760
 20
8.256600
  0
VERTEX
  8
0
  6
CONTINUOUS
 10
3.553000
 20
8.273320
  0
VERTEX
  8
0
  6
CONTINUOUS
 10
3.576760
 20
8.286080
  0
VERTEX
  8
0
  6
CONTINUOUS
 10
3.589080
 20
8.290920
  0
VERTEX
  8
0
  6
CONTINUOUS
 10
3.602720
 20
8.294440
  0
VERTEX
  8
0
  6
CONTINUOUS
 10
3.630440
 20
8.297080
  0
VERTEX
  8
0
  6
CONTINUOUS
 10
3.658160
 20
8.294440
  0
VERTEX
  8
0
  6
CONTINUOUS
 10
3.684560
 20
8.286080
  0
VERTEX
  8
0
  6
CONTINUOUS
 10
3.707880
 20
8.273320
  0
VERTEX
  8
0
  6
CONTINUOUS
 10
3.728560
 20
8.256600
  0
VERTEX
  8
0
  6
CONTINUOUS
 10
3.745280
 20
8.235920
  0
VERTEX
  8
0
  6
CONTINUOUS
 10
3.758040
 20
8.212600
  0
VERTEX
  8
0
  6
CONTINUOUS
 10
3.766400
 20
8.186200
  0
VERTEX
  8
0
  6
CONTINUOUS
 10
3.769040
 20
8.158480
  0
VERTEX
  8
0
  6
CONTINUOUS
 10
3.791040
 20
8.158480
  0
VERTEX
  8
0
  6
CONTINUOUS
 10
3.793680
 20
8.186200
  0
VERTEX
  8
0
  6
CONTINUOUS
 10
3.802040
 20
8.212600
  0
VERTEX
  8
0
  6
CONTINUOUS
 10
3.814800
 20
8.235920
  0
VERTEX
  8
0
  6
CONTINUOUS
 10
3.831520
 20
8.256600
  0
VERTEX
  8
0
  6
CONTINUOUS
 10
3.852200
 20
8.273320
  0
VERTEX
  8
0
  6
CONTINUOUS
 10
3.875520
 20
8.286080
  0
VERTEX
  8
0
  6
CONTINUOUS
 10
3.901480
 20
8.294440
  0
VERTEX
  8
0
  6
CONTINUOUS
 10
3.929200
 20
8.297080
  0
VERTEX
  8
0
  6
CONTINUOUS
 10
3.956920
 20
8.294440
  0
VERTEX
  8
0
  6
CONTINUOUS
 10
3.983320
 20
8.286080
  0
VERTEX
  8
0
  6
CONTINUOUS
 10
4.006640
 20
8.273320
  0
VERTEX
  8
0
  6
CONTINUOUS
 10
4.027320
 20
8.256600
  0
VERTEX
  8
0
  6
CONTINUOUS
 10
4.044040
 20
8.235920
  0
VERTEX
  8
0
  6
CONTINUOUS
 10
4.056800
 20
8.212600
  0
VERTEX
  8
0
  6
CONTINUOUS
 10
4.065160
 20
8.186200
  0
VERTEX
  8
0
  6
CONTINUOUS
 10
4.067800
 20
8.158480
  0
VERTEX
  8
0
  6
CONTINUOUS
 10
4.089800
 20
8.158480
  0
VERTEX
  8
0
  6
CONTINUOUS
 10
4.092440
 20
8.186200
  0
VERTEX
  8
0
  6
CONTINUOUS
 10
4.100800
 20
8.212600
  0
VERTEX
  8
0
  6
CONTINUOUS
 10
4.113560
 20
8.235920
  0
VERTEX
  8
0
  6
CONTINUOUS
 10
4.130280
 20
8.256600
  0
VERTEX
  8
0
  6
CONTINUOUS
 10
4.150960
 20
8.273320
  0
VERTEX
  8
0
  6
CONTINUOUS
 10
4.174280
 20
8.286080
  0
VERTEX
  8
0
  6
CONTINUOUS
 10
4.200680
 20
8.294440
  0
VERTEX
  8
0
  6
CONTINUOUS
 10
4.228400
 20
8.297080
  0
VERTEX
  8
0
  6
CONTINUOUS
 10
4.256120
 20
8.294440
  0
VERTEX
  8
0
  6
CONTINUOUS
 10
4.282080
 20
8.286080
  0
VERTEX
  8
0
  6
CONTINUOUS
 10
4.305400
 20
8.273320
  0
VERTEX
  8
0
  6
CONTINUOUS
 10
4.326080
 20
8.256600
  0
VERTEX
  8
0
  6
CONTINUOUS
 10
4.342800
 20
8.235920
  0
VERTEX
  8
0
  6
CONTINUOUS
 10
4.355560
 20
8.212600
  0
VERTEX
  8
0
  6
CONTINUOUS
 10
4.363920
 20
8.186200
  0
VERTEX
  8
0
  6
CONTINUOUS
 10
4.366560
 20
8.158480
  0
VERTEX
  8
0
  6
CONTINUOUS
 10
4.388560
 20
8.158480
  0
VERTEX
  8
0
  6
CONTINUOUS
 10
4.391200
 20
8.186200
  0
VERTEX
  8
0
  6
CONTINUOUS
 10
4.399560
 20
8.212600
  0
VERTEX
  8
0
  6
CONTINUOUS
 10
4.412320
 20
8.235920
  0
VERTEX
  8
0
  6
CONTINUOUS
 10
4.429040
 20
8.256600
  0
VERTEX
  8
0
  6
CONTINUOUS
 10
4.449720
 20
8.273320
  0
VERTEX
  8
0
  6
CONTINUOUS
 10
4.473040
 20
8.286080
  0
VERTEX
  8
0
  6
CONTINUOUS
 10
4.499440
 20
8.294440
  0
VERTEX
  8
0
  6
CONTINUOUS
 10
4.527160
 20
8.297080
  0
VERTEX
  8
0
  6
CONTINUOUS
 10
4.554880
 20
8.294440
  0
VERTEX
  8
0
  6
CONTINUOUS
 10
4.580840
 20
8.286080
  0
VERTEX
  8
0
  6
CONTINUOUS
 10
4.604160
 20
8.273320
  0
VERTEX
  8
0
  6
CONTINUOUS
 10
4.624840
 20
8.256600
  0
VERTEX
  8
0
  6
CONTINUOUS
 10
4.641560
 20
8.235920
  0
VERTEX
  8
0
  6
CONTINUOUS
 10
4.654320
 20
8.212600
  0
VERTEX
  8
0
  6
CONTINUOUS
 10
4.662680
 20
8.186200
  0
VERTEX
  8
0
  6
CONTINUOUS
 10
4.665320
 20
8.158480
  0
VERTEX
  8
0
  6
CONTINUOUS
 10
4.687760
 20
8.158480
  0
VERTEX
  8
0
  6
CONTINUOUS
 10
4.690400
 20
8.186200
  0
VERTEX
  8
0
  6
CONTINUOUS
 10
4.698760
 20
8.212600
  0
VERTEX
  8
0
  6
CONTINUOUS
 10
4.711520
 20
8.235920
  0
VERTEX
  8
0
  6
CONTINUOUS
 10
4.728240
 20
8.256600
  0
VERTEX
  8
0
  6
CONTINUOUS
 10
4.748920
 20
8.273320
  0
VERTEX
  8
0
  6
CONTINUOUS
 10
4.772240
 20
8.286080
  0
VERTEX
  8
0
  6
CONTINUOUS
 10
4.798200
 20
8.294440
  0
VERTEX
  8
0
  6
CONTINUOUS
 10
4.825920
 20
8.297080
  0
VERTEX
  8
0
  6
CONTINUOUS
 10
4.853640
 20
8.294440
  0
VERTEX
  8
0
  6
CONTINUOUS
 10
4.880040
 20
8.286080
  0
VERTEX
  8
0
  6
CONTINUOUS
 10
4.903360
 20
8.273320
  0
VERTEX
  8
0
  6
CONTINUOUS
 10
4.924040
 20
8.256600
  0
VERTEX
  8
0
  6
CONTINUOUS
 10
4.940760
 20
8.235920
  0
VERTEX
  8
0
  6
CONTINUOUS
 10
4.953520
 20
8.212600
  0
VERTEX
  8
0
  6
CONTINUOUS
 10
4.961880
 20
8.186200
  0
VERTEX
  8
0
  6
CONTINUOUS
 10
4.964520
 20
8.158480
  0
VERTEX
  8
0
  6
CONTINUOUS
 10
5.022160
 20
8.158480
  0
VERTEX
  8
0
  6
CONTINUOUS
 10
5.023040
 20
8.172560
  0
VERTEX
  8
0
  6
CONTINUOUS
 10
5.030520
 20
8.204680
  0
VERTEX
  8
0
  6
CONTINUOUS
 10
5.045040
 20
8.239440
  0
VERTEX
  8
0
  6
CONTINUOUS
 10
5.065720
 20
8.274640
  0
VERTEX
  8
0
  6
CONTINUOUS
 10
5.092120
 20
8.307640
  0
VERTEX
  8
0
  6
CONTINUOUS
 10
5.123360
 20
8.335800
  0
VERTEX
  8
0
  6
CONTINUOUS
 10
5.140520
 20
8.347680
  0
VERTEX
  8
0
  6
CONTINUOUS
 10
5.168240
 20
8.360880
  0
VERTEX
  8
0
  6
CONTINUOUS
 10
5.187600
 20
8.367040
  0
VERTEX
  8
0
  6
CONTINUOUS
 10
5.207840
 20
8.370120
  0
VERTEX
  8
0
  6
CONTINUOUS
 10
5.666320
 20
8.370560
  0
VERTEX
  8
0
  6
CONTINUOUS
 10
5.689200
 20
8.368360
  0
VERTEX
  8
0
  6
CONTINUOUS
 10
5.718240
 20
8.362200
  0
VERTEX
  8
0
  6
CONTINUOUS
 10
5.749920
 20
8.351200
  0
VERTEX
  8
0
  6
CONTINUOUS
 10
5.781160
 20
8.332720
  0
VERTEX
  8
0
  6
CONTINUOUS
 10
5.802720
 20
8.313800
  0
VERTEX
  8
0
  6
CONTINUOUS
 10
5.821200
 20
8.288720
  0
VERTEX
  8
0
  6
CONTINUOUS
 10
5.830880
 20
8.268480
  0
VERTEX
  8
0
  6
CONTINUOUS
 10
5.841440
 20
8.232840
  0
VERTEX
  8
0
  6
CONTINUOUS
 10
5.844520
 20
8.205120
  0
VERTEX
  8
0
  6
CONTINUOUS
 10
5.844960
 20
7.689880
  0
VERTEX
  8
0
  6
CONTINUOUS
 10
5.843640
 20
7.689880
  0
SEQEND
  8
0
  0
POLYLINE
  8
0
  6
CONTINUOUS
 66
     1
 40
0.000000
 41
0.000000
  0
VERTEX
  8
0
  6
CONTINUOUS
 10
5.845840
 20
2.774640
  0
VERTEX
  8
0
  6
CONTINUOUS
 10
2.605680
 20
2.774640
  0
VERTEX
  8
0
  6
CONTINUOUS
 10
2.606120
 20
3.290320
  0
VERTEX
  8
0
  6
CONTINUOUS
 10
2.609200
 20
3.318040
  0
VERTEX
  8
0
  6
CONTINUOUS
 10
2.619760
 20
3.353680
  0
VERTEX
  8
0
  6
CONTINUOUS
 10
2.635160
 20
3.382720
  0
VERTEX
  8
0
  6
CONTINUOUS
 10
2.654960
 20
3.405600
  0
VERTEX
  8
0
  6
CONTINUOUS
 10
2.669480
 20
3.417920
  0
VERTEX
  8
0
  6
CONTINUOUS
 10
2.700720
 20
3.435960
  0
VERTEX
  8
0
  6
CONTINUOUS
 10
2.732400
 20
3.446960
  0
VERTEX
  8
0
  6
CONTINUOUS
 10
2.761000
 20
3.453120
  0
VERTEX
  8
0
  6
CONTINUOUS
 10
2.792680
 20
3.455320
  0
VERTEX
  8
0
  6
CONTINUOUS
 10
3.242360
 20
3.454880
  0
VERTEX
  8
0
  6
CONTINUOUS
 10
3.272720
 20
3.449160
  0
VERTEX
  8
0
  6
CONTINUOUS
 10
3.291640
 20
3.442120
  0
VERTEX
  8
0
  6
CONTINUOUS
 10
3.310120
 20
3.432440
  0
VERTEX
  8
0
  6
CONTINUOUS
 10
3.343560
 20
3.407360
  0
VERTEX
  8
0
  6
CONTINUOUS
 10
3.358520
 20
3.392400
  0
VERTEX
  8
0
  6
CONTINUOUS
 10
3.384480
 20
3.359400
  0
VERTEX
  8
0
  6
CONTINUOUS
 10
3.405160
 20
3.324200
  0
VERTEX
  8
0
  6
CONTINUOUS
 10
3.419680
 20
3.289440
  0
VERTEX
  8
0
  6
CONTINUOUS
 10
3.427160
 20
3.257320
  0
VERTEX
  8
0
  6
CONTINUOUS
 10
3.428040
 20
3.243240
  0
VERTEX
  8
0
  6
CONTINUOUS
 10
3.494040
 20
3.243240
  0
VERTEX
  8
0
  6
CONTINUOUS
 10
3.496680
 20
3.270960
  0
VERTEX
  8
0
  6
CONTINUOUS
 10
3.505040
 20
3.297360
  0
VERTEX
  8
0
  6
CONTINUOUS
 10
3.517800
 20
3.320680
  0
VERTEX
  8
0
  6
CONTINUOUS
 10
3.534520
 20
3.341360
  0
VERTEX
  8
0
  6
CONTINUOUS
 10
3.555200
 20
3.358080
  0
VERTEX
  8
0
  6
CONTINUOUS
 10
3.578520
 20
3.370840
  0
VERTEX
  8
0
  6
CONTINUOUS
 10
3.604920
 20
3.379200
  0
VERTEX
  8
0
  6
CONTINUOUS
 10
3.632640
 20
3.381840
  0
VERTEX
  8
0
  6
CONTINUOUS
 10
3.660360
 20
3.379200
  0
VERTEX
  8
0
  6
CONTINUOUS
 10
3.686760
 20
3.370840
  0
VERTEX
  8
0
  6
CONTINUOUS
 10
3.710080
 20
3.358080
  0
VERTEX
  8
0
  6
CONTINUOUS
 10
3.730760
 20
3.341360
  0
VERTEX
  8
0
  6
CONTINUOUS
 10
3.747480
 20
3.320680
  0
VERTEX
  8
0
  6
CONTINUOUS
 10
3.760240
 20
3.297360
  0
VERTEX
  8
0
  6
CONTINUOUS
 10
3.768600
 20
3.270960
  0
VERTEX
  8
0
  6
CONTINUOUS
 10
3.771240
 20
3.243240
  0
VERTEX
  8
0
  6
CONTINUOUS
 10
3.793240
 20
3.243240
  0
VERTEX
  8
0
  6
CONTINUOUS
 10
3.795880
 20
3.270960
  0
VERTEX
  8
0
  6
CONTINUOUS
 10
3.804240
 20
3.297360
  0
VERTEX
  8
0
  6
CONTINUOUS
 10
3.816560
 20
3.320680
  0
VERTEX
  8
0
  6
CONTINUOUS
 10
3.833720
 20
3.341360
  0
VERTEX
  8
0
  6
CONTINUOUS
 10
3.853960
 20
3.358080
  0
VERTEX
  8
0
  6
CONTINUOUS
 10
3.877720
 20
3.370840
  0
VERTEX
  8
0
  6
CONTINUOUS
 10
3.890040
 20
3.375680
  0
VERTEX
  8
0
  6
CONTINUOUS
 10
3.903680
 20
3.379200
  0
VERTEX
  8
0
  6
CONTINUOUS
 10
3.931400
 20
3.381840
  0
VERTEX
  8
0
  6
CONTINUOUS
 10
3.959120
 20
3.379200
  0
VERTEX
  8
0
  6
CONTINUOUS
 10
3.985520
 20
3.370840
  0
VERTEX
  8
0
  6
CONTINUOUS
 10
4.008840
 20
3.358080
  0
VERTEX
  8
0
  6
CONTINUOUS
 10
4.029520
 20
3.341360
  0
VERTEX
  8
0
  6
CONTINUOUS
 10
4.046240
 20
3.320680
  0
VERTEX
  8
0
  6
CONTINUOUS
 10
4.059000
 20
3.297360
  0
VERTEX
  8
0
  6
CONTINUOUS
 10
4.067360
 20
3.270960
  0
VERTEX
  8
0
  6
CONTINUOUS
 10
4.070000
 20
3.243240
  0
VERTEX
  8
0
  6
CONTINUOUS
 10
4.092000
 20
3.243240
  0
VERTEX
  8
0
  6
CONTINUOUS
 10
4.094640
 20
3.270960
  0
VERTEX
  8
0
  6
CONTINUOUS
 10
4.103000
 20
3.297360
  0
VERTEX
  8
0
  6
CONTINUOUS
 10
4.115320
 20
3.320680
  0
VERTEX
  8
0
  6
CONTINUOUS
 10
4.132480
 20
3.341360
  0
VERTEX
  8
0
  6
CONTINUOUS
 10
4.152720
 20
3.358080
  0
VERTEX
  8
0
  6
CONTINUOUS
 10
4.176480
 20
3.370840
  0
VERTEX
  8
0
  6
CONTINUOUS
 10
4.188800
 20
3.375680
  0
VERTEX
  8
0
  6
CONTINUOUS
 10
4.202440
 20
3.379200
  0
VERTEX
  8
0
  6
CONTINUOUS
 10
4.230160
 20
3.381840
  0
VERTEX
  8
0
  6
CONTINUOUS
 10
4.257880
 20
3.379200
  0
VERTEX
  8
0
  6
CONTINUOUS
 10
4.284280
 20
3.370840
  0
VERTEX
  8
0
  6
CONTINUOUS
 10
4.307600
 20
3.358080
  0
VERTEX
  8
0
  6
CONTINUOUS
 10
4.328280
 20
3.341360
  0
VERTEX
  8
0
  6
CONTINUOUS
 10
4.345000
 20
3.320680
  0
VERTEX
  8
0
  6
CONTINUOUS
 10
4.357760
 20
3.297360
  0
VERTEX
  8
0
  6
CONTINUOUS
 10
4.366120
 20
3.270960
  0
VERTEX
  8
0
  6
CONTINUOUS
 10
4.368760
 20
3.243240
  0
VERTEX
  8
0
  6
CONTINUOUS
 10
4.390760
 20
3.243680
  0
VERTEX
  8
0
  6
CONTINUOUS
 10
4.393400
 20
3.271400
  0
VERTEX
  8
0
  6
CONTINUOUS
 10
4.401760
 20
3.297360
  0
VERTEX
  8
0
  6
CONTINUOUS
 10
4.414520
 20
3.320680
  0
VERTEX
  8
0
  6
CONTINUOUS
 10
4.431240
 20
3.341360
  0
VERTEX
  8
0
  6
CONTINUOUS
 10
4.451920
 20
3.358080
  0
VERTEX
  8
0
  6
CONTINUOUS
 10
4.475240
 20
3.370840
  0
VERTEX
  8
0
  6
CONTINUOUS
 10
4.501200
 20
3.379200
  0
VERTEX
  8
0
  6
CONTINUOUS
 10
4.528920
 20
3.381840
  0
VERTEX
  8
0
  6
CONTINUOUS
 10
4.556640
 20
3.379200
  0
VERTEX
  8
0
  6
CONTINUOUS
 10
4.583040
 20
3.370840
  0
VERTEX
  8
0
  6
CONTINUOUS
 10
4.606360
 20
3.358080
  0
VERTEX
  8
0
  6
CONTINUOUS
 10
4.627040
 20
3.341360
  0
VERTEX
  8
0
  6
CONTINUOUS
 10
4.643760
 20
3.320680
  0
VERTEX
  8
0
  6
CONTINUOUS
 10
4.656520
 20
3.297360
  0
VERTEX
  8
0
  6
CONTINUOUS
 10
4.664880
 20
3.271400
  0
VERTEX
  8
0
  6
CONTINUOUS
 10
4.667520
 20
3.243680
  0
VERTEX
  8
0
  6
CONTINUOUS
 10
4.689520
 20
3.243680
  0
VERTEX
  8
0
  6
CONTINUOUS
 10
4.692160
 20
3.271400
  0
VERTEX
  8
0
  6
CONTINUOUS
 10
4.700520
 20
3.297360
  0
VERTEX
  8
0
  6
CONTINUOUS
 10
4.713280
 20
3.320680
  0
VERTEX
  8
0
  6
CONTINUOUS
 10
4.730000
 20
3.341360
  0
VERTEX
  8
0
  6
CONTINUOUS
 10
4.750680
 20
3.358080
  0
VERTEX
  8
0
  6
CONTINUOUS
 10
4.774000
 20
3.370840
  0
VERTEX
  8
0
  6
CONTINUOUS
 10
4.800400
 20
3.379200
  0
VERTEX
  8
0
  6
CONTINUOUS
 10
4.828120
 20
3.381840
  0
VERTEX
  8
0
  6
CONTINUOUS
 10
4.855840
 20
3.379200
  0
VERTEX
  8
0
  6
CONTINUOUS
 10
4.882240
 20
3.370840
  0
VERTEX
  8
0
  6
CONTINUOUS
 10
4.905560
 20
3.358080
  0
VERTEX
  8
0
  6
CONTINUOUS
 10
4.926240
 20
3.341360
  0
VERTEX
  8
0
  6
CONTINUOUS
 10
4.942960
 20
3.320680
  0
VERTEX
  8
0
  6
CONTINUOUS
 10
4.955720
 20
3.297360
  0
VERTEX
  8
0
  6
CONTINUOUS
 10
4.964080
 20
3.271400
  0
VERTEX
  8
0
  6
CONTINUOUS
 10
4.966720
 20
3.243240
  0
VERTEX
  8
0
  6
CONTINUOUS
 10
5.024360
 20
3.243240
  0
VERTEX
  8
0
  6
CONTINUOUS
 10
5.025240
 20
3.257320
  0
VERTEX
  8
0
  6
CONTINUOUS
 10
5.032720
 20
3.289440
  0
VERTEX
  8
0
  6
CONTINUOUS
 10
5.047240
 20
3.324200
  0
VERTEX
  8
0
  6
CONTINUOUS
 10
5.067920
 20
3.359400
  0
VERTEX
  8
0
  6
CONTINUOUS
 10
5.093880
 20
3.392400
  0
VERTEX
  8
0
  6
CONTINUOUS
 10
5.108840
 20
3.407360
  0
VERTEX
  8
0
  6
CONTINUOUS
 10
5.142280
 20
3.432440
  0
VERTEX
  8
0
  6
CONTINUOUS
 10
5.170000
 20
3.446080
  0
VERTEX
  8
0
  6
CONTINUOUS
 10
5.199920
 20
3.453560
  0
VERTEX
  8
0
  6
CONTINUOUS
 10
5.220600
 20
3.455320
  0
VERTEX
  8
0
  6
CONTINUOUS
 10
5.668520
 20
3.455320
  0
VERTEX
  8
0
  6
CONTINUOUS
 10
5.691400
 20
3.453120
  0
VERTEX
  8
0
  6
CONTINUOUS
 10
5.720440
 20
3.446960
  0
VERTEX
  8
0
  6
CONTINUOUS
 10
5.752120
 20
3.435960
  0
VERTEX
  8
0
  6
CONTINUOUS
 10
5.783360
 20
3.417920
  0
VERTEX
  8
0
  6
CONTINUOUS
 10
5.804920
 20
3.398560
  0
VERTEX
  8
0
  6
CONTINUOUS
 10
5.823400
 20
3.373480
  0
VERTEX
  8
0
  6
CONTINUOUS
 10
5.833080
 20
3.353680
  0
VERTEX
  8
0
  6
CONTINUOUS
 10
5.843640
 20
3.318040
  0
VERTEX
  8
0
  6
CONTINUOUS
 10
5.846720
 20
3.290320
  0
VERTEX
  8
0
  6
CONTINUOUS
 10
5.847160
 20
2.774640
  0
VERTEX
  8
0
  6
CONTINUOUS
 10
5.845840
 20
2.774640
  0
SEQEND
  8
0
  0
POLYLINE
  8
0
  6
CONTINUOUS
 66
     1
 40
0.000000
 41
0.000000
  0
VERTEX
  8
0
  6
CONTINUOUS
 10
5.845840
 20
3.729000
  0
VERTEX
  8
0
  6
CONTINUOUS
 10
2.605680
 20
3.729000
  0
VERTEX
  8
0
  6
CONTINUOUS
 10
2.606120
 20
4.244240
  0
VERTEX
  8
0
  6
CONTINUOUS
 10
2.609200
 20
4.271960
  0
VERTEX
  8
0
  6
CONTINUOUS
 10
2.619760
 20
4.307600
  0
VERTEX
  8
0
  6
CONTINUOUS
 10
2.635160
 20
4.336640
  0
VERTEX
  8
0
  6
CONTINUOUS
 10
2.654960
 20
4.359520
  0
VERTEX
  8
0
  6
CONTINUOUS
 10
2.669480
 20
4.371840
  0
VERTEX
  8
0
  6
CONTINUOUS
 10
2.700720
 20
4.389880
  0
VERTEX
  8
0
  6
CONTINUOUS
 10
2.732400
 20
4.400880
  0
VERTEX
  8
0
  6
CONTINUOUS
 10
2.761000
 20
4.407040
  0
VERTEX
  8
0
  6
CONTINUOUS
 10
2.792680
 20
4.409240
  0
VERTEX
  8
0
  6
CONTINUOUS
 10
3.242360
 20
4.408800
  0
VERTEX
  8
0
  6
CONTINUOUS
 10
3.272720
 20
4.403080
  0
VERTEX
  8
0
  6
CONTINUOUS
 10
3.291640
 20
4.396040
  0
VERTEX
  8
0
  6
CONTINUOUS
 10
3.310120
 20
4.386360
  0
VERTEX
  8
0
  6
CONTINUOUS
 10
3.343560
 20
4.361280
  0
VERTEX
  8
0
  6
CONTINUOUS
 10
3.358520
 20
4.346320
  0
VERTEX
  8
0
  6
CONTINUOUS
 10
3.384480
 20
4.313320
  0
VERTEX
  8
0
  6
CONTINUOUS
 10
3.405160
 20
4.278120
  0
VERTEX
  8
0
  6
CONTINUOUS
 10
3.419680
 20
4.243360
  0
VERTEX
  8
0
  6
CONTINUOUS
 10
3.427160
 20
4.211240
  0
VERTEX
  8
0
  6
CONTINUOUS
 10
3.428040
 20
4.197160
  0
VERTEX
  8
0
  6
CONTINUOUS
 10
3.494040
 20
4.197160
  0
VERTEX
  8
0
  6
CONTINUOUS
 10
3.496680
 20
4.224880
  0
VERTEX
  8
0
  6
CONTINUOUS
 10
3.505040
 20
4.251280
  0
VERTEX
  8
0
  6
CONTINUOUS
 10
3.517800
 20
4.274600
  0
VERTEX
  8
0
  6
CONTINUOUS
 10
3.534520
 20
4.295280
  0
VERTEX
  8
0
  6
CONTINUOUS
 10
3.555200
 20
4.312000
  0
VERTEX
  8
0
  6
CONTINUOUS
 10
3.578520
 20
4.324760
  0
VERTEX
  8
0
  6
CONTINUOUS
 10
3.604920
 20
4.333120
  0
VERTEX
  8
0
  6
CONTINUOUS
 10
3.632640
 20
4.335760
  0
VERTEX
  8
0
  6
CONTINUOUS
 10
3.660360
 20
4.333120
  0
VERTEX
  8
0
  6
CONTINUOUS
 10
3.686760
 20
4.324760
  0
VERTEX
  8
0
  6
CONTINUOUS
 10
3.710080
 20
4.312000
  0
VERTEX
  8
0
  6
CONTINUOUS
 10
3.730760
 20
4.295280
  0
VERTEX
  8
0
  6
CONTINUOUS
 10
3.747480
 20
4.274600
  0
VERTEX
  8
0
  6
CONTINUOUS
 10
3.760240
 20
4.251280
  0
VERTEX
  8
0
  6
CONTINUOUS
 10
3.768600
 20
4.224880
  0
VERTEX
  8
0
  6
CONTINUOUS
 10
3.771240
 20
4.197160
  0
VERTEX
  8
0
  6
CONTINUOUS
 10
3.793240
 20
4.197160
  0
VERTEX
  8
0
  6
CONTINUOUS
 10
3.795880
 20
4.224880
  0
VERTEX
  8
0
  6
CONTINUOUS
 10
3.804240
 20
4.251280
  0
VERTEX
  8
0
  6
CONTINUOUS
 10
3.816560
 20
4.274600
  0
VERTEX
  8
0
  6
CONTINUOUS
 10
3.833720
 20
4.295280
  0
VERTEX
  8
0
  6
CONTINUOUS
 10
3.853960
 20
4.312000
  0
VERTEX
  8
0
  6
CONTINUOUS
 10
3.877720
 20
4.324760
  0
VERTEX
  8
0
  6
CONTINUOUS
 10
3.890040
 20
4.329600
  0
VERTEX
  8
0
  6
CONTINUOUS
 10
3.903680
 20
4.333120
  0
VERTEX
  8
0
  6
CONTINUOUS
 10
3.931400
 20
4.335760
  0
VERTEX
  8
0
  6
CONTINUOUS
 10
3.959120
 20
4.333120
  0
VERTEX
  8
0
  6
CONTINUOUS
 10
3.985520
 20
4.324760
  0
VERTEX
  8
0
  6
CONTINUOUS
 10
4.008840
 20
4.312000
  0
VERTEX
  8
0
  6
CONTINUOUS
 10
4.029520
 20
4.295280
  0
VERTEX
  8
0
  6
CONTINUOUS
 10
4.046240
 20
4.274600
  0
VERTEX
  8
0
  6
CONTINUOUS
 10
4.059000
 20
4.251280
  0
VERTEX
  8
0
  6
CONTINUOUS
 10
4.067360
 20
4.224880
  0
VERTEX
  8
0
  6
CONTINUOUS
 10
4.070000
 20
4.197160
  0
VERTEX
  8
0
  6
CONTINUOUS
 10
4.092000
 20
4.197600
  0
VERTEX
  8
0
  6
CONTINUOUS
 10
4.094640
 20
4.225320
  0
VERTEX
  8
0
  6
CONTINUOUS
 10
4.103000
 20
4.251280
  0
VERTEX
  8
0
  6
CONTINUOUS
 10
4.115320
 20
4.274600
  0
VERTEX
  8
0
  6
CONTINUOUS
 10
4.132480
 20
4.295280
  0
VERTEX
  8
0
  6
CONTINUOUS
 10
4.152720
 20
4.312000
  0
VERTEX
  8
0
  6
CONTINUOUS
 10
4.176480
 20
4.324760
  0
VERTEX
  8
0
  6
CONTINUOUS
 10
4.188800
 20
4.329600
  0
VERTEX
  8
0
  6
CONTINUOUS
 10
4.202440
 20
4.333120
  0
VERTEX
  8
0
  6
CONTINUOUS
 10
4.230160
 20
4.335760
  0
VERTEX
  8
0
  6
CONTINUOUS
 10
4.257880
 20
4.333120
  0
VERTEX
  8
0
  6
CONTINUOUS
 10
4.284280
 20
4.324760
  0
VERTEX
  8
0
  6
CONTINUOUS
 10
4.307600
 20
4.312000
  0
VERTEX
  8
0
  6
CONTINUOUS
 10
4.328280
 20
4.295280
  0
VERTEX
  8
0
  6
CONTINUOUS
 10
4.345000
 20
4.274600
  0
VERTEX
  8
0
  6
CONTINUOUS
 10
4.357760
 20
4.251280
  0
VERTEX
  8
0
  6
CONTINUOUS
 10
4.366120
 20
4.225320
  0
VERTEX
  8
0
  6
CONTINUOUS
 10
4.368760
 20
4.197600
  0
VERTEX
  8
0
  6
CONTINUOUS
 10
4.390760
 20
4.197600
  0
VERTEX
  8
0
  6
CONTINUOUS
 10
4.393400
 20
4.225320
  0
VERTEX
  8
0
  6
CONTINUOUS
 10
4.401760
 20
4.251280
  0
VERTEX
  8
0
  6
CONTINUOUS
 10
4.414520
 20
4.274600
  0
VERTEX
  8
0
  6
CONTINUOUS
 10
4.431240
 20
4.295280
  0
VERTEX
  8
0
  6
CONTINUOUS
 10
4.451920
 20
4.312000
  0
VERTEX
  8
0
  6
CONTINUOUS
 10
4.475240
 20
4.324760
  0
VERTEX
  8
0
  6
CONTINUOUS
 10
4.501200
 20
4.333120
  0
VERTEX
  8
0
  6
CONTINUOUS
 10
4.528920
 20
4.335760
  0
VERTEX
  8
0
  6
CONTINUOUS
 10
4.556640
 20
4.333120
  0
VERTEX
  8
0
  6
CONTINUOUS
 10
4.583040
 20
4.324760
  0
VERTEX
  8
0
  6
CONTINUOUS
 10
4.606360
 20
4.312000
  0
VERTEX
  8
0
  6
CONTINUOUS
 10
4.627040
 20
4.295280
  0
VERTEX
  8
0
  6
CONTINUOUS
 10
4.643760
 20
4.274600
  0
VERTEX
  8
0
  6
CONTINUOUS
 10
4.656520
 20
4.251280
  0
VERTEX
  8
0
  6
CONTINUOUS
 10
4.664880
 20
4.225320
  0
VERTEX
  8
0
  6
CONTINUOUS
 10
4.667520
 20
4.197600
  0
VERTEX
  8
0
  6
CONTINUOUS
 10
4.689520
 20
4.197600
  0
VERTEX
  8
0
  6
CONTINUOUS
 10
4.692160
 20
4.225320
  0
VERTEX
  8
0
  6
CONTINUOUS
 10
4.700520
 20
4.251280
  0
VERTEX
  8
0
  6
CONTINUOUS
 10
4.713280
 20
4.274600
  0
VERTEX
  8
0
  6
CONTINUOUS
 10
4.730000
 20
4.295280
  0
VERTEX
  8
0
  6
CONTINUOUS
 10
4.750680
 20
4.312000
  0
VERTEX
  8
0
  6
CONTINUOUS
 10
4.774000
 20
4.324760
  0
VERTEX
  8
0
  6
CONTINUOUS
 10
4.800400
 20
4.333120
  0
VERTEX
  8
0
  6
CONTINUOUS
 10
4.828120
 20
4.335760
  0
VERTEX
  8
0
  6
CONTINUOUS
 10
4.855840
 20
4.333120
  0
VERTEX
  8
0
  6
CONTINUOUS
 10
4.882240
 20
4.324760
  0
VERTEX
  8
0
  6
CONTINUOUS
 10
4.905560
 20
4.312000
  0
VERTEX
  8
0
  6
CONTINUOUS
 10
4.926240
 20
4.295280
  0
VERTEX
  8
0
  6
CONTINUOUS
 10
4.942960
 20
4.274600
  0
VERTEX
  8
0
  6
CONTINUOUS
 10
4.955720
 20
4.251280
  0
VERTEX
  8
0
  6
CONTINUOUS
 10
4.964080
 20
4.225320
  0
VERTEX
  8
0
  6
CONTINUOUS
 10
4.966720
 20
4.197160
  0
VERTEX
  8
0
  6
CONTINUOUS
 10
5.024360
 20
4.197160
  0
VERTEX
  8
0
  6
CONTINUOUS
 10
5.025240
 20
4.211240
  0
VERTEX
  8
0
  6
CONTINUOUS
 10
5.032720
 20
4.243360
  0
VERTEX
  8
0
  6
CONTINUOUS
 10
5.047240
 20
4.278120
  0
VERTEX
  8
0
  6
CONTINUOUS
 10
5.067920
 20
4.313320
  0
VERTEX
  8
0
  6
CONTINUOUS
 10
5.093880
 20
4.346320
  0
VERTEX
  8
0
  6
CONTINUOUS
 10
5.108840
 20
4.361280
  0
VERTEX
  8
0
  6
CONTINUOUS
 10
5.142280
 20
4.386360
  0
VERTEX
  8
0
  6
CONTINUOUS
 10
5.170000
 20
4.400000
  0
VERTEX
  8
0
  6
CONTINUOUS
 10
5.199920
 20
4.407480
  0
VERTEX
  8
0
  6
CONTINUOUS
 10
5.220600
 20
4.409240
  0
VERTEX
  8
0
  6
CONTINUOUS
 10
5.668520
 20
4.409240
  0
VERTEX
  8
0
  6
CONTINUOUS
 10
5.691400
 20
4.407040
  0
VERTEX
  8
0
  6
CONTINUOUS
 10
5.720440
 20
4.400880
  0
VERTEX
  8
0
  6
CONTINUOUS
 10
5.752120
 20
4.389880
  0
VERTEX
  8
0
  6
CONTINUOUS
 10
5.783360
 20
4.371840
  0
VERTEX
  8
0
  6
CONTINUOUS
 10
5.804920
 20
4.352480
  0
VERTEX
  8
0
  6
CONTINUOUS
 10
5.823400
 20
4.327400
  0
VERTEX
  8
0
  6
CONTINUOUS
 10
5.833080
 20
4.307600
  0
VERTEX
  8
0
  6
CONTINUOUS
 10
5.843640
 20
4.271960
  0
VERTEX
  8
0
  6
CONTINUOUS
 10
5.846720
 20
4.244240
  0
VERTEX
  8
0
  6
CONTINUOUS
 10
5.847160
 20
3.729000
  0
VERTEX
  8
0
  6
CONTINUOUS
 10
5.845840
 20
3.729000
  0
SEQEND
  8
0
  0
SOLID
  8
0
 62
    15
 10
4.204200
 20
6.155600
 11
4.200680
 21
6.906680
 12
4.231920
 22
6.158240
 13
4.228400
 23
6.909760
  0
POLYLINE
  8
0
  6
CONTINUOUS
 66
     1
 40
0.000000
 41
0.000000
  0
VERTEX
  8
0
  6
CONTINUOUS
 10
4.204200
 20
6.155600
  0
VERTEX
  8
0
  6
CONTINUOUS
 10
4.200680
 20
6.906680
  0
VERTEX
  8
0
  6
CONTINUOUS
 10
4.228400
 20
6.909760
  0
VERTEX
  8
0
  6
CONTINUOUS
 10
4.231920
 20
6.158240
  0
VERTEX
  8
0
  6
CONTINUOUS
 10
4.204200
 20
6.155600
  0
SEQEND
  8
0
  0
SOLID
  8
0
 62
    15
 10
2.607440
 20
6.050880
 11
2.603480
 21
6.802400
 12
2.608760
 22
6.080800
 13
2.605240
 23
6.832320
  0
POLYLINE
  8
0
  6
CONTINUOUS
 66
     1
 40
0.000000
 41
0.000000
  0
VERTEX
  8
0
  6
CONTINUOUS
 10
2.607440
 20
6.050880
  0
VERTEX
  8
0
  6
CONTINUOUS
 10
2.603480
 20
6.802400
  0
VERTEX
  8
0
  6
CONTINUOUS
 10
2.605240
 20
6.832320
  0
VERTEX
  8
0
  6
CONTINUOUS
 10
2.608760
 20
6.080800
  0
VERTEX
  8
0
  6
CONTINUOUS
 10
2.607440
 20
6.050880
  0
SEQEND
  8
0
  0
SOLID
  8
0
 62
    15
 10
2.608760
 20
6.080800
 11
2.605240
 21
6.832320
 12
2.613600
 22
6.106760
 13
2.610080
 23
6.858280
  0
POLYLINE
  8
0
  6
CONTINUOUS
 66
     1
 40
0.000000
 41
0.000000
  0
VERTEX
  8
0
  6
CONTINUOUS
 10
2.608760
 20
6.080800
  0
VERTEX
  8
0
  6
CONTINUOUS
 10
2.605240
 20
6.832320
  0
VERTEX
  8
0
  6
CONTINUOUS
 10
2.610080
 20
6.858280
  0
VERTEX
  8
0
  6
CONTINUOUS
 10
2.613600
 20
6.106760
  0
VERTEX
  8
0
  6
CONTINUOUS
 10
2.608760
 20
6.080800
  0
SEQEND
  8
0
  0
SOLID
  8
0
 62
    15
 10
2.613600
 20
6.106760
 11
2.610080
 21
6.858280
 12
2.621080
 22
6.130080
 13
2.617560
 23
6.881600
  0
POLYLINE
  8
0
  6
CONTINUOUS
 66
     1
 40
0.000000
 41
0.000000
  0
VERTEX
  8
0
  6
CONTINUOUS
 10
2.613600
 20
6.106760
  0
VERTEX
  8
0
  6
CONTINUOUS
 10
2.610080
 20
6.858280
  0
VERTEX
  8
0
  6
CONTINUOUS
 10
2.617560
 20
6.881600
  0
VERTEX
  8
0
  6
CONTINUOUS
 10
2.621080
 20
6.130080
  0
VERTEX
  8
0
  6
CONTINUOUS
 10
2.613600
 20
6.106760
  0
SEQEND
  8
0
  0
SOLID
  8
0
 62
    15
 10
2.621080
 20
6.130080
 11
2.617560
 21
6.881600
 12
2.631200
 22
6.149880
 13
2.627680
 23
6.901400
  0
POLYLINE
  8
0
  6
CONTINUOUS
 66
     1
 40
0.000000
 41
0.000000
  0
VERTEX
  8
0
  6
CONTINUOUS
 10
2.621080
 20
6.130080
  0
VERTEX
  8
0
  6
CONTINUOUS
 10
2.617560
 20
6.881600
  0
VERTEX
  8
0
  6
CONTINUOUS
 10
2.627680
 20
6.901400
  0
VERTEX
  8
0
  6
CONTINUOUS
 10
2.631200
 20
6.149880
  0
VERTEX
  8
0
  6
CONTINUOUS
 10
2.621080
 20
6.130080
  0
SEQEND
  8
0
  0
SOLID
  8
0
 62
    15
 10
2.631200
 20
6.149880
 11
2.627680
 21
6.901400
 12
2.656280
 22
6.182000
 13
2.652760
 23
6.933080
  0
POLYLINE
  8
0
  6
CONTINUOUS
 66
     1
 40
0.000000
 41
0.000000
  0
VERTEX
  8
0
  6
CONTINUOUS
 10
2.631200
 20
6.149880
  0
VERTEX
  8
0
  6
CONTINUOUS
 10
2.627680
 20
6.901400
  0
VERTEX
  8
0
  6
CONTINUOUS
 10
2.652760
 20
6.933080
  0
VERTEX
  8
0
  6
CONTINUOUS
 10
2.656280
 20
6.182000
  0
VERTEX
  8
0
  6
CONTINUOUS
 10
2.631200
 20
6.149880
  0
SEQEND
  8
0
  0
SOLID
  8
0
 62
    15
 10
2.656280
 20
6.182000
 11
2.652760
 21
6.933080
 12
2.686640
 22
6.204000
 13
2.683120
 23
6.955520
  0
POLYLINE
  8
0
  6
CONTINUOUS
 66
     1
 40
0.000000
 41
0.000000
  0
VERTEX
  8
0
  6
CONTINUOUS
 10
2.656280
 20
6.182000
  0
VERTEX
  8
0
  6
CONTINUOUS
 10
2.652760
 20
6.933080
  0
VERTEX
  8
0
  6
CONTINUOUS
 10
2.683120
 20
6.955520
  0
VERTEX
  8
0
  6
CONTINUOUS
 10
2.686640
 20
6.204000
  0
VERTEX
  8
0
  6
CONTINUOUS
 10
2.656280
 20
6.182000
  0
SEQEND
  8
0
  0
SOLID
  8
0
 62
    15
 10
2.686640
 20
6.204000
 11
2.683120
 21
6.955520
 12
2.718320
 22
6.218520
 13
2.714800
 23
6.970040
  0
POLYLINE
  8
0
  6
CONTINUOUS
 66
     1
 40
0.000000
 41
0.000000
  0
VERTEX
  8
0
  6
CONTINUOUS
 10
2.686640
 20
6.204000
  0
VERTEX
  8
0
  6
CONTINUOUS
 10
2.683120
 20
6.955520
  0
VERTEX
  8
0
  6
CONTINUOUS
 10
2.714800
 20
6.970040
  0
VERTEX
  8
0
  6
CONTINUOUS
 10
2.718320
 20
6.218520
  0
VERTEX
  8
0
  6
CONTINUOUS
 10
2.686640
 20
6.204000
  0
SEQEND
  8
0
  0
SOLID
  8
0
 62
    15
 10
2.718320
 20
6.218520
 11
2.714800
 21
6.970040
 12
2.749120
 22
6.226880
 13
2.745600
 23
6.978400
  0
POLYLINE
  8
0
  6
CONTINUOUS
 66
     1
 40
0.000000
 41
0.000000
  0
VERTEX
  8
0
  6
CONTINUOUS
 10
2.718320
 20
6.218520
  0
VERTEX
  8
0
  6
CONTINUOUS
 10
2.714800
 20
6.970040
  0
VERTEX
  8
0
  6
CONTINUOUS
 10
2.745600
 20
6.978400
  0
VERTEX
  8
0
  6
CONTINUOUS
 10
2.749120
 20
6.226880
  0
VERTEX
  8
0
  6
CONTINUOUS
 10
2.718320
 20
6.218520
  0
SEQEND
  8
0
  0
SOLID
  8
0
 62
    15
 10
2.749120
 20
6.226880
 11
2.745600
 21
6.978400
 12
2.775080
 22
6.230840
 13
2.771560
 23
6.982360
  0
POLYLINE
  8
0
  6
CONTINUOUS
 66
     1
 40
0.000000
 41
0.000000
  0
VERTEX
  8
0
  6
CONTINUOUS
 10
2.749120
 20
6.226880
  0
VERTEX
  8
0
  6
CONTINUOUS
 10
2.745600
 20
6.978400
  0
VERTEX
  8
0
  6
CONTINUOUS
 10
2.771560
 20
6.982360
  0
VERTEX
  8
0
  6
CONTINUOUS
 10
2.775080
 20
6.230840
  0
VERTEX
  8
0
  6
CONTINUOUS
 10
2.749120
 20
6.226880
  0
SEQEND
  8
0
  0
SOLID
  8
0
 62
    15
 10
2.775080
 20
6.230840
 11
2.771560
 21
6.982360
 12
2.794440
 22
6.231720
 13
2.790480
 23
6.983240
  0
POLYLINE
  8
0
  6
CONTINUOUS
 66
     1
 40
0.000000
 41
0.000000
  0
VERTEX
  8
0
  6
CONTINUOUS
 10
2.775080
 20
6.230840
  0
VERTEX
  8
0
  6
CONTINUOUS
 10
2.771560
 20
6.982360
  0
VERTEX
  8
0
  6
CONTINUOUS
 10
2.790480
 20
6.983240
  0
VERTEX
  8
0
  6
CONTINUOUS
 10
2.794440
 20
6.231720
  0
VERTEX
  8
0
  6
CONTINUOUS
 10
2.775080
 20
6.230840
  0
SEQEND
  8
0
  0
SOLID
  8
0
 62
    15
 10
2.794440
 20
6.231720
 11
2.790480
 21
6.983240
 12
3.233560
 22
6.231720
 13
3.230040
 23
6.983240
  0
POLYLINE
  8
0
  6
CONTINUOUS
 66
     1
 40
0.000000
 41
0.000000
  0
VERTEX
  8
0
  6
CONTINUOUS
 10
2.794440
 20
6.231720
  0
VERTEX
  8
0
  6
CONTINUOUS
 10
2.790480
 20
6.983240
  0
VERTEX
  8
0
  6
CONTINUOUS
 10
3.230040
 20
6.983240
  0
VERTEX
  8
0
  6
CONTINUOUS
 10
3.233560
 20
6.231720
  0
VERTEX
  8
0
  6
CONTINUOUS
 10
2.794440
 20
6.231720
  0
SEQEND
  8
0
  0
SOLID
  8
0
 62
    15
 10
3.233560
 20
6.231720
 11
3.230040
 21
6.983240
 12
3.274480
 22
6.225560
 13
3.270960
 23
6.977080
  0
POLYLINE
  8
0
  6
CONTINUOUS
 66
     1
 40
0.000000
 41
0.000000
  0
VERTEX
  8
0
  6
CONTINUOUS
 10
3.233560
 20
6.231720
  0
VERTEX
  8
0
  6
CONTINUOUS
 10
3.230040
 20
6.983240
  0
VERTEX
  8
0
  6
CONTINUOUS
 10
3.270960
 20
6.977080
  0
VERTEX
  8
0
  6
CONTINUOUS
 10
3.274480
 20
6.225560
  0
VERTEX
  8
0
  6
CONTINUOUS
 10
3.233560
 20
6.231720
  0
SEQEND
  8
0
  0
SOLID
  8
0
 62
    15
 10
3.274480
 20
6.225560
 11
3.270960
 21
6.977080
 12
3.311880
 22
6.208400
 13
3.308360
 23
6.959920
  0
POLYLINE
  8
0
  6
CONTINUOUS
 66
     1
 40
0.000000
 41
0.000000
  0
VERTEX
  8
0
  6
CONTINUOUS
 10
3.274480
 20
6.225560
  0
VERTEX
  8
0
  6
CONTINUOUS
 10
3.270960
 20
6.977080
  0
VERTEX
  8
0
  6
CONTINUOUS
 10
3.308360
 20
6.959920
  0
VERTEX
  8
0
  6
CONTINUOUS
 10
3.311880
 20
6.208400
  0
VERTEX
  8
0
  6
CONTINUOUS
 10
3.274480
 20
6.225560
  0
SEQEND
  8
0
  0
SOLID
  8
0
 62
    15
 10
3.311880
 20
6.208400
 11
3.308360
 21
6.959920
 12
3.345320
 22
6.183320
 13
3.341800
 23
6.934840
  0
POLYLINE
  8
0
  6
CONTINUOUS
 66
     1
 40
0.000000
 41
0.000000
  0
VERTEX
  8
0
  6
CONTINUOUS
 10
3.311880
 20
6.208400
  0
VERTEX
  8
0
  6
CONTINUOUS
 10
3.308360
 20
6.959920
  0
VERTEX
  8
0
  6
CONTINUOUS
 10
3.341800
 20
6.934840
  0
VERTEX
  8
0
  6
CONTINUOUS
 10
3.345320
 20
6.183320
  0
VERTEX
  8
0
  6
CONTINUOUS
 10
3.311880
 20
6.208400
  0
SEQEND
  8
0
  0
SOLID
  8
0
 62
    15
 10
3.345320
 20
6.183320
 11
3.341800
 21
6.934840
 12
3.373920
 22
6.152520
 13
3.370400
 23
6.904040
  0
POLYLINE
  8
0
  6
CONTINUOUS
 66
     1
 40
0.000000
 41
0.000000
  0
VERTEX
  8
0
  6
CONTINUOUS
 10
3.345320
 20
6.183320
  0
VERTEX
  8
0
  6
CONTINUOUS
 10
3.341800
 20
6.934840
  0
VERTEX
  8
0
  6
CONTINUOUS
 10
3.370400
 20
6.904040
  0
VERTEX
  8
0
  6
CONTINUOUS
 10
3.373920
 20
6.152520
  0
VERTEX
  8
0
  6
CONTINUOUS
 10
3.345320
 20
6.183320
  0
SEQEND
  8
0
  0
SOLID
  8
0
 62
    15
 10
3.373920
 20
6.152520
 11
3.370400
 21
6.904040
 12
3.397680
 22
6.118200
 13
3.393720
 23
6.869720
  0
POLYLINE
  8
0
  6
CONTINUOUS
 66
     1
 40
0.000000
 41
0.000000
  0
VERTEX
  8
0
  6
CONTINUOUS
 10
3.373920
 20
6.152520
  0
VERTEX
  8
0
  6
CONTINUOUS
 10
3.370400
 20
6.904040
  0
VERTEX
  8
0
  6
CONTINUOUS
 10
3.393720
 20
6.869720
  0
VERTEX
  8
0
  6
CONTINUOUS
 10
3.397680
 20
6.118200
  0
VERTEX
  8
0
  6
CONTINUOUS
 10
3.373920
 20
6.152520
  0
SEQEND
  8
0
  0
SOLID
  8
0
 62
    15
 10
3.397680
 20
6.118200
 11
3.393720
 21
6.869720
 12
3.415280
 22
6.083000
 13
3.411320
 23
6.834520
  0
POLYLINE
  8
0
  6
CONTINUOUS
 66
     1
 40
0.000000
 41
0.000000
  0
VERTEX
  8
0
  6
CONTINUOUS
 10
3.397680
 20
6.118200
  0
VERTEX
  8
0
  6
CONTINUOUS
 10
3.393720
 20
6.869720
  0
VERTEX
  8
0
  6
CONTINUOUS
 10
3.411320
 20
6.834520
  0
VERTEX
  8
0
  6
CONTINUOUS
 10
3.415280
 20
6.083000
  0
VERTEX
  8
0
  6
CONTINUOUS
 10
3.397680
 20
6.118200
  0
SEQEND
  8
0
  0
SOLID
  8
0
 62
    15
 10
3.415280
 20
6.083000
 11
3.411320
 21
6.834520
 12
3.426280
 22
6.049560
 13
3.422320
 23
6.801080
  0
POLYLINE
  8
0
  6
CONTINUOUS
 66
     1
 40
0.000000
 41
0.000000
  0
VERTEX
  8
0
  6
CONTINUOUS
 10
3.415280
 20
6.083000
  0
VERTEX
  8
0
  6
CONTINUOUS
 10
3.411320
 20
6.834520
  0
VERTEX
  8
0
  6
CONTINUOUS
 10
3.422320
 20
6.801080
  0
VERTEX
  8
0
  6
CONTINUOUS
 10
3.426280
 20
6.049560
  0
VERTEX
  8
0
  6
CONTINUOUS
 10
3.415280
 20
6.083000
  0
SEQEND
  8
0
  0
SOLID
  8
0
 62
    15
 10
3.426280
 20
6.049560
 11
3.422320
 21
6.801080
 12
3.429800
 22
6.019640
 13
3.426280
 23
6.771160
  0
POLYLINE
  8
0
  6
CONTINUOUS
 66
     1
 40
0.000000
 41
0.000000
  0
VERTEX
  8
0
  6
CONTINUOUS
 10
3.426280
 20
6.049560
  0
VERTEX
  8
0
  6
CONTINUOUS
 10
3.422320
 20
6.801080
  0
VERTEX
  8
0
  6
CONTINUOUS
 10
3.426280
 20
6.771160
  0
VERTEX
  8
0
  6
CONTINUOUS
 10
3.429800
 20
6.019640
  0
VERTEX
  8
0
  6
CONTINUOUS
 10
3.426280
 20
6.049560
  0
SEQEND
  8
0
  0
SOLID
  8
0
 62
    15
 10
3.429800
 20
6.019640
 11
3.426280
 21
6.771160
 12
3.495800
 22
6.019640
 13
3.492280
 23
6.771160
  0
POLYLINE
  8
0
  6
CONTINUOUS
 66
     1
 40
0.000000
 41
0.000000
  0
VERTEX
  8
0
  6
CONTINUOUS
 10
3.429800
 20
6.019640
  0
VERTEX
  8
0
  6
CONTINUOUS
 10
3.426280
 20
6.771160
  0
VERTEX
  8
0
  6
CONTINUOUS
 10
3.492280
 20
6.771160
  0
VERTEX
  8
0
  6
CONTINUOUS
 10
3.495800
 20
6.019640
  0
VERTEX
  8
0
  6
CONTINUOUS
 10
3.429800
 20
6.019640
  0
SEQEND
  8
0
  0
SOLID
  8
0
 62
    15
 10
3.495800
 20
6.019640
 11
3.492280
 21
6.771160
 12
3.498880
 22
6.047800
 13
3.495360
 23
6.798880
  0
POLYLINE
  8
0
  6
CONTINUOUS
 66
     1
 40
0.000000
 41
0.000000
  0
VERTEX
  8
0
  6
CONTINUOUS
 10
3.495800
 20
6.019640
  0
VERTEX
  8
0
  6
CONTINUOUS
 10
3.492280
 20
6.771160
  0
VERTEX
  8
0
  6
CONTINUOUS
 10
3.495360
 20
6.798880
  0
VERTEX
  8
0
  6
CONTINUOUS
 10
3.498880
 20
6.047800
  0
VERTEX
  8
0
  6
CONTINUOUS
 10
3.495800
 20
6.019640
  0
SEQEND
  8
0
  0
SOLID
  8
0
 62
    15
 10
3.498880
 20
6.047800
 11
3.495360
 21
6.798880
 12
3.506800
 22
6.073760
 13
3.503280
 23
6.824840
  0
POLYLINE
  8
0
  6
CONTINUOUS
 66
     1
 40
0.000000
 41
0.000000
  0
VERTEX
  8
0
  6
CONTINUOUS
 10
3.498880
 20
6.047800
  0
VERTEX
  8
0
  6
CONTINUOUS
 10
3.495360
 20
6.798880
  0
VERTEX
  8
0
  6
CONTINUOUS
 10
3.503280
 20
6.824840
  0
VERTEX
  8
0
  6
CONTINUOUS
 10
3.506800
 20
6.073760
  0
VERTEX
  8
0
  6
CONTINUOUS
 10
3.498880
 20
6.047800
  0
SEQEND
  8
0
  0
SOLID
  8
0
 62
    15
 10
3.506800
 20
6.073760
 11
3.503280
 21
6.824840
 12
3.519560
 22
6.097080
 13
3.516040
 23
6.848600
  0
POLYLINE
  8
0
  6
CONTINUOUS
 66
     1
 40
0.000000
 41
0.000000
  0
VERTEX
  8
0
  6
CONTINUOUS
 10
3.506800
 20
6.073760
  0
VERTEX
  8
0
  6
CONTINUOUS
 10
3.503280
 20
6.824840
  0
VERTEX
  8
0
  6
CONTINUOUS
 10
3.516040
 20
6.848600
  0
VERTEX
  8
0
  6
CONTINUOUS
 10
3.519560
 20
6.097080
  0
VERTEX
  8
0
  6
CONTINUOUS
 10
3.506800
 20
6.073760
  0
SEQEND
  8
0
  0
SOLID
  8
0
 62
    15
 10
3.519560
 20
6.097080
 11
3.516040
 21
6.848600
 12
3.536280
 22
6.117760
 13
3.532760
 23
6.868840
  0
POLYLINE
  8
0
  6
CONTINUOUS
 66
     1
 40
0.000000
 41
0.000000
  0
VERTEX
  8
0
  6
CONTINUOUS
 10
3.519560
 20
6.097080
  0
VERTEX
  8
0
  6
CONTINUOUS
 10
3.516040
 20
6.848600
  0
VERTEX
  8
0
  6
CONTINUOUS
 10
3.532760
 20
6.868840
  0
VERTEX
  8
0
  6
CONTINUOUS
 10
3.536280
 20
6.117760
  0
VERTEX
  8
0
  6
CONTINUOUS
 10
3.519560
 20
6.097080
  0
SEQEND
  8
0
  0
SOLID
  8
0
 62
    15
 10
3.536280
 20
6.117760
 11
3.532760
 21
6.868840
 12
3.556960
 22
6.134480
 13
3.553440
 23
6.886000
  0
POLYLINE
  8
0
  6
CONTINUOUS
 66
     1
 40
0.000000
 41
0.000000
  0
VERTEX
  8
0
  6
CONTINUOUS
 10
3.536280
 20
6.117760
  0
VERTEX
  8
0
  6
CONTINUOUS
 10
3.532760
 20
6.868840
  0
VERTEX
  8
0
  6
CONTINUOUS
 10
3.553440
 20
6.886000
  0
VERTEX
  8
0
  6
CONTINUOUS
 10
3.556960
 20
6.134480
  0
VERTEX
  8
0
  6
CONTINUOUS
 10
3.536280
 20
6.117760
  0
SEQEND
  8
0
  0
SOLID
  8
0
 62
    15
 10
3.556960
 20
6.134480
 11
3.553440
 21
6.886000
 12
3.580720
 22
6.147240
 13
3.576760
 23
6.898760
  0
POLYLINE
  8
0
  6
CONTINUOUS
 66
     1
 40
0.000000
 41
0.000000
  0
VERTEX
  8
0
  6
CONTINUOUS
 10
3.556960
 20
6.134480
  0
VERTEX
  8
0
  6
CONTINUOUS
 10
3.553440
 20
6.886000
  0
VERTEX
  8
0
  6
CONTINUOUS
 10
3.576760
 20
6.898760
  0
VERTEX
  8
0
  6
CONTINUOUS
 10
3.580720
 20
6.147240
  0
VERTEX
  8
0
  6
CONTINUOUS
 10
3.556960
 20
6.134480
  0
SEQEND
  8
0
  0
SOLID
  8
0
 62
    15
 10
3.580720
 20
6.147240
 11
3.576760
 21
6.898760
 12
3.606680
 22
6.155160
 13
3.602720
 23
6.906680
  0
POLYLINE
  8
0
  6
CONTINUOUS
 66
     1
 40
0.000000
 41
0.000000
  0
VERTEX
  8
0
  6
CONTINUOUS
 10
3.580720
 20
6.147240
  0
VERTEX
  8
0
  6
CONTINUOUS
 10
3.576760
 20
6.898760
  0
VERTEX
  8
0
  6
CONTINUOUS
 10
3.602720
 20
6.906680
  0
VERTEX
  8
0
  6
CONTINUOUS
 10
3.606680
 20
6.155160
  0
VERTEX
  8
0
  6
CONTINUOUS
 10
3.580720
 20
6.147240
  0
SEQEND
  8
0
  0
SOLID
  8
0
 62
    15
 10
3.606680
 20
6.155160
 11
3.602720
 21
6.906680
 12
3.634400
 22
6.158240
 13
3.630880
 23
6.909760
  0
POLYLINE
  8
0
  6
CONTINUOUS
 66
     1
 40
0.000000
 41
0.000000
  0
VERTEX
  8
0
  6
CONTINUOUS
 10
3.606680
 20
6.155160
  0
VERTEX
  8
0
  6
CONTINUOUS
 10
3.602720
 20
6.906680
  0
VERTEX
  8
0
  6
CONTINUOUS
 10
3.630880
 20
6.909760
  0
VERTEX
  8
0
  6
CONTINUOUS
 10
3.634400
 20
6.158240
  0
VERTEX
  8
0
  6
CONTINUOUS
 10
3.606680
 20
6.155160
  0
SEQEND
  8
0
  0
SOLID
  8
0
 62
    15
 10
3.634400
 20
6.158240
 11
3.630880
 21
6.909760
 12
3.662120
 22
6.155160
 13
3.658600
 23
6.906680
  0
POLYLINE
  8
0
  6
CONTINUOUS
 66
     1
 40
0.000000
 41
0.000000
  0
VERTEX
  8
0
  6
CONTINUOUS
 10
3.634400
 20
6.158240
  0
VERTEX
  8
0
  6
CONTINUOUS
 10
3.630880
 20
6.909760
  0
VERTEX
  8
0
  6
CONTINUOUS
 10
3.658600
 20
6.906680
  0
VERTEX
  8
0
  6
CONTINUOUS
 10
3.662120
 20
6.155160
  0
VERTEX
  8
0
  6
CONTINUOUS
 10
3.634400
 20
6.158240
  0
SEQEND
  8
0
  0
SOLID
  8
0
 62
    15
 10
3.662120
 20
6.155160
 11
3.658600
 21
6.906680
 12
3.688080
 22
6.147240
 13
3.684560
 23
6.898760
  0
POLYLINE
  8
0
  6
CONTINUOUS
 66
     1
 40
0.000000
 41
0.000000
  0
VERTEX
  8
0
  6
CONTINUOUS
 10
3.662120
 20
6.155160
  0
VERTEX
  8
0
  6
CONTINUOUS
 10
3.658600
 20
6.906680
  0
VERTEX
  8
0
  6
CONTINUOUS
 10
3.684560
 20
6.898760
  0
VERTEX
  8
0
  6
CONTINUOUS
 10
3.688080
 20
6.147240
  0
VERTEX
  8
0
  6
CONTINUOUS
 10
3.662120
 20
6.155160
  0
SEQEND
  8
0
  0
SOLID
  8
0
 62
    15
 10
3.688080
 20
6.147240
 11
3.684560
 21
6.898760
 12
3.711840
 22
6.134480
 13
3.708320
 23
6.886000
  0
POLYLINE
  8
0
  6
CONTINUOUS
 66
     1
 40
0.000000
 41
0.000000
  0
VERTEX
  8
0
  6
CONTINUOUS
 10
3.688080
 20
6.147240
  0
VERTEX
  8
0
  6
CONTINUOUS
 10
3.684560
 20
6.898760
  0
VERTEX
  8
0
  6
CONTINUOUS
 10
3.708320
 20
6.886000
  0
VERTEX
  8
0
  6
CONTINUOUS
 10
3.711840
 20
6.134480
  0
VERTEX
  8
0
  6
CONTINUOUS
 10
3.688080
 20
6.147240
  0
SEQEND
  8
0
  0
SOLID
  8
0
 62
    15
 10
3.711840
 20
6.134480
 11
3.708320
 21
6.886000
 12
3.732080
 22
6.117760
 13
3.728560
 23
6.868840
  0
POLYLINE
  8
0
  6
CONTINUOUS
 66
     1
 40
0.000000
 41
0.000000
  0
VERTEX
  8
0
  6
CONTINUOUS
 10
3.711840
 20
6.134480
  0
VERTEX
  8
0
  6
CONTINUOUS
 10
3.708320
 20
6.886000
  0
VERTEX
  8
0
  6
CONTINUOUS
 10
3.728560
 20
6.868840
  0
VERTEX
  8
0
  6
CONTINUOUS
 10
3.732080
 20
6.117760
  0
VERTEX
  8
0
  6
CONTINUOUS
 10
3.711840
 20
6.134480
  0
SEQEND
  8
0
  0
SOLID
  8
0
 62
    15
 10
3.732080
 20
6.117760
 11
3.728560
 21
6.868840
 12
3.749240
 22
6.097080
 13
3.745720
 23
6.848600
  0
POLYLINE
  8
0
  6
CONTINUOUS
 66
     1
 40
0.000000
 41
0.000000
  0
VERTEX
  8
0
  6
CONTINUOUS
 10
3.732080
 20
6.117760
  0
VERTEX
  8
0
  6
CONTINUOUS
 10
3.728560
 20
6.868840
  0
VERTEX
  8
0
  6
CONTINUOUS
 10
3.745720
 20
6.848600
  0
VERTEX
  8
0
  6
CONTINUOUS
 10
3.749240
 20
6.097080
  0
VERTEX
  8
0
  6
CONTINUOUS
 10
3.732080
 20
6.117760
  0
SEQEND
  8
0
  0
SOLID
  8
0
 62
    15
 10
3.749240
 20
6.097080
 11
3.745720
 21
6.848600
 12
3.762000
 22
6.073760
 13
3.758480
 23
6.824840
  0
POLYLINE
  8
0
  6
CONTINUOUS
 66
     1
 40
0.000000
 41
0.000000
  0
VERTEX
  8
0
  6
CONTINUOUS
 10
3.749240
 20
6.097080
  0
VERTEX
  8
0
  6
CONTINUOUS
 10
3.745720
 20
6.848600
  0
VERTEX
  8
0
  6
CONTINUOUS
 10
3.758480
 20
6.824840
  0
VERTEX
  8
0
  6
CONTINUOUS
 10
3.762000
 20
6.073760
  0
VERTEX
  8
0
  6
CONTINUOUS
 10
3.749240
 20
6.097080
  0
SEQEND
  8
0
  0
SOLID
  8
0
 62
    15
 10
3.762000
 20
6.073760
 11
3.758480
 21
6.824840
 12
3.769920
 22
6.047800
 13
3.766400
 23
6.798880
  0
POLYLINE
  8
0
  6
CONTINUOUS
 66
     1
 40
0.000000
 41
0.000000
  0
VERTEX
  8
0
  6
CONTINUOUS
 10
3.762000
 20
6.073760
  0
VERTEX
  8
0
  6
CONTINUOUS
 10
3.758480
 20
6.824840
  0
VERTEX
  8
0
  6
CONTINUOUS
 10
3.766400
 20
6.798880
  0
VERTEX
  8
0
  6
CONTINUOUS
 10
3.769920
 20
6.047800
  0
VERTEX
  8
0
  6
CONTINUOUS
 10
3.762000
 20
6.073760
  0
SEQEND
  8
0
  0
SOLID
  8
0
 62
    15
 10
3.769920
 20
6.047800
 11
3.766400
 21
6.798880
 12
3.773000
 22
6.019640
 13
3.769040
 23
6.771160
  0
POLYLINE
  8
0
  6
CONTINUOUS
 66
     1
 40
0.000000
 41
0.000000
  0
VERTEX
  8
0
  6
CONTINUOUS
 10
3.769920
 20
6.047800
  0
VERTEX
  8
0
  6
CONTINUOUS
 10
3.766400
 20
6.798880
  0
VERTEX
  8
0
  6
CONTINUOUS
 10
3.769040
 20
6.771160
  0
VERTEX
  8
0
  6
CONTINUOUS
 10
3.773000
 20
6.019640
  0
VERTEX
  8
0
  6
CONTINUOUS
 10
3.769920
 20
6.047800
  0
SEQEND
  8
0
  0
SOLID
  8
0
 62
    15
 10
3.791040
 20
6.771160
 11
3.791480
 21
6.771160
 12
3.791040
 22
6.771160
 13
3.795000
 23
6.019640
  0
POLYLINE
  8
0
  6
CONTINUOUS
 66
     1
 40
0.000000
 41
0.000000
  0
VERTEX
  8
0
  6
CONTINUOUS
 10
3.791040
 20
6.771160
  0
VERTEX
  8
0
  6
CONTINUOUS
 10
3.791480
 20
6.771160
  0
VERTEX
  8
0
  6
CONTINUOUS
 10
3.795000
 20
6.019640
  0
VERTEX
  8
0
  6
CONTINUOUS
 10
3.791040
 20
6.771160
  0
SEQEND
  8
0
  0
SOLID
  8
0
 62
    15
 10
3.795000
 20
6.019640
 11
3.791040
 21
6.771160
 12
3.797640
 22
6.047360
 13
3.794120
 23
6.798880
  0
POLYLINE
  8
0
  6
CONTINUOUS
 66
     1
 40
0.000000
 41
0.000000
  0
VERTEX
  8
0
  6
CONTINUOUS
 10
3.795000
 20
6.019640
  0
VERTEX
  8
0
  6
CONTINUOUS
 10
3.791040
 20
6.771160
  0
VERTEX
  8
0
  6
CONTINUOUS
 10
3.794120
 20
6.798880
  0
VERTEX
  8
0
  6
CONTINUOUS
 10
3.797640
 20
6.047360
  0
VERTEX
  8
0
  6
CONTINUOUS
 10
3.795000
 20
6.019640
  0
SEQEND
  8
0
  0
SOLID
  8
0
 62
    15
 10
3.773000
 20
6.019640
 11
3.769040
 21
6.771160
 12
3.795000
 22
6.019640
 13
3.791040
 23
6.771160
  0
POLYLINE
  8
0
  6
CONTINUOUS
 66
     1
 40
0.000000
 41
0.000000
  0
VERTEX
  8
0
  6
CONTINUOUS
 10
3.773000
 20
6.019640
  0
VERTEX
  8
0
  6
CONTINUOUS
 10
3.769040
 20
6.771160
  0
VERTEX
  8
0
  6
CONTINUOUS
 10
3.791040
 20
6.771160
  0
VERTEX
  8
0
  6
CONTINUOUS
 10
3.795000
 20
6.019640
  0
VERTEX
  8
0
  6
CONTINUOUS
 10
3.773000
 20
6.019640
  0
SEQEND
  8
0
  0
SOLID
  8
0
 62
    15
 10
3.797640
 20
6.047360
 11
3.794120
 21
6.798880
 12
3.805560
 22
6.073760
 13
3.802040
 23
6.824840
  0
POLYLINE
  8
0
  6
CONTINUOUS
 66
     1
 40
0.000000
 41
0.000000
  0
VERTEX
  8
0
  6
CONTINUOUS
 10
3.797640
 20
6.047360
  0
VERTEX
  8
0
  6
CONTINUOUS
 10
3.794120
 20
6.798880
  0
VERTEX
  8
0
  6
CONTINUOUS
 10
3.802040
 20
6.824840
  0
VERTEX
  8
0
  6
CONTINUOUS
 10
3.805560
 20
6.073760
  0
VERTEX
  8
0
  6
CONTINUOUS
 10
3.797640
 20
6.047360
  0
SEQEND
  8
0
  0
SOLID
  8
0
 62
    15
 10
3.805560
 20
6.073760
 11
3.802040
 21
6.824840
 12
3.818320
 22
6.097080
 13
3.814800
 23
6.848600
  0
POLYLINE
  8
0
  6
CONTINUOUS
 66
     1
 40
0.000000
 41
0.000000
  0
VERTEX
  8
0
  6
CONTINUOUS
 10
3.805560
 20
6.073760
  0
VERTEX
  8
0
  6
CONTINUOUS
 10
3.802040
 20
6.824840
  0
VERTEX
  8
0
  6
CONTINUOUS
 10
3.814800
 20
6.848600
  0
VERTEX
  8
0
  6
CONTINUOUS
 10
3.818320
 20
6.097080
  0
VERTEX
  8
0
  6
CONTINUOUS
 10
3.805560
 20
6.073760
  0
SEQEND
  8
0
  0
SOLID
  8
0
 62
    15
 10
3.818320
 20
6.097080
 11
3.814800
 21
6.848600
 12
3.835480
 22
6.117760
 13
3.831960
 23
6.868840
  0
POLYLINE
  8
0
  6
CONTINUOUS
 66
     1
 40
0.000000
 41
0.000000
  0
VERTEX
  8
0
  6
CONTINUOUS
 10
3.818320
 20
6.097080
  0
VERTEX
  8
0
  6
CONTINUOUS
 10
3.814800
 20
6.848600
  0
VERTEX
  8
0
  6
CONTINUOUS
 10
3.831960
 20
6.868840
  0
VERTEX
  8
0
  6
CONTINUOUS
 10
3.835480
 20
6.117760
  0
VERTEX
  8
0
  6
CONTINUOUS
 10
3.818320
 20
6.097080
  0
SEQEND
  8
0
  0
SOLID
  8
0
 62
    15
 10
3.835480
 20
6.117760
 11
3.831960
 21
6.868840
 12
3.855720
 22
6.134480
 13
3.852200
 23
6.886000
  0
POLYLINE
  8
0
  6
CONTINUOUS
 66
     1
 40
0.000000
 41
0.000000
  0
VERTEX
  8
0
  6
CONTINUOUS
 10
3.835480
 20
6.117760
  0
VERTEX
  8
0
  6
CONTINUOUS
 10
3.831960
 20
6.868840
  0
VERTEX
  8
0
  6
CONTINUOUS
 10
3.852200
 20
6.886000
  0
VERTEX
  8
0
  6
CONTINUOUS
 10
3.855720
 20
6.134480
  0
VERTEX
  8
0
  6
CONTINUOUS
 10
3.835480
 20
6.117760
  0
SEQEND
  8
0
  0
SOLID
  8
0
 62
    15
 10
3.855720
 20
6.134480
 11
3.852200
 21
6.886000
 12
3.879480
 22
6.147240
 13
3.875960
 23
6.898760
  0
POLYLINE
  8
0
  6
CONTINUOUS
 66
     1
 40
0.000000
 41
0.000000
  0
VERTEX
  8
0
  6
CONTINUOUS
 10
3.855720
 20
6.134480
  0
VERTEX
  8
0
  6
CONTINUOUS
 10
3.852200
 20
6.886000
  0
VERTEX
  8
0
  6
CONTINUOUS
 10
3.875960
 20
6.898760
  0
VERTEX
  8
0
  6
CONTINUOUS
 10
3.879480
 20
6.147240
  0
VERTEX
  8
0
  6
CONTINUOUS
 10
3.855720
 20
6.134480
  0
SEQEND
  8
0
  0
SOLID
  8
0
 62
    15
 10
3.879480
 20
6.147240
 11
3.875960
 21
6.898760
 12
3.905440
 22
6.155160
 13
3.901920
 23
6.906680
  0
POLYLINE
  8
0
  6
CONTINUOUS
 66
     1
 40
0.000000
 41
0.000000
  0
VERTEX
  8
0
  6
CONTINUOUS
 10
3.879480
 20
6.147240
  0
VERTEX
  8
0
  6
CONTINUOUS
 10
3.875960
 20
6.898760
  0
VERTEX
  8
0
  6
CONTINUOUS
 10
3.901920
 20
6.906680
  0
VERTEX
  8
0
  6
CONTINUOUS
 10
3.905440
 20
6.155160
  0
VERTEX
  8
0
  6
CONTINUOUS
 10
3.879480
 20
6.147240
  0
SEQEND
  8
0
  0
SOLID
  8
0
 62
    15
 10
3.905440
 20
6.155160
 11
3.901920
 21
6.906680
 12
3.933160
 22
6.158240
 13
3.929640
 23
6.909760
  0
POLYLINE
  8
0
  6
CONTINUOUS
 66
     1
 40
0.000000
 41
0.000000
  0
VERTEX
  8
0
  6
CONTINUOUS
 10
3.905440
 20
6.155160
  0
VERTEX
  8
0
  6
CONTINUOUS
 10
3.901920
 20
6.906680
  0
VERTEX
  8
0
  6
CONTINUOUS
 10
3.929640
 20
6.909760
  0
VERTEX
  8
0
  6
CONTINUOUS
 10
3.933160
 20
6.158240
  0
VERTEX
  8
0
  6
CONTINUOUS
 10
3.905440
 20
6.155160
  0
SEQEND
  8
0
  0
SOLID
  8
0
 62
    15
 10
3.933160
 20
6.158240
 11
3.929640
 21
6.909760
 12
3.961320
 22
6.155160
 13
3.957360
 23
6.906680
  0
POLYLINE
  8
0
  6
CONTINUOUS
 66
     1
 40
0.000000
 41
0.000000
  0
VERTEX
  8
0
  6
CONTINUOUS
 10
3.933160
 20
6.158240
  0
VERTEX
  8
0
  6
CONTINUOUS
 10
3.929640
 20
6.909760
  0
VERTEX
  8
0
  6
CONTINUOUS
 10
3.957360
 20
6.906680
  0
VERTEX
  8
0
  6
CONTINUOUS
 10
3.961320
 20
6.155160
  0
VERTEX
  8
0
  6
CONTINUOUS
 10
3.933160
 20
6.158240
  0
SEQEND
  8
0
  0
SOLID
  8
0
 62
    15
 10
3.961320
 20
6.155160
 11
3.957360
 21
6.906680
 12
3.987280
 22
6.147240
 13
3.983760
 23
6.898760
  0
POLYLINE
  8
0
  6
CONTINUOUS
 66
     1
 40
0.000000
 41
0.000000
  0
VERTEX
  8
0
  6
CONTINUOUS
 10
3.961320
 20
6.155160
  0
VERTEX
  8
0
  6
CONTINUOUS
 10
3.957360
 20
6.906680
  0
VERTEX
  8
0
  6
CONTINUOUS
 10
3.983760
 20
6.898760
  0
VERTEX
  8
0
  6
CONTINUOUS
 10
3.987280
 20
6.147240
  0
VERTEX
  8
0
  6
CONTINUOUS
 10
3.961320
 20
6.155160
  0
SEQEND
  8
0
  0
SOLID
  8
0
 62
    15
 10
3.987280
 20
6.147240
 11
3.983760
 21
6.898760
 12
4.010600
 22
6.134480
 13
4.007080
 23
6.886000
  0
POLYLINE
  8
0
  6
CONTINUOUS
 66
     1
 40
0.000000
 41
0.000000
  0
VERTEX
  8
0
  6
CONTINUOUS
 10
3.987280
 20
6.147240
  0
VERTEX
  8
0
  6
CONTINUOUS
 10
3.983760
 20
6.898760
  0
VERTEX
  8
0
  6
CONTINUOUS
 10
4.007080
 20
6.886000
  0
VERTEX
  8
0
  6
CONTINUOUS
 10
4.010600
 20
6.134480
  0
VERTEX
  8
0
  6
CONTINUOUS
 10
3.987280
 20
6.147240
  0
SEQEND
  8
0
  0
SOLID
  8
0
 62
    15
 10
4.010600
 20
6.134480
 11
4.007080
 21
6.886000
 12
4.031280
 22
6.117760
 13
4.027760
 23
6.868840
  0
POLYLINE
  8
0
  6
CONTINUOUS
 66
     1
 40
0.000000
 41
0.000000
  0
VERTEX
  8
0
  6
CONTINUOUS
 10
4.010600
 20
6.134480
  0
VERTEX
  8
0
  6
CONTINUOUS
 10
4.007080
 20
6.886000
  0
VERTEX
  8
0
  6
CONTINUOUS
 10
4.027760
 20
6.868840
  0
VERTEX
  8
0
  6
CONTINUOUS
 10
4.031280
 20
6.117760
  0
VERTEX
  8
0
  6
CONTINUOUS
 10
4.010600
 20
6.134480
  0
SEQEND
  8
0
  0
SOLID
  8
0
 62
    15
 10
4.031280
 20
6.117760
 11
4.027760
 21
6.868840
 12
4.048000
 22
6.097080
 13
4.044480
 23
6.848600
  0
POLYLINE
  8
0
  6
CONTINUOUS
 66
     1
 40
0.000000
 41
0.000000
  0
VERTEX
  8
0
  6
CONTINUOUS
 10
4.031280
 20
6.117760
  0
VERTEX
  8
0
  6
CONTINUOUS
 10
4.027760
 20
6.868840
  0
VERTEX
  8
0
  6
CONTINUOUS
 10
4.044480
 20
6.848600
  0
VERTEX
  8
0
  6
CONTINUOUS
 10
4.048000
 20
6.097080
  0
VERTEX
  8
0
  6
CONTINUOUS
 10
4.031280
 20
6.117760
  0
SEQEND
  8
0
  0
SOLID
  8
0
 62
    15
 10
4.048000
 20
6.097080
 11
4.044480
 21
6.848600
 12
4.060760
 22
6.073760
 13
4.057240
 23
6.824840
  0
POLYLINE
  8
0
  6
CONTINUOUS
 66
     1
 40
0.000000
 41
0.000000
  0
VERTEX
  8
0
  6
CONTINUOUS
 10
4.048000
 20
6.097080
  0
VERTEX
  8
0
  6
CONTINUOUS
 10
4.044480
 20
6.848600
  0
VERTEX
  8
0
  6
CONTINUOUS
 10
4.057240
 20
6.824840
  0
VERTEX
  8
0
  6
CONTINUOUS
 10
4.060760
 20
6.073760
  0
VERTEX
  8
0
  6
CONTINUOUS
 10
4.048000
 20
6.097080
  0
SEQEND
  8
0
  0
SOLID
  8
0
 62
    15
 10
4.060760
 20
6.073760
 11
4.057240
 21
6.824840
 12
4.068680
 22
6.047360
 13
4.065160
 23
6.798880
  0
POLYLINE
  8
0
  6
CONTINUOUS
 66
     1
 40
0.000000
 41
0.000000
  0
VERTEX
  8
0
  6
CONTINUOUS
 10
4.060760
 20
6.073760
  0
VERTEX
  8
0
  6
CONTINUOUS
 10
4.057240
 20
6.824840
  0
VERTEX
  8
0
  6
CONTINUOUS
 10
4.065160
 20
6.798880
  0
VERTEX
  8
0
  6
CONTINUOUS
 10
4.068680
 20
6.047360
  0
VERTEX
  8
0
  6
CONTINUOUS
 10
4.060760
 20
6.073760
  0
SEQEND
  8
0
  0
SOLID
  8
0
 62
    15
 10
4.068680
 20
6.047360
 11
4.065160
 21
6.798880
 12
4.071760
 22
6.019640
 13
4.068240
 23
6.771160
  0
POLYLINE
  8
0
  6
CONTINUOUS
 66
     1
 40
0.000000
 41
0.000000
  0
VERTEX
  8
0
  6
CONTINUOUS
 10
4.068680
 20
6.047360
  0
VERTEX
  8
0
  6
CONTINUOUS
 10
4.065160
 20
6.798880
  0
VERTEX
  8
0
  6
CONTINUOUS
 10
4.068240
 20
6.771160
  0
VERTEX
  8
0
  6
CONTINUOUS
 10
4.071760
 20
6.019640
  0
VERTEX
  8
0
  6
CONTINUOUS
 10
4.068680
 20
6.047360
  0
SEQEND
  8
0
  0
SOLID
  8
0
 62
    15
 10
4.071760
 20
6.019640
 11
4.068240
 21
6.771160
 12
4.093760
 22
6.019640
 13
4.090240
 23
6.771160
  0
POLYLINE
  8
0
  6
CONTINUOUS
 66
     1
 40
0.000000
 41
0.000000
  0
VERTEX
  8
0
  6
CONTINUOUS
 10
4.071760
 20
6.019640
  0
VERTEX
  8
0
  6
CONTINUOUS
 10
4.068240
 20
6.771160
  0
VERTEX
  8
0
  6
CONTINUOUS
 10
4.090240
 20
6.771160
  0
VERTEX
  8
0
  6
CONTINUOUS
 10
4.093760
 20
6.019640
  0
VERTEX
  8
0
  6
CONTINUOUS
 10
4.071760
 20
6.019640
  0
SEQEND
  8
0
  0
SOLID
  8
0
 62
    15
 10
4.093760
 20
6.019640
 11
4.089800
 21
6.771160
 12
4.096400
 22
6.047800
 13
4.092880
 23
6.798880
  0
POLYLINE
  8
0
  6
CONTINUOUS
 66
     1
 40
0.000000
 41
0.000000
  0
VERTEX
  8
0
  6
CONTINUOUS
 10
4.093760
 20
6.019640
  0
VERTEX
  8
0
  6
CONTINUOUS
 10
4.089800
 20
6.771160
  0
VERTEX
  8
0
  6
CONTINUOUS
 10
4.092880
 20
6.798880
  0
VERTEX
  8
0
  6
CONTINUOUS
 10
4.096400
 20
6.047800
  0
VERTEX
  8
0
  6
CONTINUOUS
 10
4.093760
 20
6.019640
  0
SEQEND
  8
0
  0
SOLID
  8
0
 62
    15
 10
4.096400
 20
6.047800
 11
4.092880
 21
6.798880
 12
4.104320
 22
6.073760
 13
4.100800
 23
6.825280
  0
POLYLINE
  8
0
  6
CONTINUOUS
 66
     1
 40
0.000000
 41
0.000000
  0
VERTEX
  8
0
  6
CONTINUOUS
 10
4.096400
 20
6.047800
  0
VERTEX
  8
0
  6
CONTINUOUS
 10
4.092880
 20
6.798880
  0
VERTEX
  8
0
  6
CONTINUOUS
 10
4.100800
 20
6.825280
  0
VERTEX
  8
0
  6
CONTINUOUS
 10
4.104320
 20
6.073760
  0
VERTEX
  8
0
  6
CONTINUOUS
 10
4.096400
 20
6.047800
  0
SEQEND
  8
0
  0
SOLID
  8
0
 62
    15
 10
4.104320
 20
6.073760
 11
4.100800
 21
6.825280
 12
4.117080
 22
6.097080
 13
4.113560
 23
6.848600
  0
POLYLINE
  8
0
  6
CONTINUOUS
 66
     1
 40
0.000000
 41
0.000000
  0
VERTEX
  8
0
  6
CONTINUOUS
 10
4.104320
 20
6.073760
  0
VERTEX
  8
0
  6
CONTINUOUS
 10
4.100800
 20
6.825280
  0
VERTEX
  8
0
  6
CONTINUOUS
 10
4.113560
 20
6.848600
  0
VERTEX
  8
0
  6
CONTINUOUS
 10
4.117080
 20
6.097080
  0
VERTEX
  8
0
  6
CONTINUOUS
 10
4.104320
 20
6.073760
  0
SEQEND
  8
0
  0
SOLID
  8
0
 62
    15
 10
4.117080
 20
6.097080
 11
4.113560
 21
6.848600
 12
4.134240
 22
6.117760
 13
4.130720
 23
6.869280
  0
POLYLINE
  8
0
  6
CONTINUOUS
 66
     1
 40
0.000000
 41
0.000000
  0
VERTEX
  8
0
  6
CONTINUOUS
 10
4.117080
 20
6.097080
  0
VERTEX
  8
0
  6
CONTINUOUS
 10
4.113560
 20
6.848600
  0
VERTEX
  8
0
  6
CONTINUOUS
 10
4.130720
 20
6.869280
  0
VERTEX
  8
0
  6
CONTINUOUS
 10
4.134240
 20
6.117760
  0
VERTEX
  8
0
  6
CONTINUOUS
 10
4.117080
 20
6.097080
  0
SEQEND
  8
0
  0
SOLID
  8
0
 62
    15
 10
4.134240
 20
6.117760
 11
4.130720
 21
6.869280
 12
4.154480
 22
6.134480
 13
4.150960
 23
6.886000
  0
POLYLINE
  8
0
  6
CONTINUOUS
 66
     1
 40
0.000000
 41
0.000000
  0
VERTEX
  8
0
  6
CONTINUOUS
 10
4.134240
 20
6.117760
  0
VERTEX
  8
0
  6
CONTINUOUS
 10
4.130720
 20
6.869280
  0
VERTEX
  8
0
  6
CONTINUOUS
 10
4.150960
 20
6.886000
  0
VERTEX
  8
0
  6
CONTINUOUS
 10
4.154480
 20
6.134480
  0
VERTEX
  8
0
  6
CONTINUOUS
 10
4.134240
 20
6.117760
  0
SEQEND
  8
0
  0
SOLID
  8
0
 62
    15
 10
4.154480
 20
6.134480
 11
4.150960
 21
6.886000
 12
4.178240
 22
6.147240
 13
4.174720
 23
6.898760
  0
POLYLINE
  8
0
  6
CONTINUOUS
 66
     1
 40
0.000000
 41
0.000000
  0
VERTEX
  8
0
  6
CONTINUOUS
 10
4.154480
 20
6.134480
  0
VERTEX
  8
0
  6
CONTINUOUS
 10
4.150960
 20
6.886000
  0
VERTEX
  8
0
  6
CONTINUOUS
 10
4.174720
 20
6.898760
  0
VERTEX
  8
0
  6
CONTINUOUS
 10
4.178240
 20
6.147240
  0
VERTEX
  8
0
  6
CONTINUOUS
 10
4.154480
 20
6.134480
  0
SEQEND
  8
0
  0
SOLID
  8
0
 62
    15
 10
4.178240
 20
6.147240
 11
4.174720
 21
6.898760
 12
4.204200
 22
6.155600
 13
4.200680
 23
6.906680
  0
POLYLINE
  8
0
  6
CONTINUOUS
 66
     1
 40
0.000000
 41
0.000000
  0
VERTEX
  8
0
  6
CONTINUOUS
 10
4.178240
 20
6.147240
  0
VERTEX
  8
0
  6
CONTINUOUS
 10
4.174720
 20
6.898760
  0
VERTEX
  8
0
  6
CONTINUOUS
 10
4.200680
 20
6.906680
  0
VERTEX
  8
0
  6
CONTINUOUS
 10
4.204200
 20
6.155600
  0
VERTEX
  8
0
  6
CONTINUOUS
 10
4.178240
 20
6.147240
  0
SEQEND
  8
0
  0
SOLID
  8
0
 62
    15
 10
2.607440
 20
5.551040
 11
2.603480
 21
6.302560
 12
2.607440
 22
6.050880
 13
2.603480
 23
6.802400
  0
POLYLINE
  8
0
  6
CONTINUOUS
 66
     1
 40
0.000000
 41
0.000000
  0
VERTEX
  8
0
  6
CONTINUOUS
 10
2.607440
 20
5.551040
  0
VERTEX
  8
0
  6
CONTINUOUS
 10
2.603480
 20
6.302560
  0
VERTEX
  8
0
  6
CONTINUOUS
 10
2.603480
 20
6.802400
  0
VERTEX
  8
0
  6
CONTINUOUS
 10
2.607440
 20
6.050880
  0
VERTEX
  8
0
  6
CONTINUOUS
 10
2.607440
 20
5.551040
  0
SEQEND
  8
0
  0
SOLID
  8
0
 62
    15
 10
4.231920
 20
6.158240
 11
4.228400
 21
6.909760
 12
4.260080
 22
6.155600
 13
4.256560
 23
6.906680
  0
POLYLINE
  8
0
  6
CONTINUOUS
 66
     1
 40
0.000000
 41
0.000000
  0
VERTEX
  8
0
  6
CONTINUOUS
 10
4.231920
 20
6.158240
  0
VERTEX
  8
0
  6
CONTINUOUS
 10
4.228400
 20
6.909760
  0
VERTEX
  8
0
  6
CONTINUOUS
 10
4.256560
 20
6.906680
  0
VERTEX
  8
0
  6
CONTINUOUS
 10
4.260080
 20
6.155600
  0
VERTEX
  8
0
  6
CONTINUOUS
 10
4.231920
 20
6.158240
  0
SEQEND
  8
0
  0
SOLID
  8
0
 62
    15
 10
4.260080
 20
6.155600
 11
4.256560
 21
6.906680
 12
4.286040
 22
6.147240
 13
4.282520
 23
6.898760
  0
POLYLINE
  8
0
  6
CONTINUOUS
 66
     1
 40
0.000000
 41
0.000000
  0
VERTEX
  8
0
  6
CONTINUOUS
 10
4.260080
 20
6.155600
  0
VERTEX
  8
0
  6
CONTINUOUS
 10
4.256560
 20
6.906680
  0
VERTEX
  8
0
  6
CONTINUOUS
 10
4.282520
 20
6.898760
  0
VERTEX
  8
0
  6
CONTINUOUS
 10
4.286040
 20
6.147240
  0
VERTEX
  8
0
  6
CONTINUOUS
 10
4.260080
 20
6.155600
  0
SEQEND
  8
0
  0
SOLID
  8
0
 62
    15
 10
4.286040
 20
6.147240
 11
4.282520
 21
6.898760
 12
4.309360
 22
6.134480
 13
4.305840
 23
6.886000
  0
POLYLINE
  8
0
  6
CONTINUOUS
 66
     1
 40
0.000000
 41
0.000000
  0
VERTEX
  8
0
  6
CONTINUOUS
 10
4.286040
 20
6.147240
  0
VERTEX
  8
0
  6
CONTINUOUS
 10
4.282520
 20
6.898760
  0
VERTEX
  8
0
  6
CONTINUOUS
 10
4.305840
 20
6.886000
  0
VERTEX
  8
0
  6
CONTINUOUS
 10
4.309360
 20
6.134480
  0
VERTEX
  8
0
  6
CONTINUOUS
 10
4.286040
 20
6.147240
  0
SEQEND
  8
0
  0
SOLID
  8
0
 62
    15
 10
4.309360
 20
6.134480
 11
4.305840
 21
6.886000
 12
4.330040
 22
6.117760
 13
4.326520
 23
6.869280
  0
POLYLINE
  8
0
  6
CONTINUOUS
 66
     1
 40
0.000000
 41
0.000000
  0
VERTEX
  8
0
  6
CONTINUOUS
 10
4.309360
 20
6.134480
  0
VERTEX
  8
0
  6
CONTINUOUS
 10
4.305840
 20
6.886000
  0
VERTEX
  8
0
  6
CONTINUOUS
 10
4.326520
 20
6.869280
  0
VERTEX
  8
0
  6
CONTINUOUS
 10
4.330040
 20
6.117760
  0
VERTEX
  8
0
  6
CONTINUOUS
 10
4.309360
 20
6.134480
  0
SEQEND
  8
0
  0
SOLID
  8
0
 62
    15
 10
4.330040
 20
6.117760
 11
4.326520
 21
6.869280
 12
4.346760
 22
6.097080
 13
4.343240
 23
6.848600
  0
POLYLINE
  8
0
  6
CONTINUOUS
 66
     1
 40
0.000000
 41
0.000000
  0
VERTEX
  8
0
  6
CONTINUOUS
 10
4.330040
 20
6.117760
  0
VERTEX
  8
0
  6
CONTINUOUS
 10
4.326520
 20
6.869280
  0
VERTEX
  8
0
  6
CONTINUOUS
 10
4.343240
 20
6.848600
  0
VERTEX
  8
0
  6
CONTINUOUS
 10
4.346760
 20
6.097080
  0
VERTEX
  8
0
  6
CONTINUOUS
 10
4.330040
 20
6.117760
  0
SEQEND
  8
0
  0
SOLID
  8
0
 62
    15
 10
4.346760
 20
6.097080
 11
4.343240
 21
6.848600
 12
4.359520
 22
6.073760
 13
4.356000
 23
6.825280
  0
POLYLINE
  8
0
  6
CONTINUOUS
 66
     1
 40
0.000000
 41
0.000000
  0
VERTEX
  8
0
  6
CONTINUOUS
 10
4.346760
 20
6.097080
  0
VERTEX
  8
0
  6
CONTINUOUS
 10
4.343240
 20
6.848600
  0
VERTEX
  8
0
  6
CONTINUOUS
 10
4.356000
 20
6.825280
  0
VERTEX
  8
0
  6
CONTINUOUS
 10
4.359520
 20
6.073760
  0
VERTEX
  8
0
  6
CONTINUOUS
 10
4.346760
 20
6.097080
  0
SEQEND
  8
0
  0
SOLID
  8
0
 62
    15
 10
4.359520
 20
6.073760
 11
4.356000
 21
6.825280
 12
4.367880
 22
6.047800
 13
4.363920
 23
6.798880
  0
POLYLINE
  8
0
  6
CONTINUOUS
 66
     1
 40
0.000000
 41
0.000000
  0
VERTEX
  8
0
  6
CONTINUOUS
 10
4.359520
 20
6.073760
  0
VERTEX
  8
0
  6
CONTINUOUS
 10
4.356000
 20
6.825280
  0
VERTEX
  8
0
  6
CONTINUOUS
 10
4.363920
 20
6.798880
  0
VERTEX
  8
0
  6
CONTINUOUS
 10
4.367880
 20
6.047800
  0
VERTEX
  8
0
  6
CONTINUOUS
 10
4.359520
 20
6.073760
  0
SEQEND
  8
0
  0
SOLID
  8
0
 62
    15
 10
4.367880
 20
6.047800
 11
4.363920
 21
6.798880
 12
4.370520
 22
6.019640
 13
4.367000
 23
6.771160
  0
POLYLINE
  8
0
  6
CONTINUOUS
 66
     1
 40
0.000000
 41
0.000000
  0
VERTEX
  8
0
  6
CONTINUOUS
 10
4.367880
 20
6.047800
  0
VERTEX
  8
0
  6
CONTINUOUS
 10
4.363920
 20
6.798880
  0
VERTEX
  8
0
  6
CONTINUOUS
 10
4.367000
 20
6.771160
  0
VERTEX
  8
0
  6
CONTINUOUS
 10
4.370520
 20
6.019640
  0
VERTEX
  8
0
  6
CONTINUOUS
 10
4.367880
 20
6.047800
  0
SEQEND
  8
0
  0
SOLID
  8
0
 62
    15
 10
4.370520
 20
6.019640
 11
4.367000
 21
6.771160
 12
4.392520
 22
6.019640
 13
4.389000
 23
6.771160
  0
POLYLINE
  8
0
  6
CONTINUOUS
 66
     1
 40
0.000000
 41
0.000000
  0
VERTEX
  8
0
  6
CONTINUOUS
 10
4.370520
 20
6.019640
  0
VERTEX
  8
0
  6
CONTINUOUS
 10
4.367000
 20
6.771160
  0
VERTEX
  8
0
  6
CONTINUOUS
 10
4.389000
 20
6.771160
  0
VERTEX
  8
0
  6
CONTINUOUS
 10
4.392520
 20
6.019640
  0
VERTEX
  8
0
  6
CONTINUOUS
 10
4.370520
 20
6.019640
  0
SEQEND
  8
0
  0
SOLID
  8
0
 62
    15
 10
4.392520
 20
6.019640
 11
4.389000
 21
6.771160
 12
4.395160
 22
6.047800
 13
4.391640
 23
6.799320
  0
POLYLINE
  8
0
  6
CONTINUOUS
 66
     1
 40
0.000000
 41
0.000000
  0
VERTEX
  8
0
  6
CONTINUOUS
 10
4.392520
 20
6.019640
  0
VERTEX
  8
0
  6
CONTINUOUS
 10
4.389000
 20
6.771160
  0
VERTEX
  8
0
  6
CONTINUOUS
 10
4.391640
 20
6.799320
  0
VERTEX
  8
0
  6
CONTINUOUS
 10
4.395160
 20
6.047800
  0
VERTEX
  8
0
  6
CONTINUOUS
 10
4.392520
 20
6.019640
  0
SEQEND
  8
0
  0
SOLID
  8
0
 62
    15
 10
4.395160
 20
6.047800
 11
4.391640
 21
6.799320
 12
4.403520
 22
6.073760
 13
4.399560
 23
6.825280
  0
POLYLINE
  8
0
  6
CONTINUOUS
 66
     1
 40
0.000000
 41
0.000000
  0
VERTEX
  8
0
  6
CONTINUOUS
 10
4.395160
 20
6.047800
  0
VERTEX
  8
0
  6
CONTINUOUS
 10
4.391640
 20
6.799320
  0
VERTEX
  8
0
  6
CONTINUOUS
 10
4.399560
 20
6.825280
  0
VERTEX
  8
0
  6
CONTINUOUS
 10
4.403520
 20
6.073760
  0
VERTEX
  8
0
  6
CONTINUOUS
 10
4.395160
 20
6.047800
  0
SEQEND
  8
0
  0
SOLID
  8
0
 62
    15
 10
4.403520
 20
6.073760
 11
4.399560
 21
6.825280
 12
4.416280
 22
6.097080
 13
4.412320
 23
6.848600
  0
POLYLINE
  8
0
  6
CONTINUOUS
 66
     1
 40
0.000000
 41
0.000000
  0
VERTEX
  8
0
  6
CONTINUOUS
 10
4.403520
 20
6.073760
  0
VERTEX
  8
0
  6
CONTINUOUS
 10
4.399560
 20
6.825280
  0
VERTEX
  8
0
  6
CONTINUOUS
 10
4.412320
 20
6.848600
  0
VERTEX
  8
0
  6
CONTINUOUS
 10
4.416280
 20
6.097080
  0
VERTEX
  8
0
  6
CONTINUOUS
 10
4.403520
 20
6.073760
  0
SEQEND
  8
0
  0
SOLID
  8
0
 62
    15
 10
4.416280
 20
6.097080
 11
4.412320
 21
6.848600
 12
4.433000
 22
6.117760
 13
4.429480
 23
6.869280
  0
POLYLINE
  8
0
  6
CONTINUOUS
 66
     1
 40
0.000000
 41
0.000000
  0
VERTEX
  8
0
  6
CONTINUOUS
 10
4.416280
 20
6.097080
  0
VERTEX
  8
0
  6
CONTINUOUS
 10
4.412320
 20
6.848600
  0
VERTEX
  8
0
  6
CONTINUOUS
 10
4.429480
 20
6.869280
  0
VERTEX
  8
0
  6
CONTINUOUS
 10
4.433000
 20
6.117760
  0
VERTEX
  8
0
  6
CONTINUOUS
 10
4.416280
 20
6.097080
  0
SEQEND
  8
0
  0
SOLID
  8
0
 62
    15
 10
4.433000
 20
6.117760
 11
4.429480
 21
6.869280
 12
4.453680
 22
6.134480
 13
4.449720
 23
6.886000
  0
POLYLINE
  8
0
  6
CONTINUOUS
 66
     1
 40
0.000000
 41
0.000000
  0
VERTEX
  8
0
  6
CONTINUOUS
 10
4.433000
 20
6.117760
  0
VERTEX
  8
0
  6
CONTINUOUS
 10
4.429480
 20
6.869280
  0
VERTEX
  8
0
  6
CONTINUOUS
 10
4.449720
 20
6.886000
  0
VERTEX
  8
0
  6
CONTINUOUS
 10
4.453680
 20
6.134480
  0
VERTEX
  8
0
  6
CONTINUOUS
 10
4.433000
 20
6.117760
  0
SEQEND
  8
0
  0
SOLID
  8
0
 62
    15
 10
4.453680
 20
6.134480
 11
4.449720
 21
6.886000
 12
4.477000
 22
6.147240
 13
4.473480
 23
6.898760
  0
POLYLINE
  8
0
  6
CONTINUOUS
 66
     1
 40
0.000000
 41
0.000000
  0
VERTEX
  8
0
  6
CONTINUOUS
 10
4.453680
 20
6.134480
  0
VERTEX
  8
0
  6
CONTINUOUS
 10
4.449720
 20
6.886000
  0
VERTEX
  8
0
  6
CONTINUOUS
 10
4.473480
 20
6.898760
  0
VERTEX
  8
0
  6
CONTINUOUS
 10
4.477000
 20
6.147240
  0
VERTEX
  8
0
  6
CONTINUOUS
 10
4.453680
 20
6.134480
  0
SEQEND
  8
0
  0
SOLID
  8
0
 62
    15
 10
4.477000
 20
6.147240
 11
4.473480
 21
6.898760
 12
4.502960
 22
6.155600
 13
4.499440
 23
6.906680
  0
POLYLINE
  8
0
  6
CONTINUOUS
 66
     1
 40
0.000000
 41
0.000000
  0
VERTEX
  8
0
  6
CONTINUOUS
 10
4.477000
 20
6.147240
  0
VERTEX
  8
0
  6
CONTINUOUS
 10
4.473480
 20
6.898760
  0
VERTEX
  8
0
  6
CONTINUOUS
 10
4.499440
 20
6.906680
  0
VERTEX
  8
0
  6
CONTINUOUS
 10
4.502960
 20
6.155600
  0
VERTEX
  8
0
  6
CONTINUOUS
 10
4.477000
 20
6.147240
  0
SEQEND
  8
0
  0
SOLID
  8
0
 62
    15
 10
4.502960
 20
6.155600
 11
4.499440
 21
6.906680
 12
4.530680
 22
6.158240
 13
4.527160
 23
6.909760
  0
POLYLINE
  8
0
  6
CONTINUOUS
 66
     1
 40
0.000000
 41
0.000000
  0
VERTEX
  8
0
  6
CONTINUOUS
 10
4.502960
 20
6.155600
  0
VERTEX
  8
0
  6
CONTINUOUS
 10
4.499440
 20
6.906680
  0
VERTEX
  8
0
  6
CONTINUOUS
 10
4.527160
 20
6.909760
  0
VERTEX
  8
0
  6
CONTINUOUS
 10
4.530680
 20
6.158240
  0
VERTEX
  8
0
  6
CONTINUOUS
 10
4.502960
 20
6.155600
  0
SEQEND
  8
0
  0
SOLID
  8
0
 62
    15
 10
4.530680
 20
6.158240
 11
4.527160
 21
6.909760
 12
4.558840
 22
6.155600
 13
4.555320
 23
6.906680
  0
POLYLINE
  8
0
  6
CONTINUOUS
 66
     1
 40
0.000000
 41
0.000000
  0
VERTEX
  8
0
  6
CONTINUOUS
 10
4.530680
 20
6.158240
  0
VERTEX
  8
0
  6
CONTINUOUS
 10
4.527160
 20
6.909760
  0
VERTEX
  8
0
  6
CONTINUOUS
 10
4.555320
 20
6.906680
  0
VERTEX
  8
0
  6
CONTINUOUS
 10
4.558840
 20
6.155600
  0
VERTEX
  8
0
  6
CONTINUOUS
 10
4.530680
 20
6.158240
  0
SEQEND
  8
0
  0
SOLID
  8
0
 62
    15
 10
4.558840
 20
6.155600
 11
4.555320
 21
6.906680
 12
4.584800
 22
6.147240
 13
4.581280
 23
6.898760
  0
POLYLINE
  8
0
  6
CONTINUOUS
 66
     1
 40
0.000000
 41
0.000000
  0
VERTEX
  8
0
  6
CONTINUOUS
 10
4.558840
 20
6.155600
  0
VERTEX
  8
0
  6
CONTINUOUS
 10
4.555320
 20
6.906680
  0
VERTEX
  8
0
  6
CONTINUOUS
 10
4.581280
 20
6.898760
  0
VERTEX
  8
0
  6
CONTINUOUS
 10
4.584800
 20
6.147240
  0
VERTEX
  8
0
  6
CONTINUOUS
 10
4.558840
 20
6.155600
  0
SEQEND
  8
0
  0
SOLID
  8
0
 62
    15
 10
4.584800
 20
6.147240
 11
4.581280
 21
6.898760
 12
4.608120
 22
6.134480
 13
4.604600
 23
6.886000
  0
POLYLINE
  8
0
  6
CONTINUOUS
 66
     1
 40
0.000000
 41
0.000000
  0
VERTEX
  8
0
  6
CONTINUOUS
 10
4.584800
 20
6.147240
  0
VERTEX
  8
0
  6
CONTINUOUS
 10
4.581280
 20
6.898760
  0
VERTEX
  8
0
  6
CONTINUOUS
 10
4.604600
 20
6.886000
  0
VERTEX
  8
0
  6
CONTINUOUS
 10
4.608120
 20
6.134480
  0
VERTEX
  8
0
  6
CONTINUOUS
 10
4.584800
 20
6.147240
  0
SEQEND
  8
0
  0
SOLID
  8
0
 62
    15
 10
4.608120
 20
6.134480
 11
4.604600
 21
6.886000
 12
4.628800
 22
6.117760
 13
4.625280
 23
6.869280
  0
POLYLINE
  8
0
  6
CONTINUOUS
 66
     1
 40
0.000000
 41
0.000000
  0
VERTEX
  8
0
  6
CONTINUOUS
 10
4.608120
 20
6.134480
  0
VERTEX
  8
0
  6
CONTINUOUS
 10
4.604600
 20
6.886000
  0
VERTEX
  8
0
  6
CONTINUOUS
 10
4.625280
 20
6.869280
  0
VERTEX
  8
0
  6
CONTINUOUS
 10
4.628800
 20
6.117760
  0
VERTEX
  8
0
  6
CONTINUOUS
 10
4.608120
 20
6.134480
  0
SEQEND
  8
0
  0
SOLID
  8
0
 62
    15
 10
4.628800
 20
6.117760
 11
4.625280
 21
6.869280
 12
4.645520
 22
6.097080
 13
4.642000
 23
6.848600
  0
POLYLINE
  8
0
  6
CONTINUOUS
 66
     1
 40
0.000000
 41
0.000000
  0
VERTEX
  8
0
  6
CONTINUOUS
 10
4.628800
 20
6.117760
  0
VERTEX
  8
0
  6
CONTINUOUS
 10
4.625280
 20
6.869280
  0
VERTEX
  8
0
  6
CONTINUOUS
 10
4.642000
 20
6.848600
  0
VERTEX
  8
0
  6
CONTINUOUS
 10
4.645520
 20
6.097080
  0
VERTEX
  8
0
  6
CONTINUOUS
 10
4.628800
 20
6.117760
  0
SEQEND
  8
0
  0
SOLID
  8
0
 62
    15
 10
4.645520
 20
6.097080
 11
4.642000
 21
6.848600
 12
4.658280
 22
6.073760
 13
4.654760
 23
6.825280
  0
POLYLINE
  8
0
  6
CONTINUOUS
 66
     1
 40
0.000000
 41
0.000000
  0
VERTEX
  8
0
  6
CONTINUOUS
 10
4.645520
 20
6.097080
  0
VERTEX
  8
0
  6
CONTINUOUS
 10
4.642000
 20
6.848600
  0
VERTEX
  8
0
  6
CONTINUOUS
 10
4.654760
 20
6.825280
  0
VERTEX
  8
0
  6
CONTINUOUS
 10
4.658280
 20
6.073760
  0
VERTEX
  8
0
  6
CONTINUOUS
 10
4.645520
 20
6.097080
  0
SEQEND
  8
0
  0
SOLID
  8
0
 62
    15
 10
4.658280
 20
6.073760
 11
4.654760
 21
6.825280
 12
4.666640
 22
6.047800
 13
4.663120
 23
6.799320
  0
POLYLINE
  8
0
  6
CONTINUOUS
 66
     1
 40
0.000000
 41
0.000000
  0
VERTEX
  8
0
  6
CONTINUOUS
 10
4.658280
 20
6.073760
  0
VERTEX
  8
0
  6
CONTINUOUS
 10
4.654760
 20
6.825280
  0
VERTEX
  8
0
  6
CONTINUOUS
 10
4.663120
 20
6.799320
  0
VERTEX
  8
0
  6
CONTINUOUS
 10
4.666640
 20
6.047800
  0
VERTEX
  8
0
  6
CONTINUOUS
 10
4.658280
 20
6.073760
  0
SEQEND
  8
0
  0
SOLID
  8
0
 62
    15
 10
4.666640
 20
6.047800
 11
4.663120
 21
6.799320
 12
4.669280
 22
6.019640
 13
4.665760
 23
6.771160
  0
POLYLINE
  8
0
  6
CONTINUOUS
 66
     1
 40
0.000000
 41
0.000000
  0
VERTEX
  8
0
  6
CONTINUOUS
 10
4.666640
 20
6.047800
  0
VERTEX
  8
0
  6
CONTINUOUS
 10
4.663120
 20
6.799320
  0
VERTEX
  8
0
  6
CONTINUOUS
 10
4.665760
 20
6.771160
  0
VERTEX
  8
0
  6
CONTINUOUS
 10
4.669280
 20
6.019640
  0
VERTEX
  8
0
  6
CONTINUOUS
 10
4.666640
 20
6.047800
  0
SEQEND
  8
0
  0
SOLID
  8
0
 62
    15
 10
4.669280
 20
6.019640
 11
4.665760
 21
6.771160
 12
4.691280
 22
6.019640
 13
4.687760
 23
6.771160
  0
POLYLINE
  8
0
  6
CONTINUOUS
 66
     1
 40
0.000000
 41
0.000000
  0
VERTEX
  8
0
  6
CONTINUOUS
 10
4.669280
 20
6.019640
  0
VERTEX
  8
0
  6
CONTINUOUS
 10
4.665760
 20
6.771160
  0
VERTEX
  8
0
  6
CONTINUOUS
 10
4.687760
 20
6.771160
  0
VERTEX
  8
0
  6
CONTINUOUS
 10
4.691280
 20
6.019640
  0
VERTEX
  8
0
  6
CONTINUOUS
 10
4.669280
 20
6.019640
  0
SEQEND
  8
0
  0
SOLID
  8
0
 62
    15
 10
4.691280
 20
6.019640
 11
4.687760
 21
6.771160
 12
4.694360
 22
6.047800
 13
4.690840
 23
6.799320
  0
POLYLINE
  8
0
  6
CONTINUOUS
 66
     1
 40
0.000000
 41
0.000000
  0
VERTEX
  8
0
  6
CONTINUOUS
 10
4.691280
 20
6.019640
  0
VERTEX
  8
0
  6
CONTINUOUS
 10
4.687760
 20
6.771160
  0
VERTEX
  8
0
  6
CONTINUOUS
 10
4.690840
 20
6.799320
  0
VERTEX
  8
0
  6
CONTINUOUS
 10
4.694360
 20
6.047800
  0
VERTEX
  8
0
  6
CONTINUOUS
 10
4.691280
 20
6.019640
  0
SEQEND
  8
0
  0
SOLID
  8
0
 62
    15
 10
4.694360
 20
6.047800
 11
4.690840
 21
6.799320
 12
4.702280
 22
6.073760
 13
4.698760
 23
6.825280
  0
POLYLINE
  8
0
  6
CONTINUOUS
 66
     1
 40
0.000000
 41
0.000000
  0
VERTEX
  8
0
  6
CONTINUOUS
 10
4.694360
 20
6.047800
  0
VERTEX
  8
0
  6
CONTINUOUS
 10
4.690840
 20
6.799320
  0
VERTEX
  8
0
  6
CONTINUOUS
 10
4.698760
 20
6.825280
  0
VERTEX
  8
0
  6
CONTINUOUS
 10
4.702280
 20
6.073760
  0
VERTEX
  8
0
  6
CONTINUOUS
 10
4.694360
 20
6.047800
  0
SEQEND
  8
0
  0
SOLID
  8
0
 62
    15
 10
4.702280
 20
6.073760
 11
4.698760
 21
6.825280
 12
4.715040
 22
6.097080
 13
4.711520
 23
6.848600
  0
POLYLINE
  8
0
  6
CONTINUOUS
 66
     1
 40
0.000000
 41
0.000000
  0
VERTEX
  8
0
  6
CONTINUOUS
 10
4.702280
 20
6.073760
  0
VERTEX
  8
0
  6
CONTINUOUS
 10
4.698760
 20
6.825280
  0
VERTEX
  8
0
  6
CONTINUOUS
 10
4.711520
 20
6.848600
  0
VERTEX
  8
0
  6
CONTINUOUS
 10
4.715040
 20
6.097080
  0
VERTEX
  8
0
  6
CONTINUOUS
 10
4.702280
 20
6.073760
  0
SEQEND
  8
0
  0
SOLID
  8
0
 62
    15
 10
4.715040
 20
6.097080
 11
4.711520
 21
6.848600
 12
4.732200
 22
6.117760
 13
4.728240
 23
6.869280
  0
POLYLINE
  8
0
  6
CONTINUOUS
 66
     1
 40
0.000000
 41
0.000000
  0
VERTEX
  8
0
  6
CONTINUOUS
 10
4.715040
 20
6.097080
  0
VERTEX
  8
0
  6
CONTINUOUS
 10
4.711520
 20
6.848600
  0
VERTEX
  8
0
  6
CONTINUOUS
 10
4.728240
 20
6.869280
  0
VERTEX
  8
0
  6
CONTINUOUS
 10
4.732200
 20
6.117760
  0
VERTEX
  8
0
  6
CONTINUOUS
 10
4.715040
 20
6.097080
  0
SEQEND
  8
0
  0
SOLID
  8
0
 62
    15
 10
4.732200
 20
6.117760
 11
4.728240
 21
6.869280
 12
4.752440
 22
6.134480
 13
4.748920
 23
6.886000
  0
POLYLINE
  8
0
  6
CONTINUOUS
 66
     1
 40
0.000000
 41
0.000000
  0
VERTEX
  8
0
  6
CONTINUOUS
 10
4.732200
 20
6.117760
  0
VERTEX
  8
0
  6
CONTINUOUS
 10
4.728240
 20
6.869280
  0
VERTEX
  8
0
  6
CONTINUOUS
 10
4.748920
 20
6.886000
  0
VERTEX
  8
0
  6
CONTINUOUS
 10
4.752440
 20
6.134480
  0
VERTEX
  8
0
  6
CONTINUOUS
 10
4.732200
 20
6.117760
  0
SEQEND
  8
0
  0
SOLID
  8
0
 62
    15
 10
4.752440
 20
6.134480
 11
4.748920
 21
6.886000
 12
4.776200
 22
6.147240
 13
4.772240
 23
6.898760
  0
POLYLINE
  8
0
  6
CONTINUOUS
 66
     1
 40
0.000000
 41
0.000000
  0
VERTEX
  8
0
  6
CONTINUOUS
 10
4.752440
 20
6.134480
  0
VERTEX
  8
0
  6
CONTINUOUS
 10
4.748920
 20
6.886000
  0
VERTEX
  8
0
  6
CONTINUOUS
 10
4.772240
 20
6.898760
  0
VERTEX
  8
0
  6
CONTINUOUS
 10
4.776200
 20
6.147240
  0
VERTEX
  8
0
  6
CONTINUOUS
 10
4.752440
 20
6.134480
  0
SEQEND
  8
0
  0
SOLID
  8
0
 62
    15
 10
4.776200
 20
6.147240
 11
4.772240
 21
6.898760
 12
4.802160
 22
6.155600
 13
4.798640
 23
6.906680
  0
POLYLINE
  8
0
  6
CONTINUOUS
 66
     1
 40
0.000000
 41
0.000000
  0
VERTEX
  8
0
  6
CONTINUOUS
 10
4.776200
 20
6.147240
  0
VERTEX
  8
0
  6
CONTINUOUS
 10
4.772240
 20
6.898760
  0
VERTEX
  8
0
  6
CONTINUOUS
 10
4.798640
 20
6.906680
  0
VERTEX
  8
0
  6
CONTINUOUS
 10
4.802160
 20
6.155600
  0
VERTEX
  8
0
  6
CONTINUOUS
 10
4.776200
 20
6.147240
  0
SEQEND
  8
0
  0
SOLID
  8
0
 62
    15
 10
4.802160
 20
6.155600
 11
4.798640
 21
6.906680
 12
4.829880
 22
6.158240
 13
4.826360
 23
6.909760
  0
POLYLINE
  8
0
  6
CONTINUOUS
 66
     1
 40
0.000000
 41
0.000000
  0
VERTEX
  8
0
  6
CONTINUOUS
 10
4.802160
 20
6.155600
  0
VERTEX
  8
0
  6
CONTINUOUS
 10
4.798640
 20
6.906680
  0
VERTEX
  8
0
  6
CONTINUOUS
 10
4.826360
 20
6.909760
  0
VERTEX
  8
0
  6
CONTINUOUS
 10
4.829880
 20
6.158240
  0
VERTEX
  8
0
  6
CONTINUOUS
 10
4.802160
 20
6.155600
  0
SEQEND
  8
0
  0
SOLID
  8
0
 62
    15
 10
4.829880
 20
6.158240
 11
4.826360
 21
6.909760
 12
4.858040
 22
6.155600
 13
4.854080
 23
6.906680
  0
POLYLINE
  8
0
  6
CONTINUOUS
 66
     1
 40
0.000000
 41
0.000000
  0
VERTEX
  8
0
  6
CONTINUOUS
 10
4.829880
 20
6.158240
  0
VERTEX
  8
0
  6
CONTINUOUS
 10
4.826360
 20
6.909760
  0
VERTEX
  8
0
  6
CONTINUOUS
 10
4.854080
 20
6.906680
  0
VERTEX
  8
0
  6
CONTINUOUS
 10
4.858040
 20
6.155600
  0
VERTEX
  8
0
  6
CONTINUOUS
 10
4.829880
 20
6.158240
  0
SEQEND
  8
0
  0
SOLID
  8
0
 62
    15
 10
4.858040
 20
6.155600
 11
4.854080
 21
6.906680
 12
4.884000
 22
6.147240
 13
4.880040
 23
6.898760
  0
POLYLINE
  8
0
  6
CONTINUOUS
 66
     1
 40
0.000000
 41
0.000000
  0
VERTEX
  8
0
  6
CONTINUOUS
 10
4.858040
 20
6.155600
  0
VERTEX
  8
0
  6
CONTINUOUS
 10
4.854080
 20
6.906680
  0
VERTEX
  8
0
  6
CONTINUOUS
 10
4.880040
 20
6.898760
  0
VERTEX
  8
0
  6
CONTINUOUS
 10
4.884000
 20
6.147240
  0
VERTEX
  8
0
  6
CONTINUOUS
 10
4.858040
 20
6.155600
  0
SEQEND
  8
0
  0
SOLID
  8
0
 62
    15
 10
4.884000
 20
6.147240
 11
4.880040
 21
6.898760
 12
4.907320
 22
6.134480
 13
4.903800
 23
6.886000
  0
POLYLINE
  8
0
  6
CONTINUOUS
 66
     1
 40
0.000000
 41
0.000000
  0
VERTEX
  8
0
  6
CONTINUOUS
 10
4.884000
 20
6.147240
  0
VERTEX
  8
0
  6
CONTINUOUS
 10
4.880040
 20
6.898760
  0
VERTEX
  8
0
  6
CONTINUOUS
 10
4.903800
 20
6.886000
  0
VERTEX
  8
0
  6
CONTINUOUS
 10
4.907320
 20
6.134480
  0
VERTEX
  8
0
  6
CONTINUOUS
 10
4.884000
 20
6.147240
  0
SEQEND
  8
0
  0
SOLID
  8
0
 62
    15
 10
4.907320
 20
6.134480
 11
4.903800
 21
6.886000
 12
4.928000
 22
6.117760
 13
4.924040
 23
6.869280
  0
POLYLINE
  8
0
  6
CONTINUOUS
 66
     1
 40
0.000000
 41
0.000000
  0
VERTEX
  8
0
  6
CONTINUOUS
 10
4.907320
 20
6.134480
  0
VERTEX
  8
0
  6
CONTINUOUS
 10
4.903800
 20
6.886000
  0
VERTEX
  8
0
  6
CONTINUOUS
 10
4.924040
 20
6.869280
  0
VERTEX
  8
0
  6
CONTINUOUS
 10
4.928000
 20
6.117760
  0
VERTEX
  8
0
  6
CONTINUOUS
 10
4.907320
 20
6.134480
  0
SEQEND
  8
0
  0
SOLID
  8
0
 62
    15
 10
4.928000
 20
6.117760
 11
4.924040
 21
6.869280
 12
4.944720
 22
6.097080
 13
4.941200
 23
6.848600
  0
POLYLINE
  8
0
  6
CONTINUOUS
 66
     1
 40
0.000000
 41
0.000000
  0
VERTEX
  8
0
  6
CONTINUOUS
 10
4.928000
 20
6.117760
  0
VERTEX
  8
0
  6
CONTINUOUS
 10
4.924040
 20
6.869280
  0
VERTEX
  8
0
  6
CONTINUOUS
 10
4.941200
 20
6.848600
  0
VERTEX
  8
0
  6
CONTINUOUS
 10
4.944720
 20
6.097080
  0
VERTEX
  8
0
  6
CONTINUOUS
 10
4.928000
 20
6.117760
  0
SEQEND
  8
0
  0
SOLID
  8
0
 62
    15
 10
4.944720
 20
6.097080
 11
4.941200
 21
6.848600
 12
4.957480
 22
6.073760
 13
4.953960
 23
6.825280
  0
POLYLINE
  8
0
  6
CONTINUOUS
 66
     1
 40
0.000000
 41
0.000000
  0
VERTEX
  8
0
  6
CONTINUOUS
 10
4.944720
 20
6.097080
  0
VERTEX
  8
0
  6
CONTINUOUS
 10
4.941200
 20
6.848600
  0
VERTEX
  8
0
  6
CONTINUOUS
 10
4.953960
 20
6.825280
  0
VERTEX
  8
0
  6
CONTINUOUS
 10
4.957480
 20
6.073760
  0
VERTEX
  8
0
  6
CONTINUOUS
 10
4.944720
 20
6.097080
  0
SEQEND
  8
0
  0
SOLID
  8
0
 62
    15
 10
4.968480
 20
6.019640
 11
4.964960
 21
6.771160
 12
5.026120
 22
6.019640
 13
5.022600
 23
6.771160
  0
POLYLINE
  8
0
  6
CONTINUOUS
 66
     1
 40
0.000000
 41
0.000000
  0
VERTEX
  8
0
  6
CONTINUOUS
 10
4.968480
 20
6.019640
  0
VERTEX
  8
0
  6
CONTINUOUS
 10
4.964960
 20
6.771160
  0
VERTEX
  8
0
  6
CONTINUOUS
 10
5.022600
 20
6.771160
  0
VERTEX
  8
0
  6
CONTINUOUS
 10
5.026120
 20
6.019640
  0
VERTEX
  8
0
  6
CONTINUOUS
 10
4.968480
 20
6.019640
  0
SEQEND
  8
0
  0
SOLID
  8
0
 62
    15
 10
4.965400
 20
6.047800
 11
4.961880
 21
6.799320
 12
4.968480
 22
6.019640
 13
4.964960
 23
6.771160
  0
POLYLINE
  8
0
  6
CONTINUOUS
 66
     1
 40
0.000000
 41
0.000000
  0
VERTEX
  8
0
  6
CONTINUOUS
 10
4.965400
 20
6.047800
  0
VERTEX
  8
0
  6
CONTINUOUS
 10
4.961880
 20
6.799320
  0
VERTEX
  8
0
  6
CONTINUOUS
 10
4.964960
 20
6.771160
  0
VERTEX
  8
0
  6
CONTINUOUS
 10
4.968480
 20
6.019640
  0
VERTEX
  8
0
  6
CONTINUOUS
 10
4.965400
 20
6.047800
  0
SEQEND
  8
0
  0
SOLID
  8
0
 62
    15
 10
4.957480
 20
6.073760
 11
4.953960
 21
6.825280
 12
4.965400
 22
6.047800
 13
4.961880
 23
6.799320
  0
POLYLINE
  8
0
  6
CONTINUOUS
 66
     1
 40
0.000000
 41
0.000000
  0
VERTEX
  8
0
  6
CONTINUOUS
 10
4.957480
 20
6.073760
  0
VERTEX
  8
0
  6
CONTINUOUS
 10
4.953960
 20
6.825280
  0
VERTEX
  8
0
  6
CONTINUOUS
 10
4.961880
 20
6.799320
  0
VERTEX
  8
0
  6
CONTINUOUS
 10
4.965400
 20
6.047800
  0
VERTEX
  8
0
  6
CONTINUOUS
 10
4.957480
 20
6.073760
  0
SEQEND
  8
0
  0
SOLID
  8
0
 62
    15
 10
5.026120
 20
6.019640
 11
5.022600
 21
6.771160
 12
5.030080
 22
6.049560
 13
5.026560
 23
6.801080
  0
POLYLINE
  8
0
  6
CONTINUOUS
 66
     1
 40
0.000000
 41
0.000000
  0
VERTEX
  8
0
  6
CONTINUOUS
 10
5.026120
 20
6.019640
  0
VERTEX
  8
0
  6
CONTINUOUS
 10
5.022600
 20
6.771160
  0
VERTEX
  8
0
  6
CONTINUOUS
 10
5.026560
 20
6.801080
  0
VERTEX
  8
0
  6
CONTINUOUS
 10
5.030080
 20
6.049560
  0
VERTEX
  8
0
  6
CONTINUOUS
 10
5.026120
 20
6.019640
  0
SEQEND
  8
0
  0
SOLID
  8
0
 62
    15
 10
5.030080
 20
6.049560
 11
5.026560
 21
6.801080
 12
5.041080
 22
6.083000
 13
5.037560
 23
6.834520
  0
POLYLINE
  8
0
  6
CONTINUOUS
 66
     1
 40
0.000000
 41
0.000000
  0
VERTEX
  8
0
  6
CONTINUOUS
 10
5.030080
 20
6.049560
  0
VERTEX
  8
0
  6
CONTINUOUS
 10
5.026560
 20
6.801080
  0
VERTEX
  8
0
  6
CONTINUOUS
 10
5.037560
 20
6.834520
  0
VERTEX
  8
0
  6
CONTINUOUS
 10
5.041080
 20
6.083000
  0
VERTEX
  8
0
  6
CONTINUOUS
 10
5.030080
 20
6.049560
  0
SEQEND
  8
0
  0
SOLID
  8
0
 62
    15
 10
5.041080
 20
6.083000
 11
5.037560
 21
6.834520
 12
5.058680
 22
6.118200
 13
5.055160
 23
6.869720
  0
POLYLINE
  8
0
  6
CONTINUOUS
 66
     1
 40
0.000000
 41
0.000000
  0
VERTEX
  8
0
  6
CONTINUOUS
 10
5.041080
 20
6.083000
  0
VERTEX
  8
0
  6
CONTINUOUS
 10
5.037560
 20
6.834520
  0
VERTEX
  8
0
  6
CONTINUOUS
 10
5.055160
 20
6.869720
  0
VERTEX
  8
0
  6
CONTINUOUS
 10
5.058680
 20
6.118200
  0
VERTEX
  8
0
  6
CONTINUOUS
 10
5.041080
 20
6.083000
  0
SEQEND
  8
0
  0
SOLID
  8
0
 62
    15
 10
5.058680
 20
6.118200
 11
5.055160
 21
6.869720
 12
5.082000
 22
6.152520
 13
5.078480
 23
6.904040
  0
POLYLINE
  8
0
  6
CONTINUOUS
 66
     1
 40
0.000000
 41
0.000000
  0
VERTEX
  8
0
  6
CONTINUOUS
 10
5.058680
 20
6.118200
  0
VERTEX
  8
0
  6
CONTINUOUS
 10
5.055160
 20
6.869720
  0
VERTEX
  8
0
  6
CONTINUOUS
 10
5.078480
 20
6.904040
  0
VERTEX
  8
0
  6
CONTINUOUS
 10
5.082000
 20
6.152520
  0
VERTEX
  8
0
  6
CONTINUOUS
 10
5.058680
 20
6.118200
  0
SEQEND
  8
0
  0
SOLID
  8
0
 62
    15
 10
5.082000
 20
6.152520
 11
5.078480
 21
6.904040
 12
5.111040
 22
6.183320
 13
5.107520
 23
6.934840
  0
POLYLINE
  8
0
  6
CONTINUOUS
 66
     1
 40
0.000000
 41
0.000000
  0
VERTEX
  8
0
  6
CONTINUOUS
 10
5.082000
 20
6.152520
  0
VERTEX
  8
0
  6
CONTINUOUS
 10
5.078480
 20
6.904040
  0
VERTEX
  8
0
  6
CONTINUOUS
 10
5.107520
 20
6.934840
  0
VERTEX
  8
0
  6
CONTINUOUS
 10
5.111040
 20
6.183320
  0
VERTEX
  8
0
  6
CONTINUOUS
 10
5.082000
 20
6.152520
  0
SEQEND
  8
0
  0
SOLID
  8
0
 62
    15
 10
5.111040
 20
6.183320
 11
5.107520
 21
6.934840
 12
5.144480
 22
6.208400
 13
5.140520
 23
6.959920
  0
POLYLINE
  8
0
  6
CONTINUOUS
 66
     1
 40
0.000000
 41
0.000000
  0
VERTEX
  8
0
  6
CONTINUOUS
 10
5.111040
 20
6.183320
  0
VERTEX
  8
0
  6
CONTINUOUS
 10
5.107520
 20
6.934840
  0
VERTEX
  8
0
  6
CONTINUOUS
 10
5.140520
 20
6.959920
  0
VERTEX
  8
0
  6
CONTINUOUS
 10
5.144480
 20
6.208400
  0
VERTEX
  8
0
  6
CONTINUOUS
 10
5.111040
 20
6.183320
  0
SEQEND
  8
0
  0
SOLID
  8
0
 62
    15
 10
5.144480
 20
6.208400
 11
5.140520
 21
6.959920
 12
5.181880
 22
6.225560
 13
5.177920
 23
6.977080
  0
POLYLINE
  8
0
  6
CONTINUOUS
 66
     1
 40
0.000000
 41
0.000000
  0
VERTEX
  8
0
  6
CONTINUOUS
 10
5.144480
 20
6.208400
  0
VERTEX
  8
0
  6
CONTINUOUS
 10
5.140520
 20
6.959920
  0
VERTEX
  8
0
  6
CONTINUOUS
 10
5.177920
 20
6.977080
  0
VERTEX
  8
0
  6
CONTINUOUS
 10
5.181880
 20
6.225560
  0
VERTEX
  8
0
  6
CONTINUOUS
 10
5.144480
 20
6.208400
  0
SEQEND
  8
0
  0
SOLID
  8
0
 62
    15
 10
5.181880
 20
6.225560
 11
5.177920
 21
6.977080
 12
5.222360
 22
6.231720
 13
5.218840
 23
6.983240
  0
POLYLINE
  8
0
  6
CONTINUOUS
 66
     1
 40
0.000000
 41
0.000000
  0
VERTEX
  8
0
  6
CONTINUOUS
 10
5.181880
 20
6.225560
  0
VERTEX
  8
0
  6
CONTINUOUS
 10
5.177920
 20
6.977080
  0
VERTEX
  8
0
  6
CONTINUOUS
 10
5.218840
 20
6.983240
  0
VERTEX
  8
0
  6
CONTINUOUS
 10
5.222360
 20
6.231720
  0
VERTEX
  8
0
  6
CONTINUOUS
 10
5.181880
 20
6.225560
  0
SEQEND
  8
0
  0
SOLID
  8
0
 62
    15
 10
5.222360
 20
6.231720
 11
5.218840
 21
6.983240
 12
5.661920
 22
6.231720
 13
5.658400
 23
6.983240
  0
POLYLINE
  8
0
  6
CONTINUOUS
 66
     1
 40
0.000000
 41
0.000000
  0
VERTEX
  8
0
  6
CONTINUOUS
 10
5.222360
 20
6.231720
  0
VERTEX
  8
0
  6
CONTINUOUS
 10
5.218840
 20
6.983240
  0
VERTEX
  8
0
  6
CONTINUOUS
 10
5.658400
 20
6.983240
  0
VERTEX
  8
0
  6
CONTINUOUS
 10
5.661920
 20
6.231720
  0
VERTEX
  8
0
  6
CONTINUOUS
 10
5.222360
 20
6.231720
  0
SEQEND
  8
0
  0
SOLID
  8
0
 62
    15
 10
5.661920
 20
6.231720
 11
5.658400
 21
6.983240
 12
5.680840
 22
6.230840
 13
5.677320
 23
6.982360
  0
POLYLINE
  8
0
  6
CONTINUOUS
 66
     1
 40
0.000000
 41
0.000000
  0
VERTEX
  8
0
  6
CONTINUOUS
 10
5.661920
 20
6.231720
  0
VERTEX
  8
0
  6
CONTINUOUS
 10
5.658400
 20
6.983240
  0
VERTEX
  8
0
  6
CONTINUOUS
 10
5.677320
 20
6.982360
  0
VERTEX
  8
0
  6
CONTINUOUS
 10
5.680840
 20
6.230840
  0
VERTEX
  8
0
  6
CONTINUOUS
 10
5.661920
 20
6.231720
  0
SEQEND
  8
0
  0
SOLID
  8
0
 62
    15
 10
5.680840
 20
6.230840
 11
5.677320
 21
6.982360
 12
5.706800
 22
6.226880
 13
5.703280
 23
6.978400
  0
POLYLINE
  8
0
  6
CONTINUOUS
 66
     1
 40
0.000000
 41
0.000000
  0
VERTEX
  8
0
  6
CONTINUOUS
 10
5.680840
 20
6.230840
  0
VERTEX
  8
0
  6
CONTINUOUS
 10
5.677320
 20
6.982360
  0
VERTEX
  8
0
  6
CONTINUOUS
 10
5.703280
 20
6.978400
  0
VERTEX
  8
0
  6
CONTINUOUS
 10
5.706800
 20
6.226880
  0
VERTEX
  8
0
  6
CONTINUOUS
 10
5.680840
 20
6.230840
  0
SEQEND
  8
0
  0
SOLID
  8
0
 62
    15
 10
5.706800
 20
6.226880
 11
5.703280
 21
6.978400
 12
5.737600
 22
6.218520
 13
5.734080
 23
6.970040
  0
POLYLINE
  8
0
  6
CONTINUOUS
 66
     1
 40
0.000000
 41
0.000000
  0
VERTEX
  8
0
  6
CONTINUOUS
 10
5.706800
 20
6.226880
  0
VERTEX
  8
0
  6
CONTINUOUS
 10
5.703280
 20
6.978400
  0
VERTEX
  8
0
  6
CONTINUOUS
 10
5.734080
 20
6.970040
  0
VERTEX
  8
0
  6
CONTINUOUS
 10
5.737600
 20
6.218520
  0
VERTEX
  8
0
  6
CONTINUOUS
 10
5.706800
 20
6.226880
  0
SEQEND
  8
0
  0
SOLID
  8
0
 62
    15
 10
5.737600
 20
6.218520
 11
5.734080
 21
6.970040
 12
5.769720
 22
6.204000
 13
5.765760
 23
6.955520
  0
POLYLINE
  8
0
  6
CONTINUOUS
 66
     1
 40
0.000000
 41
0.000000
  0
VERTEX
  8
0
  6
CONTINUOUS
 10
5.737600
 20
6.218520
  0
VERTEX
  8
0
  6
CONTINUOUS
 10
5.734080
 20
6.970040
  0
VERTEX
  8
0
  6
CONTINUOUS
 10
5.765760
 20
6.955520
  0
VERTEX
  8
0
  6
CONTINUOUS
 10
5.769720
 20
6.204000
  0
VERTEX
  8
0
  6
CONTINUOUS
 10
5.737600
 20
6.218520
  0
SEQEND
  8
0
  0
SOLID
  8
0
 62
    15
 10
5.769720
 20
6.204000
 11
5.765760
 21
6.955520
 12
5.799640
 22
6.182000
 13
5.796120
 23
6.933080
  0
POLYLINE
  8
0
  6
CONTINUOUS
 66
     1
 40
0.000000
 41
0.000000
  0
VERTEX
  8
0
  6
CONTINUOUS
 10
5.769720
 20
6.204000
  0
VERTEX
  8
0
  6
CONTINUOUS
 10
5.765760
 20
6.955520
  0
VERTEX
  8
0
  6
CONTINUOUS
 10
5.796120
 20
6.933080
  0
VERTEX
  8
0
  6
CONTINUOUS
 10
5.799640
 20
6.182000
  0
VERTEX
  8
0
  6
CONTINUOUS
 10
5.769720
 20
6.204000
  0
SEQEND
  8
0
  0
SOLID
  8
0
 62
    15
 10
5.799640
 20
6.182000
 11
5.796120
 21
6.933080
 12
5.824720
 22
6.149880
 13
5.821200
 23
6.901400
  0
POLYLINE
  8
0
  6
CONTINUOUS
 66
     1
 40
0.000000
 41
0.000000
  0
VERTEX
  8
0
  6
CONTINUOUS
 10
5.799640
 20
6.182000
  0
VERTEX
  8
0
  6
CONTINUOUS
 10
5.796120
 20
6.933080
  0
VERTEX
  8
0
  6
CONTINUOUS
 10
5.821200
 20
6.901400
  0
VERTEX
  8
0
  6
CONTINUOUS
 10
5.824720
 20
6.149880
  0
VERTEX
  8
0
  6
CONTINUOUS
 10
5.799640
 20
6.182000
  0
SEQEND
  8
0
  0
SOLID
  8
0
 62
    15
 10
5.824720
 20
6.149880
 11
5.821200
 21
6.901400
 12
5.834840
 22
6.130080
 13
5.831320
 23
6.881600
  0
POLYLINE
  8
0
  6
CONTINUOUS
 66
     1
 40
0.000000
 41
0.000000
  0
VERTEX
  8
0
  6
CONTINUOUS
 10
5.824720
 20
6.149880
  0
VERTEX
  8
0
  6
CONTINUOUS
 10
5.821200
 20
6.901400
  0
VERTEX
  8
0
  6
CONTINUOUS
 10
5.831320
 20
6.881600
  0
VERTEX
  8
0
  6
CONTINUOUS
 10
5.834840
 20
6.130080
  0
VERTEX
  8
0
  6
CONTINUOUS
 10
5.824720
 20
6.149880
  0
SEQEND
  8
0
  0
SOLID
  8
0
 62
    15
 10
5.842320
 20
6.106760
 11
5.838800
 21
6.858280
 12
5.847160
 22
6.080800
 13
5.843640
 23
6.832320
  0
POLYLINE
  8
0
  6
CONTINUOUS
 66
     1
 40
0.000000
 41
0.000000
  0
VERTEX
  8
0
  6
CONTINUOUS
 10
5.842320
 20
6.106760
  0
VERTEX
  8
0
  6
CONTINUOUS
 10
5.838800
 20
6.858280
  0
VERTEX
  8
0
  6
CONTINUOUS
 10
5.843640
 20
6.832320
  0
VERTEX
  8
0
  6
CONTINUOUS
 10
5.847160
 20
6.080800
  0
VERTEX
  8
0
  6
CONTINUOUS
 10
5.842320
 20
6.106760
  0
SEQEND
  8
0
  0
SOLID
  8
0
 62
    15
 10
5.834840
 20
6.130080
 11
5.831320
 21
6.881600
 12
5.842320
 22
6.106760
 13
5.838800
 23
6.858280
  0
POLYLINE
  8
0
  6
CONTINUOUS
 66
     1
 40
0.000000
 41
0.000000
  0
VERTEX
  8
0
  6
CONTINUOUS
 10
5.834840
 20
6.130080
  0
VERTEX
  8
0
  6
CONTINUOUS
 10
5.831320
 20
6.881600
  0
VERTEX
  8
0
  6
CONTINUOUS
 10
5.838800
 20
6.858280
  0
VERTEX
  8
0
  6
CONTINUOUS
 10
5.842320
 20
6.106760
  0
VERTEX
  8
0
  6
CONTINUOUS
 10
5.834840
 20
6.130080
  0
SEQEND
  8
0
  0
SOLID
  8
0
 62
    15
 10
5.847160
 20
6.080800
 11
5.843640
 21
6.832320
 12
5.848920
 22
6.050880
 13
5.845400
 23
6.802400
  0
POLYLINE
  8
0
  6
CONTINUOUS
 66
     1
 40
0.000000
 41
0.000000
  0
VERTEX
  8
0
  6
CONTINUOUS
 10
5.847160
 20
6.080800
  0
VERTEX
  8
0
  6
CONTINUOUS
 10
5.843640
 20
6.832320
  0
VERTEX
  8
0
  6
CONTINUOUS
 10
5.845400
 20
6.802400
  0
VERTEX
  8
0
  6
CONTINUOUS
 10
5.848920
 20
6.050880
  0
VERTEX
  8
0
  6
CONTINUOUS
 10
5.847160
 20
6.080800
  0
SEQEND
  8
0
  0
POLYLINE
  8
0
  6
CONTINUOUS
 66
     1
 40
0.000000
 41
0.000000
  0
VERTEX
  8
0
  6
CONTINUOUS
 10
5.847600
 20
5.551040
  0
VERTEX
  8
0
  6
CONTINUOUS
 10
2.607440
 20
5.551040
  0
VERTEX
  8
0
  6
CONTINUOUS
 10
2.607440
 20
6.050880
  0
VERTEX
  8
0
  6
CONTINUOUS
 10
2.608760
 20
6.080800
  0
VERTEX
  8
0
  6
CONTINUOUS
 10
2.613600
 20
6.106760
  0
VERTEX
  8
0
  6
CONTINUOUS
 10
2.621080
 20
6.130080
  0
VERTEX
  8
0
  6
CONTINUOUS
 10
2.631200
 20
6.149880
  0
VERTEX
  8
0
  6
CONTINUOUS
 10
2.656280
 20
6.182000
  0
VERTEX
  8
0
  6
CONTINUOUS
 10
2.686640
 20
6.204000
  0
VERTEX
  8
0
  6
CONTINUOUS
 10
2.718320
 20
6.218520
  0
VERTEX
  8
0
  6
CONTINUOUS
 10
2.749120
 20
6.226880
  0
VERTEX
  8
0
  6
CONTINUOUS
 10
2.775080
 20
6.230840
  0
VERTEX
  8
0
  6
CONTINUOUS
 10
2.794440
 20
6.231720
  0
VERTEX
  8
0
  6
CONTINUOUS
 10
3.233560
 20
6.231720
  0
VERTEX
  8
0
  6
CONTINUOUS
 10
3.274480
 20
6.225560
  0
VERTEX
  8
0
  6
CONTINUOUS
 10
3.311880
 20
6.208400
  0
VERTEX
  8
0
  6
CONTINUOUS
 10
3.345320
 20
6.183320
  0
VERTEX
  8
0
  6
CONTINUOUS
 10
3.373920
 20
6.152520
  0
VERTEX
  8
0
  6
CONTINUOUS
 10
3.397680
 20
6.118200
  0
VERTEX
  8
0
  6
CONTINUOUS
 10
3.415280
 20
6.083000
  0
VERTEX
  8
0
  6
CONTINUOUS
 10
3.426280
 20
6.049560
  0
VERTEX
  8
0
  6
CONTINUOUS
 10
3.429800
 20
6.019640
  0
VERTEX
  8
0
  6
CONTINUOUS
 10
3.495800
 20
6.019640
  0
VERTEX
  8
0
  6
CONTINUOUS
 10
3.498880
 20
6.047800
  0
VERTEX
  8
0
  6
CONTINUOUS
 10
3.506800
 20
6.073760
  0
VERTEX
  8
0
  6
CONTINUOUS
 10
3.519560
 20
6.097080
  0
VERTEX
  8
0
  6
CONTINUOUS
 10
3.536280
 20
6.117760
  0
VERTEX
  8
0
  6
CONTINUOUS
 10
3.556960
 20
6.134480
  0
VERTEX
  8
0
  6
CONTINUOUS
 10
3.580720
 20
6.147240
  0
VERTEX
  8
0
  6
CONTINUOUS
 10
3.606680
 20
6.155160
  0
VERTEX
  8
0
  6
CONTINUOUS
 10
3.634400
 20
6.158240
  0
VERTEX
  8
0
  6
CONTINUOUS
 10
3.662120
 20
6.155160
  0
VERTEX
  8
0
  6
CONTINUOUS
 10
3.688080
 20
6.147240
  0
VERTEX
  8
0
  6
CONTINUOUS
 10
3.711840
 20
6.134480
  0
VERTEX
  8
0
  6
CONTINUOUS
 10
3.732080
 20
6.117760
  0
VERTEX
  8
0
  6
CONTINUOUS
 10
3.749240
 20
6.097080
  0
VERTEX
  8
0
  6
CONTINUOUS
 10
3.762000
 20
6.073760
  0
VERTEX
  8
0
  6
CONTINUOUS
 10
3.769920
 20
6.047800
  0
VERTEX
  8
0
  6
CONTINUOUS
 10
3.773000
 20
6.019640
  0
VERTEX
  8
0
  6
CONTINUOUS
 10
3.795000
 20
6.019640
  0
VERTEX
  8
0
  6
CONTINUOUS
 10
3.797640
 20
6.047360
  0
VERTEX
  8
0
  6
CONTINUOUS
 10
3.805560
 20
6.073760
  0
VERTEX
  8
0
  6
CONTINUOUS
 10
3.818320
 20
6.097080
  0
VERTEX
  8
0
  6
CONTINUOUS
 10
3.835480
 20
6.117760
  0
VERTEX
  8
0
  6
CONTINUOUS
 10
3.855720
 20
6.134480
  0
VERTEX
  8
0
  6
CONTINUOUS
 10
3.879480
 20
6.147240
  0
VERTEX
  8
0
  6
CONTINUOUS
 10
3.905440
 20
6.155160
  0
VERTEX
  8
0
  6
CONTINUOUS
 10
3.933160
 20
6.158240
  0
VERTEX
  8
0
  6
CONTINUOUS
 10
3.961320
 20
6.155160
  0
VERTEX
  8
0
  6
CONTINUOUS
 10
3.987280
 20
6.147240
  0
VERTEX
  8
0
  6
CONTINUOUS
 10
4.010600
 20
6.134480
  0
VERTEX
  8
0
  6
CONTINUOUS
 10
4.031280
 20
6.117760
  0
VERTEX
  8
0
  6
CONTINUOUS
 10
4.048000
 20
6.097080
  0
VERTEX
  8
0
  6
CONTINUOUS
 10
4.060760
 20
6.073760
  0
VERTEX
  8
0
  6
CONTINUOUS
 10
4.068680
 20
6.047360
  0
VERTEX
  8
0
  6
CONTINUOUS
 10
4.071760
 20
6.019640
  0
VERTEX
  8
0
  6
CONTINUOUS
 10
4.093760
 20
6.019640
  0
VERTEX
  8
0
  6
CONTINUOUS
 10
4.096400
 20
6.047800
  0
VERTEX
  8
0
  6
CONTINUOUS
 10
4.104320
 20
6.073760
  0
VERTEX
  8
0
  6
CONTINUOUS
 10
4.117080
 20
6.097080
  0
VERTEX
  8
0
  6
CONTINUOUS
 10
4.134240
 20
6.117760
  0
VERTEX
  8
0
  6
CONTINUOUS
 10
4.154480
 20
6.134480
  0
VERTEX
  8
0
  6
CONTINUOUS
 10
4.178240
 20
6.147240
  0
VERTEX
  8
0
  6
CONTINUOUS
 10
4.204200
 20
6.155600
  0
VERTEX
  8
0
  6
CONTINUOUS
 10
4.231920
 20
6.158240
  0
VERTEX
  8
0
  6
CONTINUOUS
 10
4.260080
 20
6.155600
  0
VERTEX
  8
0
  6
CONTINUOUS
 10
4.286040
 20
6.147240
  0
VERTEX
  8
0
  6
CONTINUOUS
 10
4.309360
 20
6.134480
  0
VERTEX
  8
0
  6
CONTINUOUS
 10
4.330040
 20
6.117760
  0
VERTEX
  8
0
  6
CONTINUOUS
 10
4.346760
 20
6.097080
  0
VERTEX
  8
0
  6
CONTINUOUS
 10
4.359520
 20
6.073760
  0
VERTEX
  8
0
  6
CONTINUOUS
 10
4.367880
 20
6.047800
  0
VERTEX
  8
0
  6
CONTINUOUS
 10
4.370520
 20
6.019640
  0
VERTEX
  8
0
  6
CONTINUOUS
 10
4.392520
 20
6.019640
  0
VERTEX
  8
0
  6
CONTINUOUS
 10
4.395160
 20
6.047800
  0
VERTEX
  8
0
  6
CONTINUOUS
 10
4.403520
 20
6.073760
  0
VERTEX
  8
0
  6
CONTINUOUS
 10
4.416280
 20
6.097080
  0
VERTEX
  8
0
  6
CONTINUOUS
 10
4.433000
 20
6.117760
  0
VERTEX
  8
0
  6
CONTINUOUS
 10
4.453680
 20
6.134480
  0
VERTEX
  8
0
  6
CONTINUOUS
 10
4.477000
 20
6.147240
  0
VERTEX
  8
0
  6
CONTINUOUS
 10
4.502960
 20
6.155600
  0
VERTEX
  8
0
  6
CONTINUOUS
 10
4.530680
 20
6.158240
  0
VERTEX
  8
0
  6
CONTINUOUS
 10
4.558840
 20
6.155600
  0
VERTEX
  8
0
  6
CONTINUOUS
 10
4.584800
 20
6.147240
  0
VERTEX
  8
0
  6
CONTINUOUS
 10
4.608120
 20
6.134480
  0
VERTEX
  8
0
  6
CONTINUOUS
 10
4.628800
 20
6.117760
  0
VERTEX
  8
0
  6
CONTINUOUS
 10
4.645520
 20
6.097080
  0
VERTEX
  8
0
  6
CONTINUOUS
 10
4.658280
 20
6.073760
  0
VERTEX
  8
0
  6
CONTINUOUS
 10
4.666640
 20
6.047800
  0
VERTEX
  8
0
  6
CONTINUOUS
 10
4.669280
 20
6.019640
  0
VERTEX
  8
0
  6
CONTINUOUS
 10
4.691280
 20
6.019640
  0
VERTEX
  8
0
  6
CONTINUOUS
 10
4.694360
 20
6.047800
  0
VERTEX
  8
0
  6
CONTINUOUS
 10
4.702280
 20
6.073760
  0
VERTEX
  8
0
  6
CONTINUOUS
 10
4.715040
 20
6.097080
  0
VERTEX
  8
0
  6
CONTINUOUS
 10
4.732200
 20
6.117760
  0
VERTEX
  8
0
  6
CONTINUOUS
 10
4.752440
 20
6.134480
  0
VERTEX
  8
0
  6
CONTINUOUS
 10
4.776200
 20
6.147240
  0
VERTEX
  8
0
  6
CONTINUOUS
 10
4.802160
 20
6.155600
  0
VERTEX
  8
0
  6
CONTINUOUS
 10
4.829880
 20
6.158240
  0
VERTEX
  8
0
  6
CONTINUOUS
 10
4.858040
 20
6.155600
  0
VERTEX
  8
0
  6
CONTINUOUS
 10
4.884000
 20
6.147240
  0
VERTEX
  8
0
  6
CONTINUOUS
 10
4.907320
 20
6.134480
  0
VERTEX
  8
0
  6
CONTINUOUS
 10
4.928000
 20
6.117760
  0
VERTEX
  8
0
  6
CONTINUOUS
 10
4.944720
 20
6.097080
  0
VERTEX
  8
0
  6
CONTINUOUS
 10
4.957480
 20
6.073760
  0
VERTEX
  8
0
  6
CONTINUOUS
 10
4.965400
 20
6.047800
  0
VERTEX
  8
0
  6
CONTINUOUS
 10
4.968480
 20
6.019640
  0
VERTEX
  8
0
  6
CONTINUOUS
 10
5.026120
 20
6.019640
  0
VERTEX
  8
0
  6
CONTINUOUS
 10
5.030080
 20
6.049560
  0
VERTEX
  8
0
  6
CONTINUOUS
 10
5.041080
 20
6.083000
  0
VERTEX
  8
0
  6
CONTINUOUS
 10
5.058680
 20
6.118200
  0
VERTEX
  8
0
  6
CONTINUOUS
 10
5.082000
 20
6.152520
  0
VERTEX
  8
0
  6
CONTINUOUS
 10
5.111040
 20
6.183320
  0
VERTEX
  8
0
  6
CONTINUOUS
 10
5.144480
 20
6.208400
  0
VERTEX
  8
0
  6
CONTINUOUS
 10
5.181880
 20
6.225560
  0
VERTEX
  8
0
  6
CONTINUOUS
 10
5.222360
 20
6.231720
  0
VERTEX
  8
0
  6
CONTINUOUS
 10
5.661920
 20
6.231720
  0
VERTEX
  8
0
  6
CONTINUOUS
 10
5.680840
 20
6.230840
  0
VERTEX
  8
0
  6
CONTINUOUS
 10
5.706800
 20
6.226880
  0
VERTEX
  8
0
  6
CONTINUOUS
 10
5.737600
 20
6.218520
  0
VERTEX
  8
0
  6
CONTINUOUS
 10
5.769720
 20
6.204000
  0
VERTEX
  8
0
  6
CONTINUOUS
 10
5.799640
 20
6.182000
  0
VERTEX
  8
0
  6
CONTINUOUS
 10
5.824720
 20
6.149880
  0
VERTEX
  8
0
  6
CONTINUOUS
 10
5.834840
 20
6.130080
  0
VERTEX
  8
0
  6
CONTINUOUS
 10
5.842320
 20
6.106760
  0
VERTEX
  8
0
  6
CONTINUOUS
 10
5.847160
 20
6.080800
  0
VERTEX
  8
0
  6
CONTINUOUS
 10
5.848920
 20
6.050880
  0
VERTEX
  8
0
  6
CONTINUOUS
 10
5.848920
 20
5.551040
  0
VERTEX
  8
0
  6
CONTINUOUS
 10
5.847600
 20
5.551040
  0
SEQEND
  8
0
  0
TEXT
  8
0
 10
3.885640
 20
5.259320
 40
0.138176
  1
BA  1317
 41
1.000000
  7
SN0
 71
     0
 72
     5
 11
4.567854
 21
5.259320
  0
TEXT
  8
0
 10
3.683680
 20
5.057800
 40
0.138176
  1
11/16" x 3-1/4"
 41
1.000000
  7
SN0
 71
     0
 72
     5
 11
4.768778
 21
5.057800
  0
TEXT
  8
0
 10
3.036440
 20
8.008000
 40
0.138176
  1
BA  1317
 41
1.000000
  7
SN0
 71
     0
 72
     5
 11
3.718654
 21
8.008000
  0
TEXT
  8
0
 10
2.834480
 20
7.806920
 40
0.138176
  1
11/16" x 3-1/4"
 41
1.000000
  7
SN0
 71
     0
 72
     5
 11
3.919578
 21
7.806920
  0
ENDSEC
  0
EOF
