  0
SECTION
  2
HEADER
  9
$ACADVER
  1
AC1006
  9
$EXTMIN
 10
2.862200
 20
2.152480
  9
$EXTMAX
 10
5.389560
 20
5.870920
  9
$LTSCALE
 40
0.044000
  9
$PDMODE
 70
    35
  9
$PDSIZE
 40
0.035200
  0
ENDSEC
  0
SECTION
  2
TABLES
  0
TABLE
  2
LTYPE
 70
     9
  0
LTYPE
  2
CONTINUOUS
 70
    64
  3
Solid line
 72
    65
 73
     0
 40
0.000000
  0
LTYPE
  2
DASHED
 70
    64
  3
__ __ __ __ __ __ __ __ __ __ __ __ __ __ __
 72
    65
 73
     2
 40
0.000330
 49
0.000220
 49
-0.000110
  0
LTYPE
  2
HIDDEN
 70
    64
  3
 _ _ _ _ _ _ _ _ _ _ _ _ _ _ _ _ _ _ _ _ _ _
 72
    65
 73
     2
 40
0.000165
 49
0.000110
 49
-0.000055
  0
LTYPE
  2
CENTER
 70
    64
  3
____ _ ____ _ ____ _ ____ _ ____ _ ____ _ ____
 72
    65
 73
     4
 40
0.000880
 49
0.000550
 49
-0.000110
 49
0.000110
 49
-0.000110
  0
LTYPE
  2
PHANTOM
 70
    64
  3
_____ _ _ _____ _ _ _____ _ _ _____ _ _ ____
 72
    65
 73
     6
 40
0.001100
 49
0.000550
 49
-0.000110
 49
0.000110
 49
-0.000110
 49
0.000110
 49
-0.000110
  0
LTYPE
  2
DOT
 70
    64
  3
...............................................
 72
    65
 73
     2
 40
0.000110
 49
0.000000
 49
-0.000110
  0
LTYPE
  2
DASHDOT
 70
    64
  3
__ . __ . __ . __ . __ . __ . __ . __ . __ . __
 72
    65
 73
     4
 40
0.000440
 49
0.000220
 49
-0.000110
 49
0.000000
 49
-0.000110
  0
LTYPE
  2
BORDER
 70
    64
  3
__ __ . __ __ . __ __ . __ __ . __ __ . __ __
 72
    65
 73
     6
 40
0.000770
 49
0.000220
 49
-0.000110
 49
0.000220
 49
-0.000110
 49
0.000000
 49
-0.000110
  0
LTYPE
  2
DIVIDE
 70
    64
  3
__ . . __ . . __ . . __ . . __ . . __ . . __
 72
    65
 73
     6
 40
0.000550
 49
0.000220
 49
-0.000110
 49
0.000000
 49
-0.000110
 49
0.000000
 49
-0.000110
  0
LTYPE
  2
DOTDOT
 70
    64
  3
 . .  . .  . .  . .  . .  . . 
 72
    65
 73
     5
 40
0.000242
 49
-0.000110
 49
0.000000
 49
-0.000110
 49
0.000000
 49
-0.000110
  0
ENDTAB
  0
TABLE
  2
STYLE
 70
     2
  0
STYLE
 70
     0
  2
SN0
 40
0.000000
 41
0.000440
 50
0.000000
 71
     0
 42
0.000000
  3
ROMAND
  0
STYLE
 70
    68
  2
SV0
 40
0.000000
 41
0.000440
 50
0.000000
 71
     0
 42
0.000000
  3
ROMAND
  0
ENDTAB
  0
TABLE
  2
LAYER
 70
     3
  0
LAYER
  2
FOREGROUND
 70
    64
 62
     7
  6
CONTINUOUS
  0
LAYER
  2
BACKGROUND
 70
    65
 62
    -7
  6
CONTINUOUS
  0
LAYER
  2
0
 70
    64
 62
     7
  6
CONTINUOUS
  0
ENDTAB
  0
ENDSEC
  0
SECTION
  2
ENTITIES
  0
POLYLINE
  8
FOREGROUND
  6
CONTINUOUS
 66
     1
 40
0.000000
 41
0.000000
  0
VERTEX
  8
FOREGROUND
  6
CONTINUOUS
 10
0.000000
 20
8.023400
  0
VERTEX
  8
FOREGROUND
  6
CONTINUOUS
 10
8.499920
 20
8.023400
  0
VERTEX
  8
FOREGROUND
  6
CONTINUOUS
 10
8.499920
 20
-2.976600
  0
VERTEX
  8
FOREGROUND
  6
CONTINUOUS
 10
0.000000
 20
-2.976600
  0
VERTEX
  8
FOREGROUND
  6
CONTINUOUS
 10
0.000000
 20
8.023400
  0
SEQEND
  8
0
  0
POLYLINE
  8
FOREGROUND
  6
CONTINUOUS
 66
     1
 40
0.000000
 41
0.000000
  0
VERTEX
  8
FOREGROUND
  6
CONTINUOUS
 10
0.000000
 20
8.023400
  0
VERTEX
  8
FOREGROUND
  6
CONTINUOUS
 10
8.499920
 20
8.023400
  0
VERTEX
  8
FOREGROUND
  6
CONTINUOUS
 10
8.499920
 20
-2.976600
  0
VERTEX
  8
FOREGROUND
  6
CONTINUOUS
 10
0.000000
 20
-2.976600
  0
VERTEX
  8
FOREGROUND
  6
CONTINUOUS
 10
0.000000
 20
8.023400
  0
SEQEND
  8
0
  0
POLYLINE
  8
0
  6
CONTINUOUS
 66
     1
 40
0.000000
 41
0.000000
  0
VERTEX
  8
0
  6
CONTINUOUS
 10
5.388240
 20
2.153800
  0
VERTEX
  8
0
  6
CONTINUOUS
 10
5.388240
 20
2.330240
  0
VERTEX
  8
0
  6
CONTINUOUS
 10
5.363160
 20
2.331560
  0
VERTEX
  8
0
  6
CONTINUOUS
 10
5.327520
 20
2.338160
  0
VERTEX
  8
0
  6
CONTINUOUS
 10
5.295400
 20
2.349600
  0
VERTEX
  8
0
  6
CONTINUOUS
 10
5.275600
 20
2.359280
  0
VERTEX
  8
0
  6
CONTINUOUS
 10
5.257560
 20
2.370280
  0
VERTEX
  8
0
  6
CONTINUOUS
 10
5.240840
 20
2.382600
  0
VERTEX
  8
0
  6
CONTINUOUS
 10
5.212240
 20
2.410320
  0
VERTEX
  8
0
  6
CONTINUOUS
 10
5.190240
 20
2.439800
  0
VERTEX
  8
0
  6
CONTINUOUS
 10
5.175280
 20
2.468840
  0
VERTEX
  8
0
  6
CONTINUOUS
 10
5.167360
 20
2.496120
  0
VERTEX
  8
0
  6
CONTINUOUS
 10
5.166480
 20
2.508000
  0
VERTEX
  8
0
  6
CONTINUOUS
 10
5.055600
 20
2.508000
  0
VERTEX
  8
0
  6
CONTINUOUS
 10
5.051200
 20
2.556840
  0
VERTEX
  8
0
  6
CONTINUOUS
 10
5.043280
 20
2.602600
  0
VERTEX
  8
0
  6
CONTINUOUS
 10
5.032280
 20
2.644400
  0
VERTEX
  8
0
  6
CONTINUOUS
 10
5.018200
 20
2.682680
  0
VERTEX
  8
0
  6
CONTINUOUS
 10
5.001480
 20
2.717440
  0
VERTEX
  8
0
  6
CONTINUOUS
 10
4.972000
 20
2.763200
  0
VERTEX
  8
0
  6
CONTINUOUS
 10
4.949120
 20
2.789600
  0
VERTEX
  8
0
  6
CONTINUOUS
 10
4.912160
 20
2.823040
  0
VERTEX
  8
0
  6
CONTINUOUS
 10
4.885320
 20
2.841520
  0
VERTEX
  8
0
  6
CONTINUOUS
 10
4.842200
 20
2.863080
  0
VERTEX
  8
0
  6
CONTINUOUS
 10
4.812280
 20
2.874080
  0
VERTEX
  8
0
  6
CONTINUOUS
 10
4.766520
 20
2.884640
  0
VERTEX
  8
0
  6
CONTINUOUS
 10
4.734840
 20
2.888160
  0
VERTEX
  8
0
  6
CONTINUOUS
 10
4.687760
 20
2.888160
  0
VERTEX
  8
0
  6
CONTINUOUS
 10
4.656080
 20
2.884640
  0
VERTEX
  8
0
  6
CONTINUOUS
 10
4.624840
 20
2.878920
  0
VERTEX
  8
0
  6
CONTINUOUS
 10
4.579520
 20
2.864840
  0
VERTEX
  8
0
  6
CONTINUOUS
 10
4.536400
 20
2.845920
  0
VERTEX
  8
0
  6
CONTINUOUS
 10
4.495920
 20
2.820840
  0
VERTEX
  8
0
  6
CONTINUOUS
 10
4.458960
 20
2.791360
  0
VERTEX
  8
0
  6
CONTINUOUS
 10
4.426400
 20
2.756600
  0
VERTEX
  8
0
  6
CONTINUOUS
 10
4.399120
 20
2.717000
  0
VERTEX
  8
0
  6
CONTINUOUS
 10
4.378000
 20
2.673000
  0
VERTEX
  8
0
  6
CONTINUOUS
 10
4.367440
 20
2.641320
  0
VERTEX
  8
0
  6
CONTINUOUS
 10
4.360400
 20
2.607440
  0
VERTEX
  8
0
  6
CONTINUOUS
 10
4.356440
 20
2.572240
  0
VERTEX
  8
0
  6
CONTINUOUS
 10
4.293520
 20
2.569160
  0
VERTEX
  8
0
  6
CONTINUOUS
 10
4.263160
 20
2.569600
  0
VERTEX
  8
0
  6
CONTINUOUS
 10
4.203760
 20
2.575320
  0
VERTEX
  8
0
  6
CONTINUOUS
 10
4.147440
 20
2.586320
  0
VERTEX
  8
0
  6
CONTINUOUS
 10
4.120160
 20
2.593360
  0
VERTEX
  8
0
  6
CONTINUOUS
 10
4.067800
 20
2.611840
  0
VERTEX
  8
0
  6
CONTINUOUS
 10
4.018520
 20
2.634720
  0
VERTEX
  8
0
  6
CONTINUOUS
 10
3.972320
 20
2.661560
  0
VERTEX
  8
0
  6
CONTINUOUS
 10
3.929200
 20
2.692800
  0
VERTEX
  8
0
  6
CONTINUOUS
 10
3.889600
 20
2.727560
  0
VERTEX
  8
0
  6
CONTINUOUS
 10
3.853080
 20
2.765400
  0
VERTEX
  8
0
  6
CONTINUOUS
 10
3.819640
 20
2.806760
  0
VERTEX
  8
0
  6
CONTINUOUS
 10
3.790160
 20
2.850760
  0
VERTEX
  8
0
  6
CONTINUOUS
 10
3.764200
 20
2.896960
  0
VERTEX
  8
0
  6
CONTINUOUS
 10
3.742200
 20
2.945360
  0
VERTEX
  8
0
  6
CONTINUOUS
 10
3.723720
 20
2.995520
  0
VERTEX
  8
0
  6
CONTINUOUS
 10
3.709200
 20
3.047000
  0
VERTEX
  8
0
  6
CONTINUOUS
 10
2.863520
 20
3.047000
  0
VERTEX
  8
0
  6
CONTINUOUS
 10
2.863520
 20
2.152920
  0
VERTEX
  8
0
  6
CONTINUOUS
 10
5.388240
 20
2.152920
  0
VERTEX
  8
0
  6
CONTINUOUS
 10
5.388240
 20
2.153800
  0
SEQEND
  8
0
  0
SOLID
  8
0
 62
    15
 10
4.578640
 20
4.942080
 11
4.580400
 21
5.688320
 12
4.639800
 22
4.959240
 13
4.641120
 23
5.705480
  0
POLYLINE
  8
0
  6
CONTINUOUS
 66
     1
 40
0.000000
 41
0.000000
  0
VERTEX
  8
0
  6
CONTINUOUS
 10
4.578640
 20
4.942080
  0
VERTEX
  8
0
  6
CONTINUOUS
 10
4.580400
 20
5.688320
  0
VERTEX
  8
0
  6
CONTINUOUS
 10
4.641120
 20
5.705480
  0
VERTEX
  8
0
  6
CONTINUOUS
 10
4.639800
 20
4.959240
  0
VERTEX
  8
0
  6
CONTINUOUS
 10
4.578640
 20
4.942080
  0
SEQEND
  8
0
  0
SOLID
  8
0
 62
    15
 10
3.708320
 20
5.123800
 11
3.710080
 21
5.870480
 12
3.722840
 22
5.072320
 13
3.724600
 23
5.818560
  0
POLYLINE
  8
0
  6
CONTINUOUS
 66
     1
 40
0.000000
 41
0.000000
  0
VERTEX
  8
0
  6
CONTINUOUS
 10
3.708320
 20
5.123800
  0
VERTEX
  8
0
  6
CONTINUOUS
 10
3.710080
 20
5.870480
  0
VERTEX
  8
0
  6
CONTINUOUS
 10
3.724600
 20
5.818560
  0
VERTEX
  8
0
  6
CONTINUOUS
 10
3.722840
 20
5.072320
  0
VERTEX
  8
0
  6
CONTINUOUS
 10
3.708320
 20
5.123800
  0
SEQEND
  8
0
  0
SOLID
  8
0
 62
    15
 10
3.722840
 20
5.072320
 11
3.724600
 21
5.818560
 12
3.741320
 22
5.022160
 13
3.743080
 23
5.768400
  0
POLYLINE
  8
0
  6
CONTINUOUS
 66
     1
 40
0.000000
 41
0.000000
  0
VERTEX
  8
0
  6
CONTINUOUS
 10
3.722840
 20
5.072320
  0
VERTEX
  8
0
  6
CONTINUOUS
 10
3.724600
 20
5.818560
  0
VERTEX
  8
0
  6
CONTINUOUS
 10
3.743080
 20
5.768400
  0
VERTEX
  8
0
  6
CONTINUOUS
 10
3.741320
 20
5.022160
  0
VERTEX
  8
0
  6
CONTINUOUS
 10
3.722840
 20
5.072320
  0
SEQEND
  8
0
  0
SOLID
  8
0
 62
    15
 10
3.741320
 20
5.022160
 11
3.743080
 21
5.768400
 12
3.763760
 22
4.973760
 13
3.765080
 23
5.720000
  0
POLYLINE
  8
0
  6
CONTINUOUS
 66
     1
 40
0.000000
 41
0.000000
  0
VERTEX
  8
0
  6
CONTINUOUS
 10
3.741320
 20
5.022160
  0
VERTEX
  8
0
  6
CONTINUOUS
 10
3.743080
 20
5.768400
  0
VERTEX
  8
0
  6
CONTINUOUS
 10
3.765080
 20
5.720000
  0
VERTEX
  8
0
  6
CONTINUOUS
 10
3.763760
 20
4.973760
  0
VERTEX
  8
0
  6
CONTINUOUS
 10
3.741320
 20
5.022160
  0
SEQEND
  8
0
  0
SOLID
  8
0
 62
    15
 10
3.763760
 20
4.973760
 11
3.765080
 21
5.720000
 12
3.789720
 22
4.927120
 13
3.791040
 23
5.673800
  0
POLYLINE
  8
0
  6
CONTINUOUS
 66
     1
 40
0.000000
 41
0.000000
  0
VERTEX
  8
0
  6
CONTINUOUS
 10
3.763760
 20
4.973760
  0
VERTEX
  8
0
  6
CONTINUOUS
 10
3.765080
 20
5.720000
  0
VERTEX
  8
0
  6
CONTINUOUS
 10
3.791040
 20
5.673800
  0
VERTEX
  8
0
  6
CONTINUOUS
 10
3.789720
 20
4.927120
  0
VERTEX
  8
0
  6
CONTINUOUS
 10
3.763760
 20
4.973760
  0
SEQEND
  8
0
  0
SOLID
  8
0
 62
    15
 10
3.789720
 20
4.927120
 11
3.791040
 21
5.673800
 12
3.819200
 22
4.883560
 13
3.820520
 23
5.629800
  0
POLYLINE
  8
0
  6
CONTINUOUS
 66
     1
 40
0.000000
 41
0.000000
  0
VERTEX
  8
0
  6
CONTINUOUS
 10
3.789720
 20
4.927120
  0
VERTEX
  8
0
  6
CONTINUOUS
 10
3.791040
 20
5.673800
  0
VERTEX
  8
0
  6
CONTINUOUS
 10
3.820520
 20
5.629800
  0
VERTEX
  8
0
  6
CONTINUOUS
 10
3.819200
 20
4.883560
  0
VERTEX
  8
0
  6
CONTINUOUS
 10
3.789720
 20
4.927120
  0
SEQEND
  8
0
  0
SOLID
  8
0
 62
    15
 10
3.819200
 20
4.883560
 11
3.820520
 21
5.629800
 12
3.852200
 22
4.842200
 13
3.853960
 23
5.588880
  0
POLYLINE
  8
0
  6
CONTINUOUS
 66
     1
 40
0.000000
 41
0.000000
  0
VERTEX
  8
0
  6
CONTINUOUS
 10
3.819200
 20
4.883560
  0
VERTEX
  8
0
  6
CONTINUOUS
 10
3.820520
 20
5.629800
  0
VERTEX
  8
0
  6
CONTINUOUS
 10
3.853960
 20
5.588880
  0
VERTEX
  8
0
  6
CONTINUOUS
 10
3.852200
 20
4.842200
  0
VERTEX
  8
0
  6
CONTINUOUS
 10
3.819200
 20
4.883560
  0
SEQEND
  8
0
  0
SOLID
  8
0
 62
    15
 10
3.852200
 20
4.842200
 11
3.853960
 21
5.588880
 12
3.888720
 22
4.804360
 13
3.890480
 23
5.550600
  0
POLYLINE
  8
0
  6
CONTINUOUS
 66
     1
 40
0.000000
 41
0.000000
  0
VERTEX
  8
0
  6
CONTINUOUS
 10
3.852200
 20
4.842200
  0
VERTEX
  8
0
  6
CONTINUOUS
 10
3.853960
 20
5.588880
  0
VERTEX
  8
0
  6
CONTINUOUS
 10
3.890480
 20
5.550600
  0
VERTEX
  8
0
  6
CONTINUOUS
 10
3.888720
 20
4.804360
  0
VERTEX
  8
0
  6
CONTINUOUS
 10
3.852200
 20
4.842200
  0
SEQEND
  8
0
  0
SOLID
  8
0
 62
    15
 10
3.888720
 20
4.804360
 11
3.890480
 21
5.550600
 12
3.928760
 22
4.769600
 13
3.930080
 23
5.515840
  0
POLYLINE
  8
0
  6
CONTINUOUS
 66
     1
 40
0.000000
 41
0.000000
  0
VERTEX
  8
0
  6
CONTINUOUS
 10
3.888720
 20
4.804360
  0
VERTEX
  8
0
  6
CONTINUOUS
 10
3.890480
 20
5.550600
  0
VERTEX
  8
0
  6
CONTINUOUS
 10
3.930080
 20
5.515840
  0
VERTEX
  8
0
  6
CONTINUOUS
 10
3.928760
 20
4.769600
  0
VERTEX
  8
0
  6
CONTINUOUS
 10
3.888720
 20
4.804360
  0
SEQEND
  8
0
  0
SOLID
  8
0
 62
    15
 10
3.928760
 20
4.769600
 11
3.930080
 21
5.515840
 12
3.971880
 22
4.738360
 13
3.973200
 23
5.485040
  0
POLYLINE
  8
0
  6
CONTINUOUS
 66
     1
 40
0.000000
 41
0.000000
  0
VERTEX
  8
0
  6
CONTINUOUS
 10
3.928760
 20
4.769600
  0
VERTEX
  8
0
  6
CONTINUOUS
 10
3.930080
 20
5.515840
  0
VERTEX
  8
0
  6
CONTINUOUS
 10
3.973200
 20
5.485040
  0
VERTEX
  8
0
  6
CONTINUOUS
 10
3.971880
 20
4.738360
  0
VERTEX
  8
0
  6
CONTINUOUS
 10
3.928760
 20
4.769600
  0
SEQEND
  8
0
  0
SOLID
  8
0
 62
    15
 10
3.971880
 20
4.738360
 11
3.973200
 21
5.485040
 12
4.018080
 22
4.711520
 13
4.019400
 23
5.457760
  0
POLYLINE
  8
0
  6
CONTINUOUS
 66
     1
 40
0.000000
 41
0.000000
  0
VERTEX
  8
0
  6
CONTINUOUS
 10
3.971880
 20
4.738360
  0
VERTEX
  8
0
  6
CONTINUOUS
 10
3.973200
 20
5.485040
  0
VERTEX
  8
0
  6
CONTINUOUS
 10
4.019400
 20
5.457760
  0
VERTEX
  8
0
  6
CONTINUOUS
 10
4.018080
 20
4.711520
  0
VERTEX
  8
0
  6
CONTINUOUS
 10
3.971880
 20
4.738360
  0
SEQEND
  8
0
  0
SOLID
  8
0
 62
    15
 10
4.018080
 20
4.711520
 11
4.019400
 21
5.457760
 12
4.067360
 22
4.688640
 13
4.068680
 23
5.434880
  0
POLYLINE
  8
0
  6
CONTINUOUS
 66
     1
 40
0.000000
 41
0.000000
  0
VERTEX
  8
0
  6
CONTINUOUS
 10
4.018080
 20
4.711520
  0
VERTEX
  8
0
  6
CONTINUOUS
 10
4.019400
 20
5.457760
  0
VERTEX
  8
0
  6
CONTINUOUS
 10
4.068680
 20
5.434880
  0
VERTEX
  8
0
  6
CONTINUOUS
 10
4.067360
 20
4.688640
  0
VERTEX
  8
0
  6
CONTINUOUS
 10
4.018080
 20
4.711520
  0
SEQEND
  8
0
  0
SOLID
  8
0
 62
    15
 10
4.067360
 20
4.688640
 11
4.068680
 21
5.434880
 12
4.119280
 22
4.670160
 13
4.121040
 23
5.416840
  0
POLYLINE
  8
0
  6
CONTINUOUS
 66
     1
 40
0.000000
 41
0.000000
  0
VERTEX
  8
0
  6
CONTINUOUS
 10
4.067360
 20
4.688640
  0
VERTEX
  8
0
  6
CONTINUOUS
 10
4.068680
 20
5.434880
  0
VERTEX
  8
0
  6
CONTINUOUS
 10
4.121040
 20
5.416840
  0
VERTEX
  8
0
  6
CONTINUOUS
 10
4.119280
 20
4.670160
  0
VERTEX
  8
0
  6
CONTINUOUS
 10
4.067360
 20
4.688640
  0
SEQEND
  8
0
  0
SOLID
  8
0
 62
    15
 10
4.119280
 20
4.670160
 11
4.121040
 21
5.416840
 12
4.174720
 22
4.656960
 13
4.176040
 23
5.403200
  0
POLYLINE
  8
0
  6
CONTINUOUS
 66
     1
 40
0.000000
 41
0.000000
  0
VERTEX
  8
0
  6
CONTINUOUS
 10
4.119280
 20
4.670160
  0
VERTEX
  8
0
  6
CONTINUOUS
 10
4.121040
 20
5.416840
  0
VERTEX
  8
0
  6
CONTINUOUS
 10
4.176040
 20
5.403200
  0
VERTEX
  8
0
  6
CONTINUOUS
 10
4.174720
 20
4.656960
  0
VERTEX
  8
0
  6
CONTINUOUS
 10
4.119280
 20
4.670160
  0
SEQEND
  8
0
  0
SOLID
  8
0
 62
    15
 10
4.174720
 20
4.656960
 11
4.176040
 21
5.403200
 12
4.232360
 22
4.648600
 13
4.233680
 23
5.395280
  0
POLYLINE
  8
0
  6
CONTINUOUS
 66
     1
 40
0.000000
 41
0.000000
  0
VERTEX
  8
0
  6
CONTINUOUS
 10
4.174720
 20
4.656960
  0
VERTEX
  8
0
  6
CONTINUOUS
 10
4.176040
 20
5.403200
  0
VERTEX
  8
0
  6
CONTINUOUS
 10
4.233680
 20
5.395280
  0
VERTEX
  8
0
  6
CONTINUOUS
 10
4.232360
 20
4.648600
  0
VERTEX
  8
0
  6
CONTINUOUS
 10
4.174720
 20
4.656960
  0
SEQEND
  8
0
  0
SOLID
  8
0
 62
    15
 10
4.232360
 20
4.648600
 11
4.233680
 21
5.395280
 12
4.292640
 22
4.645960
 13
4.293960
 23
5.392640
  0
POLYLINE
  8
0
  6
CONTINUOUS
 66
     1
 40
0.000000
 41
0.000000
  0
VERTEX
  8
0
  6
CONTINUOUS
 10
4.232360
 20
4.648600
  0
VERTEX
  8
0
  6
CONTINUOUS
 10
4.233680
 20
5.395280
  0
VERTEX
  8
0
  6
CONTINUOUS
 10
4.293960
 20
5.392640
  0
VERTEX
  8
0
  6
CONTINUOUS
 10
4.292640
 20
4.645960
  0
VERTEX
  8
0
  6
CONTINUOUS
 10
4.232360
 20
4.648600
  0
SEQEND
  8
0
  0
SOLID
  8
0
 62
    15
 10
4.292640
 20
4.645960
 11
4.293960
 21
5.392640
 12
4.355560
 22
4.649040
 13
4.356880
 23
5.395720
  0
POLYLINE
  8
0
  6
CONTINUOUS
 66
     1
 40
0.000000
 41
0.000000
  0
VERTEX
  8
0
  6
CONTINUOUS
 10
4.292640
 20
4.645960
  0
VERTEX
  8
0
  6
CONTINUOUS
 10
4.293960
 20
5.392640
  0
VERTEX
  8
0
  6
CONTINUOUS
 10
4.356880
 20
5.395720
  0
VERTEX
  8
0
  6
CONTINUOUS
 10
4.355560
 20
4.649040
  0
VERTEX
  8
0
  6
CONTINUOUS
 10
4.292640
 20
4.645960
  0
SEQEND
  8
0
  0
SOLID
  8
0
 62
    15
 10
4.355560
 20
4.649040
 11
4.356880
 21
5.395720
 12
4.366560
 22
4.718120
 13
4.368320
 23
5.464800
  0
POLYLINE
  8
0
  6
CONTINUOUS
 66
     1
 40
0.000000
 41
0.000000
  0
VERTEX
  8
0
  6
CONTINUOUS
 10
4.355560
 20
4.649040
  0
VERTEX
  8
0
  6
CONTINUOUS
 10
4.356880
 20
5.395720
  0
VERTEX
  8
0
  6
CONTINUOUS
 10
4.368320
 20
5.464800
  0
VERTEX
  8
0
  6
CONTINUOUS
 10
4.366560
 20
4.718120
  0
VERTEX
  8
0
  6
CONTINUOUS
 10
4.355560
 20
4.649040
  0
SEQEND
  8
0
  0
SOLID
  8
0
 62
    15
 10
4.366560
 20
4.718120
 11
4.368320
 21
5.464800
 12
4.390760
 22
4.779720
 13
4.392080
 23
5.526400
  0
POLYLINE
  8
0
  6
CONTINUOUS
 66
     1
 40
0.000000
 41
0.000000
  0
VERTEX
  8
0
  6
CONTINUOUS
 10
4.366560
 20
4.718120
  0
VERTEX
  8
0
  6
CONTINUOUS
 10
4.368320
 20
5.464800
  0
VERTEX
  8
0
  6
CONTINUOUS
 10
4.392080
 20
5.526400
  0
VERTEX
  8
0
  6
CONTINUOUS
 10
4.390760
 20
4.779720
  0
VERTEX
  8
0
  6
CONTINUOUS
 10
4.366560
 20
4.718120
  0
SEQEND
  8
0
  0
SOLID
  8
0
 62
    15
 10
4.390760
 20
4.779720
 11
4.392080
 21
5.526400
 12
4.425520
 22
4.833400
 13
4.427280
 23
5.579640
  0
POLYLINE
  8
0
  6
CONTINUOUS
 66
     1
 40
0.000000
 41
0.000000
  0
VERTEX
  8
0
  6
CONTINUOUS
 10
4.390760
 20
4.779720
  0
VERTEX
  8
0
  6
CONTINUOUS
 10
4.392080
 20
5.526400
  0
VERTEX
  8
0
  6
CONTINUOUS
 10
4.427280
 20
5.579640
  0
VERTEX
  8
0
  6
CONTINUOUS
 10
4.425520
 20
4.833400
  0
VERTEX
  8
0
  6
CONTINUOUS
 10
4.390760
 20
4.779720
  0
SEQEND
  8
0
  0
SOLID
  8
0
 62
    15
 10
4.425520
 20
4.833400
 11
4.427280
 21
5.579640
 12
4.469960
 22
4.878720
 13
4.471280
 23
5.624960
  0
POLYLINE
  8
0
  6
CONTINUOUS
 66
     1
 40
0.000000
 41
0.000000
  0
VERTEX
  8
0
  6
CONTINUOUS
 10
4.425520
 20
4.833400
  0
VERTEX
  8
0
  6
CONTINUOUS
 10
4.427280
 20
5.579640
  0
VERTEX
  8
0
  6
CONTINUOUS
 10
4.471280
 20
5.624960
  0
VERTEX
  8
0
  6
CONTINUOUS
 10
4.469960
 20
4.878720
  0
VERTEX
  8
0
  6
CONTINUOUS
 10
4.425520
 20
4.833400
  0
SEQEND
  8
0
  0
SOLID
  8
0
 62
    15
 10
4.469960
 20
4.878720
 11
4.471280
 21
5.624960
 12
4.521440
 22
4.914800
 13
4.523200
 23
5.661480
  0
POLYLINE
  8
0
  6
CONTINUOUS
 66
     1
 40
0.000000
 41
0.000000
  0
VERTEX
  8
0
  6
CONTINUOUS
 10
4.469960
 20
4.878720
  0
VERTEX
  8
0
  6
CONTINUOUS
 10
4.471280
 20
5.624960
  0
VERTEX
  8
0
  6
CONTINUOUS
 10
4.523200
 20
5.661480
  0
VERTEX
  8
0
  6
CONTINUOUS
 10
4.521440
 20
4.914800
  0
VERTEX
  8
0
  6
CONTINUOUS
 10
4.469960
 20
4.878720
  0
SEQEND
  8
0
  0
SOLID
  8
0
 62
    15
 10
4.521440
 20
4.914800
 11
4.523200
 21
5.661480
 12
4.578640
 22
4.942080
 13
4.580400
 23
5.688320
  0
POLYLINE
  8
0
  6
CONTINUOUS
 66
     1
 40
0.000000
 41
0.000000
  0
VERTEX
  8
0
  6
CONTINUOUS
 10
4.521440
 20
4.914800
  0
VERTEX
  8
0
  6
CONTINUOUS
 10
4.523200
 20
5.661480
  0
VERTEX
  8
0
  6
CONTINUOUS
 10
4.580400
 20
5.688320
  0
VERTEX
  8
0
  6
CONTINUOUS
 10
4.578640
 20
4.942080
  0
VERTEX
  8
0
  6
CONTINUOUS
 10
4.521440
 20
4.914800
  0
SEQEND
  8
0
  0
SOLID
  8
0
 62
    15
 10
2.863080
 20
5.123800
 11
2.864400
 21
5.870480
 12
3.708320
 22
5.123800
 13
3.710080
 23
5.870480
  0
POLYLINE
  8
0
  6
CONTINUOUS
 66
     1
 40
0.000000
 41
0.000000
  0
VERTEX
  8
0
  6
CONTINUOUS
 10
2.863080
 20
5.123800
  0
VERTEX
  8
0
  6
CONTINUOUS
 10
2.864400
 20
5.870480
  0
VERTEX
  8
0
  6
CONTINUOUS
 10
3.710080
 20
5.870480
  0
VERTEX
  8
0
  6
CONTINUOUS
 10
3.708320
 20
5.123800
  0
VERTEX
  8
0
  6
CONTINUOUS
 10
2.863080
 20
5.123800
  0
SEQEND
  8
0
  0
SOLID
  8
0
 62
    15
 10
4.639800
 20
4.959240
 11
4.641120
 21
5.705480
 12
4.702720
 22
4.965840
 13
4.704040
 23
5.712080
  0
POLYLINE
  8
0
  6
CONTINUOUS
 66
     1
 40
0.000000
 41
0.000000
  0
VERTEX
  8
0
  6
CONTINUOUS
 10
4.639800
 20
4.959240
  0
VERTEX
  8
0
  6
CONTINUOUS
 10
4.641120
 20
5.705480
  0
VERTEX
  8
0
  6
CONTINUOUS
 10
4.704040
 20
5.712080
  0
VERTEX
  8
0
  6
CONTINUOUS
 10
4.702720
 20
4.965840
  0
VERTEX
  8
0
  6
CONTINUOUS
 10
4.639800
 20
4.959240
  0
SEQEND
  8
0
  0
SOLID
  8
0
 62
    15
 10
4.702720
 20
4.965840
 11
4.704040
 21
5.712080
 12
4.765640
 22
4.961440
 13
4.766960
 23
5.708120
  0
POLYLINE
  8
0
  6
CONTINUOUS
 66
     1
 40
0.000000
 41
0.000000
  0
VERTEX
  8
0
  6
CONTINUOUS
 10
4.702720
 20
4.965840
  0
VERTEX
  8
0
  6
CONTINUOUS
 10
4.704040
 20
5.712080
  0
VERTEX
  8
0
  6
CONTINUOUS
 10
4.766960
 20
5.708120
  0
VERTEX
  8
0
  6
CONTINUOUS
 10
4.765640
 20
4.961440
  0
VERTEX
  8
0
  6
CONTINUOUS
 10
4.702720
 20
4.965840
  0
SEQEND
  8
0
  0
SOLID
  8
0
 62
    15
 10
4.765640
 20
4.961440
 11
4.766960
 21
5.708120
 12
4.826800
 22
4.946040
 13
4.828120
 23
5.692280
  0
POLYLINE
  8
0
  6
CONTINUOUS
 66
     1
 40
0.000000
 41
0.000000
  0
VERTEX
  8
0
  6
CONTINUOUS
 10
4.765640
 20
4.961440
  0
VERTEX
  8
0
  6
CONTINUOUS
 10
4.766960
 20
5.708120
  0
VERTEX
  8
0
  6
CONTINUOUS
 10
4.828120
 20
5.692280
  0
VERTEX
  8
0
  6
CONTINUOUS
 10
4.826800
 20
4.946040
  0
VERTEX
  8
0
  6
CONTINUOUS
 10
4.765640
 20
4.961440
  0
SEQEND
  8
0
  0
SOLID
  8
0
 62
    15
 10
4.826800
 20
4.946040
 11
4.828120
 21
5.692280
 12
4.884440
 22
4.918320
 13
4.885760
 23
5.664560
  0
POLYLINE
  8
0
  6
CONTINUOUS
 66
     1
 40
0.000000
 41
0.000000
  0
VERTEX
  8
0
  6
CONTINUOUS
 10
4.826800
 20
4.946040
  0
VERTEX
  8
0
  6
CONTINUOUS
 10
4.828120
 20
5.692280
  0
VERTEX
  8
0
  6
CONTINUOUS
 10
4.885760
 20
5.664560
  0
VERTEX
  8
0
  6
CONTINUOUS
 10
4.884440
 20
4.918320
  0
VERTEX
  8
0
  6
CONTINUOUS
 10
4.826800
 20
4.946040
  0
SEQEND
  8
0
  0
SOLID
  8
0
 62
    15
 10
4.884440
 20
4.918320
 11
4.885760
 21
5.664560
 12
4.936360
 22
4.878280
 13
4.938120
 23
5.624960
  0
POLYLINE
  8
0
  6
CONTINUOUS
 66
     1
 40
0.000000
 41
0.000000
  0
VERTEX
  8
0
  6
CONTINUOUS
 10
4.884440
 20
4.918320
  0
VERTEX
  8
0
  6
CONTINUOUS
 10
4.885760
 20
5.664560
  0
VERTEX
  8
0
  6
CONTINUOUS
 10
4.938120
 20
5.624960
  0
VERTEX
  8
0
  6
CONTINUOUS
 10
4.936360
 20
4.878280
  0
VERTEX
  8
0
  6
CONTINUOUS
 10
4.884440
 20
4.918320
  0
SEQEND
  8
0
  0
SOLID
  8
0
 62
    15
 10
4.936360
 20
4.878280
 11
4.938120
 21
5.624960
 12
4.981680
 22
4.825480
 13
4.983000
 23
5.572160
  0
POLYLINE
  8
0
  6
CONTINUOUS
 66
     1
 40
0.000000
 41
0.000000
  0
VERTEX
  8
0
  6
CONTINUOUS
 10
4.936360
 20
4.878280
  0
VERTEX
  8
0
  6
CONTINUOUS
 10
4.938120
 20
5.624960
  0
VERTEX
  8
0
  6
CONTINUOUS
 10
4.983000
 20
5.572160
  0
VERTEX
  8
0
  6
CONTINUOUS
 10
4.981680
 20
4.825480
  0
VERTEX
  8
0
  6
CONTINUOUS
 10
4.936360
 20
4.878280
  0
SEQEND
  8
0
  0
SOLID
  8
0
 62
    15
 10
4.981680
 20
4.825480
 11
4.983000
 21
5.572160
 12
5.000600
 22
4.794240
 13
5.002360
 23
5.540480
  0
POLYLINE
  8
0
  6
CONTINUOUS
 66
     1
 40
0.000000
 41
0.000000
  0
VERTEX
  8
0
  6
CONTINUOUS
 10
4.981680
 20
4.825480
  0
VERTEX
  8
0
  6
CONTINUOUS
 10
4.983000
 20
5.572160
  0
VERTEX
  8
0
  6
CONTINUOUS
 10
5.002360
 20
5.540480
  0
VERTEX
  8
0
  6
CONTINUOUS
 10
5.000600
 20
4.794240
  0
VERTEX
  8
0
  6
CONTINUOUS
 10
4.981680
 20
4.825480
  0
SEQEND
  8
0
  0
SOLID
  8
0
 62
    15
 10
5.000600
 20
4.794240
 11
5.002360
 21
5.540480
 12
5.017320
 22
4.759480
 13
5.019080
 23
5.505720
  0
POLYLINE
  8
0
  6
CONTINUOUS
 66
     1
 40
0.000000
 41
0.000000
  0
VERTEX
  8
0
  6
CONTINUOUS
 10
5.000600
 20
4.794240
  0
VERTEX
  8
0
  6
CONTINUOUS
 10
5.002360
 20
5.540480
  0
VERTEX
  8
0
  6
CONTINUOUS
 10
5.019080
 20
5.505720
  0
VERTEX
  8
0
  6
CONTINUOUS
 10
5.017320
 20
4.759480
  0
VERTEX
  8
0
  6
CONTINUOUS
 10
5.000600
 20
4.794240
  0
SEQEND
  8
0
  0
SOLID
  8
0
 62
    15
 10
5.017320
 20
4.759480
 11
5.019080
 21
5.505720
 12
5.031400
 22
4.721200
 13
5.033160
 23
5.467440
  0
POLYLINE
  8
0
  6
CONTINUOUS
 66
     1
 40
0.000000
 41
0.000000
  0
VERTEX
  8
0
  6
CONTINUOUS
 10
5.017320
 20
4.759480
  0
VERTEX
  8
0
  6
CONTINUOUS
 10
5.019080
 20
5.505720
  0
VERTEX
  8
0
  6
CONTINUOUS
 10
5.033160
 20
5.467440
  0
VERTEX
  8
0
  6
CONTINUOUS
 10
5.031400
 20
4.721200
  0
VERTEX
  8
0
  6
CONTINUOUS
 10
5.017320
 20
4.759480
  0
SEQEND
  8
0
  0
SOLID
  8
0
 62
    15
 10
5.031400
 20
4.721200
 11
5.033160
 21
5.467440
 12
5.042400
 22
4.679400
 13
5.044160
 23
5.425640
  0
POLYLINE
  8
0
  6
CONTINUOUS
 66
     1
 40
0.000000
 41
0.000000
  0
VERTEX
  8
0
  6
CONTINUOUS
 10
5.031400
 20
4.721200
  0
VERTEX
  8
0
  6
CONTINUOUS
 10
5.033160
 20
5.467440
  0
VERTEX
  8
0
  6
CONTINUOUS
 10
5.044160
 20
5.425640
  0
VERTEX
  8
0
  6
CONTINUOUS
 10
5.042400
 20
4.679400
  0
VERTEX
  8
0
  6
CONTINUOUS
 10
5.031400
 20
4.721200
  0
SEQEND
  8
0
  0
SOLID
  8
0
 62
    15
 10
5.054720
 20
4.584800
 11
5.056480
 21
5.331480
 12
5.165600
 22
4.584800
 13
5.167360
 23
5.331480
  0
POLYLINE
  8
0
  6
CONTINUOUS
 66
     1
 40
0.000000
 41
0.000000
  0
VERTEX
  8
0
  6
CONTINUOUS
 10
5.054720
 20
4.584800
  0
VERTEX
  8
0
  6
CONTINUOUS
 10
5.056480
 20
5.331480
  0
VERTEX
  8
0
  6
CONTINUOUS
 10
5.167360
 20
5.331480
  0
VERTEX
  8
0
  6
CONTINUOUS
 10
5.165600
 20
4.584800
  0
VERTEX
  8
0
  6
CONTINUOUS
 10
5.054720
 20
4.584800
  0
SEQEND
  8
0
  0
SOLID
  8
0
 62
    15
 10
5.050320
 20
4.634080
 11
5.052080
 21
5.380320
 12
5.054720
 22
4.584800
 13
5.056480
 23
5.331480
  0
POLYLINE
  8
0
  6
CONTINUOUS
 66
     1
 40
0.000000
 41
0.000000
  0
VERTEX
  8
0
  6
CONTINUOUS
 10
5.050320
 20
4.634080
  0
VERTEX
  8
0
  6
CONTINUOUS
 10
5.052080
 20
5.380320
  0
VERTEX
  8
0
  6
CONTINUOUS
 10
5.056480
 20
5.331480
  0
VERTEX
  8
0
  6
CONTINUOUS
 10
5.054720
 20
4.584800
  0
VERTEX
  8
0
  6
CONTINUOUS
 10
5.050320
 20
4.634080
  0
SEQEND
  8
0
  0
SOLID
  8
0
 62
    15
 10
5.042400
 20
4.679400
 11
5.044160
 21
5.425640
 12
5.050320
 22
4.634080
 13
5.052080
 23
5.380320
  0
POLYLINE
  8
0
  6
CONTINUOUS
 66
     1
 40
0.000000
 41
0.000000
  0
VERTEX
  8
0
  6
CONTINUOUS
 10
5.042400
 20
4.679400
  0
VERTEX
  8
0
  6
CONTINUOUS
 10
5.044160
 20
5.425640
  0
VERTEX
  8
0
  6
CONTINUOUS
 10
5.052080
 20
5.380320
  0
VERTEX
  8
0
  6
CONTINUOUS
 10
5.050320
 20
4.634080
  0
VERTEX
  8
0
  6
CONTINUOUS
 10
5.042400
 20
4.679400
  0
SEQEND
  8
0
  0
SOLID
  8
0
 62
    15
 10
5.165600
 20
4.584800
 11
5.167360
 21
5.331480
 12
5.169560
 22
4.559720
 13
5.171320
 23
5.305960
  0
POLYLINE
  8
0
  6
CONTINUOUS
 66
     1
 40
0.000000
 41
0.000000
  0
VERTEX
  8
0
  6
CONTINUOUS
 10
5.165600
 20
4.584800
  0
VERTEX
  8
0
  6
CONTINUOUS
 10
5.167360
 20
5.331480
  0
VERTEX
  8
0
  6
CONTINUOUS
 10
5.171320
 20
5.305960
  0
VERTEX
  8
0
  6
CONTINUOUS
 10
5.169560
 20
4.559720
  0
VERTEX
  8
0
  6
CONTINUOUS
 10
5.165600
 20
4.584800
  0
SEQEND
  8
0
  0
SOLID
  8
0
 62
    15
 10
5.169560
 20
4.559720
 11
5.171320
 21
5.305960
 12
5.181000
 22
4.531120
 13
5.182760
 23
5.277800
  0
POLYLINE
  8
0
  6
CONTINUOUS
 66
     1
 40
0.000000
 41
0.000000
  0
VERTEX
  8
0
  6
CONTINUOUS
 10
5.169560
 20
4.559720
  0
VERTEX
  8
0
  6
CONTINUOUS
 10
5.171320
 20
5.305960
  0
VERTEX
  8
0
  6
CONTINUOUS
 10
5.182760
 20
5.277800
  0
VERTEX
  8
0
  6
CONTINUOUS
 10
5.181000
 20
4.531120
  0
VERTEX
  8
0
  6
CONTINUOUS
 10
5.169560
 20
4.559720
  0
SEQEND
  8
0
  0
SOLID
  8
0
 62
    15
 10
5.181000
 20
4.531120
 11
5.182760
 21
5.277800
 12
5.199480
 22
4.501640
 13
5.201240
 23
5.248320
  0
POLYLINE
  8
0
  6
CONTINUOUS
 66
     1
 40
0.000000
 41
0.000000
  0
VERTEX
  8
0
  6
CONTINUOUS
 10
5.181000
 20
4.531120
  0
VERTEX
  8
0
  6
CONTINUOUS
 10
5.182760
 20
5.277800
  0
VERTEX
  8
0
  6
CONTINUOUS
 10
5.201240
 20
5.248320
  0
VERTEX
  8
0
  6
CONTINUOUS
 10
5.199480
 20
4.501640
  0
VERTEX
  8
0
  6
CONTINUOUS
 10
5.181000
 20
4.531120
  0
SEQEND
  8
0
  0
SOLID
  8
0
 62
    15
 10
5.199480
 20
4.501640
 11
5.201240
 21
5.248320
 12
5.225000
 22
4.473040
 13
5.226320
 23
5.219280
  0
POLYLINE
  8
0
  6
CONTINUOUS
 66
     1
 40
0.000000
 41
0.000000
  0
VERTEX
  8
0
  6
CONTINUOUS
 10
5.199480
 20
4.501640
  0
VERTEX
  8
0
  6
CONTINUOUS
 10
5.201240
 20
5.248320
  0
VERTEX
  8
0
  6
CONTINUOUS
 10
5.226320
 20
5.219280
  0
VERTEX
  8
0
  6
CONTINUOUS
 10
5.225000
 20
4.473040
  0
VERTEX
  8
0
  6
CONTINUOUS
 10
5.199480
 20
4.501640
  0
SEQEND
  8
0
  0
SOLID
  8
0
 62
    15
 10
5.225000
 20
4.473040
 11
5.226320
 21
5.219280
 12
5.256680
 22
4.447080
 13
5.258440
 23
5.193760
  0
POLYLINE
  8
0
  6
CONTINUOUS
 66
     1
 40
0.000000
 41
0.000000
  0
VERTEX
  8
0
  6
CONTINUOUS
 10
5.225000
 20
4.473040
  0
VERTEX
  8
0
  6
CONTINUOUS
 10
5.226320
 20
5.219280
  0
VERTEX
  8
0
  6
CONTINUOUS
 10
5.258440
 20
5.193760
  0
VERTEX
  8
0
  6
CONTINUOUS
 10
5.256680
 20
4.447080
  0
VERTEX
  8
0
  6
CONTINUOUS
 10
5.225000
 20
4.473040
  0
SEQEND
  8
0
  0
SOLID
  8
0
 62
    15
 10
5.256680
 20
4.447080
 11
5.258440
 21
5.193760
 12
5.294520
 22
4.426400
 13
5.296280
 23
5.172640
  0
POLYLINE
  8
0
  6
CONTINUOUS
 66
     1
 40
0.000000
 41
0.000000
  0
VERTEX
  8
0
  6
CONTINUOUS
 10
5.256680
 20
4.447080
  0
VERTEX
  8
0
  6
CONTINUOUS
 10
5.258440
 20
5.193760
  0
VERTEX
  8
0
  6
CONTINUOUS
 10
5.296280
 20
5.172640
  0
VERTEX
  8
0
  6
CONTINUOUS
 10
5.294520
 20
4.426400
  0
VERTEX
  8
0
  6
CONTINUOUS
 10
5.256680
 20
4.447080
  0
SEQEND
  8
0
  0
SOLID
  8
0
 62
    15
 10
5.294520
 20
4.426400
 11
5.296280
 21
5.172640
 12
5.338520
 22
4.412320
 13
5.339840
 23
5.158560
  0
POLYLINE
  8
0
  6
CONTINUOUS
 66
     1
 40
0.000000
 41
0.000000
  0
VERTEX
  8
0
  6
CONTINUOUS
 10
5.294520
 20
4.426400
  0
VERTEX
  8
0
  6
CONTINUOUS
 10
5.296280
 20
5.172640
  0
VERTEX
  8
0
  6
CONTINUOUS
 10
5.339840
 20
5.158560
  0
VERTEX
  8
0
  6
CONTINUOUS
 10
5.338520
 20
4.412320
  0
VERTEX
  8
0
  6
CONTINUOUS
 10
5.294520
 20
4.426400
  0
SEQEND
  8
0
  0
SOLID
  8
0
 62
    15
 10
5.387800
 20
4.407040
 11
5.389120
 21
5.153720
 12
5.387800
 22
4.230600
 13
5.389120
 23
4.977280
  0
POLYLINE
  8
0
  6
CONTINUOUS
 66
     1
 40
0.000000
 41
0.000000
  0
VERTEX
  8
0
  6
CONTINUOUS
 10
5.387800
 20
4.407040
  0
VERTEX
  8
0
  6
CONTINUOUS
 10
5.389120
 20
5.153720
  0
VERTEX
  8
0
  6
CONTINUOUS
 10
5.389120
 20
4.977280
  0
VERTEX
  8
0
  6
CONTINUOUS
 10
5.387800
 20
4.230600
  0
VERTEX
  8
0
  6
CONTINUOUS
 10
5.387800
 20
4.407040
  0
SEQEND
  8
0
  0
SOLID
  8
0
 62
    15
 10
5.338520
 20
4.412320
 11
5.339840
 21
5.158560
 12
5.387800
 22
4.407040
 13
5.389120
 23
5.153720
  0
POLYLINE
  8
0
  6
CONTINUOUS
 66
     1
 40
0.000000
 41
0.000000
  0
VERTEX
  8
0
  6
CONTINUOUS
 10
5.338520
 20
4.412320
  0
VERTEX
  8
0
  6
CONTINUOUS
 10
5.339840
 20
5.158560
  0
VERTEX
  8
0
  6
CONTINUOUS
 10
5.389120
 20
5.153720
  0
VERTEX
  8
0
  6
CONTINUOUS
 10
5.387800
 20
4.407040
  0
VERTEX
  8
0
  6
CONTINUOUS
 10
5.338520
 20
4.412320
  0
SEQEND
  8
0
  0
SOLID
  8
0
 62
    15
 10
5.387800
 20
4.230600
 11
5.389120
 21
4.977280
 12
5.387800
 22
4.229720
 13
5.389120
 23
4.976400
  0
POLYLINE
  8
0
  6
CONTINUOUS
 66
     1
 40
0.000000
 41
0.000000
  0
VERTEX
  8
0
  6
CONTINUOUS
 10
5.387800
 20
4.230600
  0
VERTEX
  8
0
  6
CONTINUOUS
 10
5.389120
 20
4.977280
  0
VERTEX
  8
0
  6
CONTINUOUS
 10
5.389120
 20
4.976400
  0
VERTEX
  8
0
  6
CONTINUOUS
 10
5.387800
 20
4.229720
  0
VERTEX
  8
0
  6
CONTINUOUS
 10
5.387800
 20
4.230600
  0
SEQEND
  8
0
  0
POLYLINE
  8
0
  6
CONTINUOUS
 66
     1
 40
0.000000
 41
0.000000
  0
VERTEX
  8
0
  6
CONTINUOUS
 10
5.387800
 20
4.229720
  0
VERTEX
  8
0
  6
CONTINUOUS
 10
2.863080
 20
4.229720
  0
VERTEX
  8
0
  6
CONTINUOUS
 10
2.863080
 20
5.123800
  0
VERTEX
  8
0
  6
CONTINUOUS
 10
3.708320
 20
5.123800
  0
VERTEX
  8
0
  6
CONTINUOUS
 10
3.722840
 20
5.072320
  0
VERTEX
  8
0
  6
CONTINUOUS
 10
3.741320
 20
5.022160
  0
VERTEX
  8
0
  6
CONTINUOUS
 10
3.763760
 20
4.973760
  0
VERTEX
  8
0
  6
CONTINUOUS
 10
3.789720
 20
4.927120
  0
VERTEX
  8
0
  6
CONTINUOUS
 10
3.819200
 20
4.883560
  0
VERTEX
  8
0
  6
CONTINUOUS
 10
3.852200
 20
4.842200
  0
VERTEX
  8
0
  6
CONTINUOUS
 10
3.888720
 20
4.804360
  0
VERTEX
  8
0
  6
CONTINUOUS
 10
3.928760
 20
4.769600
  0
VERTEX
  8
0
  6
CONTINUOUS
 10
3.971880
 20
4.738360
  0
VERTEX
  8
0
  6
CONTINUOUS
 10
4.018080
 20
4.711520
  0
VERTEX
  8
0
  6
CONTINUOUS
 10
4.067360
 20
4.688640
  0
VERTEX
  8
0
  6
CONTINUOUS
 10
4.119280
 20
4.670160
  0
VERTEX
  8
0
  6
CONTINUOUS
 10
4.174720
 20
4.656960
  0
VERTEX
  8
0
  6
CONTINUOUS
 10
4.232360
 20
4.648600
  0
VERTEX
  8
0
  6
CONTINUOUS
 10
4.292640
 20
4.645960
  0
VERTEX
  8
0
  6
CONTINUOUS
 10
4.355560
 20
4.649040
  0
VERTEX
  8
0
  6
CONTINUOUS
 10
4.366560
 20
4.718120
  0
VERTEX
  8
0
  6
CONTINUOUS
 10
4.390760
 20
4.779720
  0
VERTEX
  8
0
  6
CONTINUOUS
 10
4.425520
 20
4.833400
  0
VERTEX
  8
0
  6
CONTINUOUS
 10
4.469960
 20
4.878720
  0
VERTEX
  8
0
  6
CONTINUOUS
 10
4.521440
 20
4.914800
  0
VERTEX
  8
0
  6
CONTINUOUS
 10
4.578640
 20
4.942080
  0
VERTEX
  8
0
  6
CONTINUOUS
 10
4.639800
 20
4.959240
  0
VERTEX
  8
0
  6
CONTINUOUS
 10
4.702720
 20
4.965840
  0
VERTEX
  8
0
  6
CONTINUOUS
 10
4.765640
 20
4.961440
  0
VERTEX
  8
0
  6
CONTINUOUS
 10
4.826800
 20
4.946040
  0
VERTEX
  8
0
  6
CONTINUOUS
 10
4.884440
 20
4.918320
  0
VERTEX
  8
0
  6
CONTINUOUS
 10
4.936360
 20
4.878280
  0
VERTEX
  8
0
  6
CONTINUOUS
 10
4.981680
 20
4.825480
  0
VERTEX
  8
0
  6
CONTINUOUS
 10
5.000600
 20
4.794240
  0
VERTEX
  8
0
  6
CONTINUOUS
 10
5.017320
 20
4.759480
  0
VERTEX
  8
0
  6
CONTINUOUS
 10
5.031400
 20
4.721200
  0
VERTEX
  8
0
  6
CONTINUOUS
 10
5.042400
 20
4.679400
  0
VERTEX
  8
0
  6
CONTINUOUS
 10
5.050320
 20
4.634080
  0
VERTEX
  8
0
  6
CONTINUOUS
 10
5.054720
 20
4.584800
  0
VERTEX
  8
0
  6
CONTINUOUS
 10
5.165600
 20
4.584800
  0
VERTEX
  8
0
  6
CONTINUOUS
 10
5.169560
 20
4.559720
  0
VERTEX
  8
0
  6
CONTINUOUS
 10
5.181000
 20
4.531120
  0
VERTEX
  8
0
  6
CONTINUOUS
 10
5.199480
 20
4.501640
  0
VERTEX
  8
0
  6
CONTINUOUS
 10
5.225000
 20
4.473040
  0
VERTEX
  8
0
  6
CONTINUOUS
 10
5.256680
 20
4.447080
  0
VERTEX
  8
0
  6
CONTINUOUS
 10
5.294520
 20
4.426400
  0
VERTEX
  8
0
  6
CONTINUOUS
 10
5.338520
 20
4.412320
  0
VERTEX
  8
0
  6
CONTINUOUS
 10
5.387800
 20
4.407040
  0
VERTEX
  8
0
  6
CONTINUOUS
 10
5.387800
 20
4.230600
  0
VERTEX
  8
0
  6
CONTINUOUS
 10
5.387800
 20
4.229720
  0
SEQEND
  8
0
  0
TEXT
  8
0
 10
3.784880
 20
3.977600
 40
0.138052
  1
BA  1315
 41
1.000000
  7
SN0
 71
     0
 72
     5
 11
4.467214
 21
3.977600
  0
TEXT
  8
0
 10
3.675320
 20
3.785760
 40
0.138052
  1
7/8" x 2-1/2"
 41
1.000000
  7
SN0
 71
     0
 72
     5
 11
4.575926
 21
3.785760
  0
ENDSEC
  0
EOF
