  0
SECTION
  2
HEADER
  9
$ACADVER
  1
AC1006
  9
$EXTMIN
 10
3.440360
 20
1.447160
  9
$EXTMAX
 10
5.221480
 20
8.088520
  9
$LTSCALE
 40
0.044000
  9
$PDMODE
 70
    35
  9
$PDSIZE
 40
0.035200
  0
ENDSEC
  0
SECTION
  2
TABLES
  0
TABLE
  2
LTYPE
 70
     9
  0
LTYPE
  2
CONTINUOUS
 70
    64
  3
Solid line
 72
    65
 73
     0
 40
0.000000
  0
LTYPE
  2
DASHED
 70
    64
  3
__ __ __ __ __ __ __ __ __ __ __ __ __ __ __
 72
    65
 73
     2
 40
0.000330
 49
0.000220
 49
-0.000110
  0
LTYPE
  2
HIDDEN
 70
    64
  3
 _ _ _ _ _ _ _ _ _ _ _ _ _ _ _ _ _ _ _ _ _ _
 72
    65
 73
     2
 40
0.000165
 49
0.000110
 49
-0.000055
  0
LTYPE
  2
CENTER
 70
    64
  3
____ _ ____ _ ____ _ ____ _ ____ _ ____ _ ____
 72
    65
 73
     4
 40
0.000880
 49
0.000550
 49
-0.000110
 49
0.000110
 49
-0.000110
  0
LTYPE
  2
PHANTOM
 70
    64
  3
_____ _ _ _____ _ _ _____ _ _ _____ _ _ ____
 72
    65
 73
     6
 40
0.001100
 49
0.000550
 49
-0.000110
 49
0.000110
 49
-0.000110
 49
0.000110
 49
-0.000110
  0
LTYPE
  2
DOT
 70
    64
  3
...............................................
 72
    65
 73
     2
 40
0.000110
 49
0.000000
 49
-0.000110
  0
LTYPE
  2
DASHDOT
 70
    64
  3
__ . __ . __ . __ . __ . __ . __ . __ . __ . __
 72
    65
 73
     4
 40
0.000440
 49
0.000220
 49
-0.000110
 49
0.000000
 49
-0.000110
  0
LTYPE
  2
BORDER
 70
    64
  3
__ __ . __ __ . __ __ . __ __ . __ __ . __ __
 72
    65
 73
     6
 40
0.000770
 49
0.000220
 49
-0.000110
 49
0.000220
 49
-0.000110
 49
0.000000
 49
-0.000110
  0
LTYPE
  2
DIVIDE
 70
    64
  3
__ . . __ . . __ . . __ . . __ . . __ . . __
 72
    65
 73
     6
 40
0.000550
 49
0.000220
 49
-0.000110
 49
0.000000
 49
-0.000110
 49
0.000000
 49
-0.000110
  0
LTYPE
  2
DOTDOT
 70
    64
  3
 . .  . .  . .  . .  . .  . . 
 72
    65
 73
     5
 40
0.000242
 49
-0.000110
 49
0.000000
 49
-0.000110
 49
0.000000
 49
-0.000110
  0
ENDTAB
  0
TABLE
  2
STYLE
 70
     4
  0
STYLE
 70
     0
  2
SN0
 40
0.000000
 41
0.000440
 50
0.000000
 71
     0
 42
0.000000
  3
ROMAND
  0
STYLE
 70
    68
  2
SV0
 40
0.000000
 41
0.000440
 50
0.000000
 71
     0
 42
0.000000
  3
ROMAND
  0
STYLE
 70
     0
  2
SN1
 40
0.000000
 41
0.000440
 50
0.000000
 71
     0
 42
0.000000
  3
SCRIPTS
  0
STYLE
 70
    68
  2
SV1
 40
0.000000
 41
0.000440
 50
0.000000
 71
     0
 42
0.000000
  3
SCRIPTS
  0
ENDTAB
  0
TABLE
  2
LAYER
 70
     3
  0
LAYER
  2
FOREGROUND
 70
    64
 62
     7
  6
CONTINUOUS
  0
LAYER
  2
BACKGROUND
 70
    65
 62
    -7
  6
CONTINUOUS
  0
LAYER
  2
0
 70
    64
 62
     7
  6
CONTINUOUS
  0
ENDTAB
  0
ENDSEC
  0
SECTION
  2
ENTITIES
  0
POLYLINE
  8
FOREGROUND
  6
CONTINUOUS
 66
     1
 40
0.000000
 41
0.000000
  0
VERTEX
  8
FOREGROUND
  6
CONTINUOUS
 10
0.000000
 20
9.535680
  0
VERTEX
  8
FOREGROUND
  6
CONTINUOUS
 10
8.499920
 20
9.535680
  0
VERTEX
  8
FOREGROUND
  6
CONTINUOUS
 10
8.499920
 20
-1.464320
  0
VERTEX
  8
FOREGROUND
  6
CONTINUOUS
 10
0.000000
 20
-1.464320
  0
VERTEX
  8
FOREGROUND
  6
CONTINUOUS
 10
0.000000
 20
9.535680
  0
SEQEND
  8
0
  0
POLYLINE
  8
FOREGROUND
  6
CONTINUOUS
 66
     1
 40
0.000000
 41
0.000000
  0
VERTEX
  8
FOREGROUND
  6
CONTINUOUS
 10
0.000000
 20
9.535680
  0
VERTEX
  8
FOREGROUND
  6
CONTINUOUS
 10
8.499920
 20
9.535680
  0
VERTEX
  8
FOREGROUND
  6
CONTINUOUS
 10
8.499920
 20
-1.464320
  0
VERTEX
  8
FOREGROUND
  6
CONTINUOUS
 10
0.000000
 20
-1.464320
  0
VERTEX
  8
FOREGROUND
  6
CONTINUOUS
 10
0.000000
 20
9.535680
  0
SEQEND
  8
0
  0
POLYLINE
  8
0
  6
CONTINUOUS
 66
     1
 40
0.014080
 41
0.014080
  0
VERTEX
  8
0
  6
CONTINUOUS
 10
3.603600
 20
7.307520
  0
VERTEX
  8
0
  6
CONTINUOUS
 10
3.605800
 20
7.379240
  0
VERTEX
  8
0
  6
CONTINUOUS
 10
3.612400
 20
7.441720
  0
VERTEX
  8
0
  6
CONTINUOUS
 10
3.622960
 20
7.496280
  0
VERTEX
  8
0
  6
CONTINUOUS
 10
3.637040
 20
7.542920
  0
VERTEX
  8
0
  6
CONTINUOUS
 10
3.647600
 20
7.569760
  0
VERTEX
  8
0
  6
CONTINUOUS
 10
3.666520
 20
7.604080
  0
VERTEX
  8
0
  6
CONTINUOUS
 10
3.687200
 20
7.631800
  0
VERTEX
  8
0
  6
CONTINUOUS
 10
3.709640
 20
7.652920
  0
VERTEX
  8
0
  6
CONTINUOUS
 10
3.733840
 20
7.668760
  0
VERTEX
  8
0
  6
CONTINUOUS
 10
3.750120
 20
7.675800
  0
VERTEX
  8
0
  6
CONTINUOUS
 10
3.766840
 20
7.681080
  0
VERTEX
  8
0
  6
CONTINUOUS
 10
3.800720
 20
7.685040
  0
VERTEX
  8
0
  6
CONTINUOUS
 10
3.833720
 20
7.681080
  0
VERTEX
  8
0
  6
CONTINUOUS
 10
3.850000
 20
7.677120
  0
VERTEX
  8
0
  6
CONTINUOUS
 10
3.880360
 20
7.663920
  0
VERTEX
  8
0
  6
CONTINUOUS
 10
3.907640
 20
7.646320
  0
VERTEX
  8
0
  6
CONTINUOUS
 10
3.930520
 20
7.624760
  0
VERTEX
  8
0
  6
CONTINUOUS
 10
3.948560
 20
7.600120
  0
VERTEX
  8
0
  6
CONTINUOUS
 10
3.960000
 20
7.573720
  0
VERTEX
  8
0
  6
CONTINUOUS
 10
3.963080
 20
7.560520
  0
VERTEX
  8
0
  6
CONTINUOUS
 10
3.963960
 20
7.546880
  0
VERTEX
  8
0
  6
CONTINUOUS
 10
4.022920
 20
7.546880
  0
VERTEX
  8
0
  6
CONTINUOUS
 10
4.053720
 20
7.590000
  0
VERTEX
  8
0
  6
CONTINUOUS
 10
4.083200
 20
7.637960
  0
VERTEX
  8
0
  6
CONTINUOUS
 10
4.193640
 20
7.841240
  0
VERTEX
  8
0
  6
CONTINUOUS
 10
4.222240
 20
7.886560
  0
VERTEX
  8
0
  6
CONTINUOUS
 10
4.260080
 20
7.935400
  0
VERTEX
  8
0
  6
CONTINUOUS
 10
4.286040
 20
7.957840
  0
VERTEX
  8
0
  6
CONTINUOUS
 10
4.314200
 20
7.973680
  0
VERTEX
  8
0
  6
CONTINUOUS
 10
4.344120
 20
7.983800
  0
VERTEX
  8
0
  6
CONTINUOUS
 10
4.364800
 20
7.987320
  0
VERTEX
  8
0
  6
CONTINUOUS
 10
4.385480
 20
7.988640
  0
VERTEX
  8
0
  6
CONTINUOUS
 10
4.405720
 20
7.987320
  0
VERTEX
  8
0
  6
CONTINUOUS
 10
4.425520
 20
7.984240
  0
VERTEX
  8
0
  6
CONTINUOUS
 10
4.444440
 20
7.978960
  0
VERTEX
  8
0
  6
CONTINUOUS
 10
4.462480
 20
7.971920
  0
VERTEX
  8
0
  6
CONTINUOUS
 10
4.479200
 20
7.962680
  0
VERTEX
  8
0
  6
CONTINUOUS
 10
4.501200
 20
7.945960
  0
VERTEX
  8
0
  6
CONTINUOUS
 10
4.518360
 20
7.925720
  0
VERTEX
  8
0
  6
CONTINUOUS
 10
4.527160
 20
7.910320
  0
VERTEX
  8
0
  6
CONTINUOUS
 10
4.560160
 20
7.910320
  0
VERTEX
  8
0
  6
CONTINUOUS
 10
4.573360
 20
8.080600
  0
VERTEX
  8
0
  6
CONTINUOUS
 10
5.107080
 20
8.080600
  0
VERTEX
  8
0
  6
CONTINUOUS
 10
5.107080
 20
7.307520
  0
VERTEX
  8
0
  6
CONTINUOUS
 10
3.603600
 20
7.307520
  0
SEQEND
  8
0
  0
POLYLINE
  8
0
  6
CONTINUOUS
 66
     1
 40
0.000000
 41
0.000000
  0
VERTEX
  8
0
  6
CONTINUOUS
 10
3.440800
 20
1.932040
  0
VERTEX
  8
0
  6
CONTINUOUS
 10
3.443000
 20
2.003320
  0
VERTEX
  8
0
  6
CONTINUOUS
 10
3.449600
 20
2.066240
  0
VERTEX
  8
0
  6
CONTINUOUS
 10
3.460160
 20
2.120800
  0
VERTEX
  8
0
  6
CONTINUOUS
 10
3.474240
 20
2.167000
  0
VERTEX
  8
0
  6
CONTINUOUS
 10
3.490960
 20
2.206160
  0
VERTEX
  8
0
  6
CONTINUOUS
 10
3.510320
 20
2.238280
  0
VERTEX
  8
0
  6
CONTINUOUS
 10
3.531880
 20
2.263800
  0
VERTEX
  8
0
  6
CONTINUOUS
 10
3.554760
 20
2.283160
  0
VERTEX
  8
0
  6
CONTINUOUS
 10
3.571040
 20
2.292840
  0
VERTEX
  8
0
  6
CONTINUOUS
 10
3.587320
 20
2.300320
  0
VERTEX
  8
0
  6
CONTINUOUS
 10
3.604040
 20
2.305160
  0
VERTEX
  8
0
  6
CONTINUOUS
 10
3.621200
 20
2.308240
  0
VERTEX
  8
0
  6
CONTINUOUS
 10
3.637920
 20
2.309120
  0
VERTEX
  8
0
  6
CONTINUOUS
 10
3.654640
 20
2.308240
  0
VERTEX
  8
0
  6
CONTINUOUS
 10
3.670920
 20
2.305600
  0
VERTEX
  8
0
  6
CONTINUOUS
 10
3.702600
 20
2.295480
  0
VERTEX
  8
0
  6
CONTINUOUS
 10
3.731640
 20
2.280080
  0
VERTEX
  8
0
  6
CONTINUOUS
 10
3.757160
 20
2.260280
  0
VERTEX
  8
0
  6
CONTINUOUS
 10
3.777400
 20
2.236960
  0
VERTEX
  8
0
  6
CONTINUOUS
 10
3.792360
 20
2.211440
  0
VERTEX
  8
0
  6
CONTINUOUS
 10
3.800280
 20
2.184600
  0
VERTEX
  8
0
  6
CONTINUOUS
 10
3.801160
 20
2.170960
  0
VERTEX
  8
0
  6
CONTINUOUS
 10
3.860120
 20
2.170960
  0
VERTEX
  8
0
  6
CONTINUOUS
 10
3.890920
 20
2.214520
  0
VERTEX
  8
0
  6
CONTINUOUS
 10
3.920400
 20
2.262040
  0
VERTEX
  8
0
  6
CONTINUOUS
 10
4.031280
 20
2.465760
  0
VERTEX
  8
0
  6
CONTINUOUS
 10
4.059880
 20
2.511080
  0
VERTEX
  8
0
  6
CONTINUOUS
 10
4.089800
 20
2.551120
  0
VERTEX
  8
0
  6
CONTINUOUS
 10
4.114440
 20
2.575320
  0
VERTEX
  8
0
  6
CONTINUOUS
 10
4.142160
 20
2.593360
  0
VERTEX
  8
0
  6
CONTINUOUS
 10
4.171640
 20
2.605240
  0
VERTEX
  8
0
  6
CONTINUOUS
 10
4.202440
 20
2.611400
  0
VERTEX
  8
0
  6
CONTINUOUS
 10
4.223120
 20
2.612720
  0
VERTEX
  8
0
  6
CONTINUOUS
 10
4.243360
 20
2.611400
  0
VERTEX
  8
0
  6
CONTINUOUS
 10
4.263160
 20
2.608320
  0
VERTEX
  8
0
  6
CONTINUOUS
 10
4.282080
 20
2.603040
  0
VERTEX
  8
0
  6
CONTINUOUS
 10
4.300120
 20
2.596000
  0
VERTEX
  8
0
  6
CONTINUOUS
 10
4.316840
 20
2.587200
  0
VERTEX
  8
0
  6
CONTINUOUS
 10
4.338840
 20
2.570480
  0
VERTEX
  8
0
  6
CONTINUOUS
 10
4.356000
 20
2.550240
  0
VERTEX
  8
0
  6
CONTINUOUS
 10
4.364800
 20
2.534840
  0
VERTEX
  8
0
  6
CONTINUOUS
 10
4.397360
 20
2.534840
  0
VERTEX
  8
0
  6
CONTINUOUS
 10
4.410560
 20
2.705120
  0
VERTEX
  8
0
  6
CONTINUOUS
 10
4.944720
 20
2.705120
  0
VERTEX
  8
0
  6
CONTINUOUS
 10
4.944720
 20
1.932040
  0
VERTEX
  8
0
  6
CONTINUOUS
 10
3.440800
 20
1.932040
  0
SEQEND
  8
0
  0
SOLID
  8
0
 62
    15
 10
3.889160
 20
5.098720
 11
4.531120
 21
5.468320
 12
3.932720
 22
5.067480
 13
4.574240
 23
5.437520
  0
POLYLINE
  8
0
  6
CONTINUOUS
 66
     1
 40
0.000000
 41
0.000000
  0
VERTEX
  8
0
  6
CONTINUOUS
 10
3.889160
 20
5.098720
  0
VERTEX
  8
0
  6
CONTINUOUS
 10
4.531120
 20
5.468320
  0
VERTEX
  8
0
  6
CONTINUOUS
 10
4.574240
 20
5.437520
  0
VERTEX
  8
0
  6
CONTINUOUS
 10
3.932720
 20
5.067480
  0
VERTEX
  8
0
  6
CONTINUOUS
 10
3.889160
 20
5.098720
  0
SEQEND
  8
0
  0
SOLID
  8
0
 62
    15
 10
3.698640
 20
5.517160
 11
4.340600
 21
5.886760
 12
3.743520
 22
5.514080
 13
4.385040
 23
5.883680
  0
POLYLINE
  8
0
  6
CONTINUOUS
 66
     1
 40
0.000000
 41
0.000000
  0
VERTEX
  8
0
  6
CONTINUOUS
 10
3.698640
 20
5.517160
  0
VERTEX
  8
0
  6
CONTINUOUS
 10
4.340600
 20
5.886760
  0
VERTEX
  8
0
  6
CONTINUOUS
 10
4.385040
 20
5.883680
  0
VERTEX
  8
0
  6
CONTINUOUS
 10
3.743520
 20
5.514080
  0
VERTEX
  8
0
  6
CONTINUOUS
 10
3.698640
 20
5.517160
  0
SEQEND
  8
0
  0
SOLID
  8
0
 62
    15
 10
3.743520
 20
5.514080
 11
4.385040
 21
5.883680
 12
3.784440
 22
5.509240
 13
4.425960
 23
5.878840
  0
POLYLINE
  8
0
  6
CONTINUOUS
 66
     1
 40
0.000000
 41
0.000000
  0
VERTEX
  8
0
  6
CONTINUOUS
 10
3.743520
 20
5.514080
  0
VERTEX
  8
0
  6
CONTINUOUS
 10
4.385040
 20
5.883680
  0
VERTEX
  8
0
  6
CONTINUOUS
 10
4.425960
 20
5.878840
  0
VERTEX
  8
0
  6
CONTINUOUS
 10
3.784440
 20
5.509240
  0
VERTEX
  8
0
  6
CONTINUOUS
 10
3.743520
 20
5.514080
  0
SEQEND
  8
0
  0
SOLID
  8
0
 62
    15
 10
3.784440
 20
5.509240
 11
4.425960
 21
5.878840
 12
3.821400
 22
5.502640
 13
4.463360
 23
5.872240
  0
POLYLINE
  8
0
  6
CONTINUOUS
 66
     1
 40
0.000000
 41
0.000000
  0
VERTEX
  8
0
  6
CONTINUOUS
 10
3.784440
 20
5.509240
  0
VERTEX
  8
0
  6
CONTINUOUS
 10
4.425960
 20
5.878840
  0
VERTEX
  8
0
  6
CONTINUOUS
 10
4.463360
 20
5.872240
  0
VERTEX
  8
0
  6
CONTINUOUS
 10
3.821400
 20
5.502640
  0
VERTEX
  8
0
  6
CONTINUOUS
 10
3.784440
 20
5.509240
  0
SEQEND
  8
0
  0
SOLID
  8
0
 62
    15
 10
3.821400
 20
5.502640
 11
4.463360
 21
5.872240
 12
3.855280
 22
5.494280
 13
4.496800
 23
5.864320
  0
POLYLINE
  8
0
  6
CONTINUOUS
 66
     1
 40
0.000000
 41
0.000000
  0
VERTEX
  8
0
  6
CONTINUOUS
 10
3.821400
 20
5.502640
  0
VERTEX
  8
0
  6
CONTINUOUS
 10
4.463360
 20
5.872240
  0
VERTEX
  8
0
  6
CONTINUOUS
 10
4.496800
 20
5.864320
  0
VERTEX
  8
0
  6
CONTINUOUS
 10
3.855280
 20
5.494280
  0
VERTEX
  8
0
  6
CONTINUOUS
 10
3.821400
 20
5.502640
  0
SEQEND
  8
0
  0
SOLID
  8
0
 62
    15
 10
3.855280
 20
5.494280
 11
4.496800
 21
5.864320
 12
3.885200
 22
5.484600
 13
4.527160
 23
5.854640
  0
POLYLINE
  8
0
  6
CONTINUOUS
 66
     1
 40
0.000000
 41
0.000000
  0
VERTEX
  8
0
  6
CONTINUOUS
 10
3.855280
 20
5.494280
  0
VERTEX
  8
0
  6
CONTINUOUS
 10
4.496800
 20
5.864320
  0
VERTEX
  8
0
  6
CONTINUOUS
 10
4.527160
 20
5.854640
  0
VERTEX
  8
0
  6
CONTINUOUS
 10
3.885200
 20
5.484600
  0
VERTEX
  8
0
  6
CONTINUOUS
 10
3.855280
 20
5.494280
  0
SEQEND
  8
0
  0
SOLID
  8
0
 62
    15
 10
3.885200
 20
5.484600
 11
4.527160
 21
5.854640
 12
3.935800
 22
5.461720
 13
4.577320
 23
5.831320
  0
POLYLINE
  8
0
  6
CONTINUOUS
 66
     1
 40
0.000000
 41
0.000000
  0
VERTEX
  8
0
  6
CONTINUOUS
 10
3.885200
 20
5.484600
  0
VERTEX
  8
0
  6
CONTINUOUS
 10
4.527160
 20
5.854640
  0
VERTEX
  8
0
  6
CONTINUOUS
 10
4.577320
 20
5.831320
  0
VERTEX
  8
0
  6
CONTINUOUS
 10
3.935800
 20
5.461720
  0
VERTEX
  8
0
  6
CONTINUOUS
 10
3.885200
 20
5.484600
  0
SEQEND
  8
0
  0
SOLID
  8
0
 62
    15
 10
3.935800
 20
5.461720
 11
4.577320
 21
5.831320
 12
3.974080
 22
5.434440
 13
4.616040
 23
5.804040
  0
POLYLINE
  8
0
  6
CONTINUOUS
 66
     1
 40
0.000000
 41
0.000000
  0
VERTEX
  8
0
  6
CONTINUOUS
 10
3.935800
 20
5.461720
  0
VERTEX
  8
0
  6
CONTINUOUS
 10
4.577320
 20
5.831320
  0
VERTEX
  8
0
  6
CONTINUOUS
 10
4.616040
 20
5.804040
  0
VERTEX
  8
0
  6
CONTINUOUS
 10
3.974080
 20
5.434440
  0
VERTEX
  8
0
  6
CONTINUOUS
 10
3.935800
 20
5.461720
  0
SEQEND
  8
0
  0
SOLID
  8
0
 62
    15
 10
3.974080
 20
5.434440
 11
4.616040
 21
5.804040
 12
4.001360
 22
5.404080
 13
4.642880
 23
5.773680
  0
POLYLINE
  8
0
  6
CONTINUOUS
 66
     1
 40
0.000000
 41
0.000000
  0
VERTEX
  8
0
  6
CONTINUOUS
 10
3.974080
 20
5.434440
  0
VERTEX
  8
0
  6
CONTINUOUS
 10
4.616040
 20
5.804040
  0
VERTEX
  8
0
  6
CONTINUOUS
 10
4.642880
 20
5.773680
  0
VERTEX
  8
0
  6
CONTINUOUS
 10
4.001360
 20
5.404080
  0
VERTEX
  8
0
  6
CONTINUOUS
 10
3.974080
 20
5.434440
  0
SEQEND
  8
0
  0
SOLID
  8
0
 62
    15
 10
4.001360
 20
5.404080
 11
4.642880
 21
5.773680
 12
4.018520
 22
5.371520
 13
4.660040
 23
5.741120
  0
POLYLINE
  8
0
  6
CONTINUOUS
 66
     1
 40
0.000000
 41
0.000000
  0
VERTEX
  8
0
  6
CONTINUOUS
 10
4.001360
 20
5.404080
  0
VERTEX
  8
0
  6
CONTINUOUS
 10
4.642880
 20
5.773680
  0
VERTEX
  8
0
  6
CONTINUOUS
 10
4.660040
 20
5.741120
  0
VERTEX
  8
0
  6
CONTINUOUS
 10
4.018520
 20
5.371520
  0
VERTEX
  8
0
  6
CONTINUOUS
 10
4.001360
 20
5.404080
  0
SEQEND
  8
0
  0
SOLID
  8
0
 62
    15
 10
4.018520
 20
5.371520
 11
4.660040
 21
5.741120
 12
4.026440
 22
5.337640
 13
4.668400
 23
5.707680
  0
POLYLINE
  8
0
  6
CONTINUOUS
 66
     1
 40
0.000000
 41
0.000000
  0
VERTEX
  8
0
  6
CONTINUOUS
 10
4.018520
 20
5.371520
  0
VERTEX
  8
0
  6
CONTINUOUS
 10
4.660040
 20
5.741120
  0
VERTEX
  8
0
  6
CONTINUOUS
 10
4.668400
 20
5.707680
  0
VERTEX
  8
0
  6
CONTINUOUS
 10
4.026440
 20
5.337640
  0
VERTEX
  8
0
  6
CONTINUOUS
 10
4.018520
 20
5.371520
  0
SEQEND
  8
0
  0
SOLID
  8
0
 62
    15
 10
4.026440
 20
5.337640
 11
4.668400
 21
5.707680
 12
4.026440
 22
5.304200
 13
4.668400
 23
5.673800
  0
POLYLINE
  8
0
  6
CONTINUOUS
 66
     1
 40
0.000000
 41
0.000000
  0
VERTEX
  8
0
  6
CONTINUOUS
 10
4.026440
 20
5.337640
  0
VERTEX
  8
0
  6
CONTINUOUS
 10
4.668400
 20
5.707680
  0
VERTEX
  8
0
  6
CONTINUOUS
 10
4.668400
 20
5.673800
  0
VERTEX
  8
0
  6
CONTINUOUS
 10
4.026440
 20
5.304200
  0
VERTEX
  8
0
  6
CONTINUOUS
 10
4.026440
 20
5.337640
  0
SEQEND
  8
0
  0
SOLID
  8
0
 62
    15
 10
4.026440
 20
5.304200
 11
4.668400
 21
5.673800
 12
4.019400
 22
5.271640
 13
4.661360
 23
5.641240
  0
POLYLINE
  8
0
  6
CONTINUOUS
 66
     1
 40
0.000000
 41
0.000000
  0
VERTEX
  8
0
  6
CONTINUOUS
 10
4.026440
 20
5.304200
  0
VERTEX
  8
0
  6
CONTINUOUS
 10
4.668400
 20
5.673800
  0
VERTEX
  8
0
  6
CONTINUOUS
 10
4.661360
 20
5.641240
  0
VERTEX
  8
0
  6
CONTINUOUS
 10
4.019400
 20
5.271640
  0
VERTEX
  8
0
  6
CONTINUOUS
 10
4.026440
 20
5.304200
  0
SEQEND
  8
0
  0
SOLID
  8
0
 62
    15
 10
4.019400
 20
5.271640
 11
4.661360
 21
5.641240
 12
4.006640
 22
5.241280
 13
4.648160
 23
5.610880
  0
POLYLINE
  8
0
  6
CONTINUOUS
 66
     1
 40
0.000000
 41
0.000000
  0
VERTEX
  8
0
  6
CONTINUOUS
 10
4.019400
 20
5.271640
  0
VERTEX
  8
0
  6
CONTINUOUS
 10
4.661360
 20
5.641240
  0
VERTEX
  8
0
  6
CONTINUOUS
 10
4.648160
 20
5.610880
  0
VERTEX
  8
0
  6
CONTINUOUS
 10
4.006640
 20
5.241280
  0
VERTEX
  8
0
  6
CONTINUOUS
 10
4.019400
 20
5.271640
  0
SEQEND
  8
0
  0
SOLID
  8
0
 62
    15
 10
3.889160
 20
5.157680
 11
4.531120
 21
5.527280
 12
3.889160
 22
5.098720
 13
4.531120
 23
5.468320
  0
POLYLINE
  8
0
  6
CONTINUOUS
 66
     1
 40
0.000000
 41
0.000000
  0
VERTEX
  8
0
  6
CONTINUOUS
 10
3.889160
 20
5.157680
  0
VERTEX
  8
0
  6
CONTINUOUS
 10
4.531120
 20
5.527280
  0
VERTEX
  8
0
  6
CONTINUOUS
 10
4.531120
 20
5.468320
  0
VERTEX
  8
0
  6
CONTINUOUS
 10
3.889160
 20
5.098720
  0
VERTEX
  8
0
  6
CONTINUOUS
 10
3.889160
 20
5.157680
  0
SEQEND
  8
0
  0
SOLID
  8
0
 62
    15
 10
3.988600
 20
5.214000
 11
4.630560
 21
5.583600
 12
3.967040
 22
5.190680
 13
4.608560
 23
5.560720
  0
POLYLINE
  8
0
  6
CONTINUOUS
 66
     1
 40
0.000000
 41
0.000000
  0
VERTEX
  8
0
  6
CONTINUOUS
 10
3.988600
 20
5.214000
  0
VERTEX
  8
0
  6
CONTINUOUS
 10
4.630560
 20
5.583600
  0
VERTEX
  8
0
  6
CONTINUOUS
 10
4.608560
 20
5.560720
  0
VERTEX
  8
0
  6
CONTINUOUS
 10
3.967040
 20
5.190680
  0
VERTEX
  8
0
  6
CONTINUOUS
 10
3.988600
 20
5.214000
  0
SEQEND
  8
0
  0
SOLID
  8
0
 62
    15
 10
3.967040
 20
5.190680
 11
4.608560
 21
5.560720
 12
3.942400
 22
5.173080
 13
4.584360
 23
5.542680
  0
POLYLINE
  8
0
  6
CONTINUOUS
 66
     1
 40
0.000000
 41
0.000000
  0
VERTEX
  8
0
  6
CONTINUOUS
 10
3.967040
 20
5.190680
  0
VERTEX
  8
0
  6
CONTINUOUS
 10
4.608560
 20
5.560720
  0
VERTEX
  8
0
  6
CONTINUOUS
 10
4.584360
 20
5.542680
  0
VERTEX
  8
0
  6
CONTINUOUS
 10
3.942400
 20
5.173080
  0
VERTEX
  8
0
  6
CONTINUOUS
 10
3.967040
 20
5.190680
  0
SEQEND
  8
0
  0
SOLID
  8
0
 62
    15
 10
4.006640
 20
5.241280
 11
4.648160
 21
5.610880
 12
3.988600
 22
5.214000
 13
4.630560
 23
5.583600
  0
POLYLINE
  8
0
  6
CONTINUOUS
 66
     1
 40
0.000000
 41
0.000000
  0
VERTEX
  8
0
  6
CONTINUOUS
 10
4.006640
 20
5.241280
  0
VERTEX
  8
0
  6
CONTINUOUS
 10
4.648160
 20
5.610880
  0
VERTEX
  8
0
  6
CONTINUOUS
 10
4.630560
 20
5.583600
  0
VERTEX
  8
0
  6
CONTINUOUS
 10
3.988600
 20
5.214000
  0
VERTEX
  8
0
  6
CONTINUOUS
 10
4.006640
 20
5.241280
  0
SEQEND
  8
0
  0
SOLID
  8
0
 62
    15
 10
3.650240
 20
5.518040
 11
4.291760
 21
5.887640
 12
3.698640
 22
5.517160
 13
4.340600
 23
5.886760
  0
POLYLINE
  8
0
  6
CONTINUOUS
 66
     1
 40
0.000000
 41
0.000000
  0
VERTEX
  8
0
  6
CONTINUOUS
 10
3.650240
 20
5.518040
  0
VERTEX
  8
0
  6
CONTINUOUS
 10
4.291760
 20
5.887640
  0
VERTEX
  8
0
  6
CONTINUOUS
 10
4.340600
 20
5.886760
  0
VERTEX
  8
0
  6
CONTINUOUS
 10
3.698640
 20
5.517160
  0
VERTEX
  8
0
  6
CONTINUOUS
 10
3.650240
 20
5.518040
  0
SEQEND
  8
0
  0
SOLID
  8
0
 62
    15
 10
3.932720
 20
5.067480
 11
4.574240
 21
5.437520
 12
3.980680
 22
5.038440
 13
4.622200
 23
5.408040
  0
POLYLINE
  8
0
  6
CONTINUOUS
 66
     1
 40
0.000000
 41
0.000000
  0
VERTEX
  8
0
  6
CONTINUOUS
 10
3.932720
 20
5.067480
  0
VERTEX
  8
0
  6
CONTINUOUS
 10
4.574240
 20
5.437520
  0
VERTEX
  8
0
  6
CONTINUOUS
 10
4.622200
 20
5.408040
  0
VERTEX
  8
0
  6
CONTINUOUS
 10
3.980680
 20
5.038440
  0
VERTEX
  8
0
  6
CONTINUOUS
 10
3.932720
 20
5.067480
  0
SEQEND
  8
0
  0
SOLID
  8
0
 62
    15
 10
3.980680
 20
5.038440
 11
4.622200
 21
5.408040
 12
4.031280
 22
5.010280
 13
4.672800
 23
5.379880
  0
POLYLINE
  8
0
  6
CONTINUOUS
 66
     1
 40
0.000000
 41
0.000000
  0
VERTEX
  8
0
  6
CONTINUOUS
 10
3.980680
 20
5.038440
  0
VERTEX
  8
0
  6
CONTINUOUS
 10
4.622200
 20
5.408040
  0
VERTEX
  8
0
  6
CONTINUOUS
 10
4.672800
 20
5.379880
  0
VERTEX
  8
0
  6
CONTINUOUS
 10
4.031280
 20
5.010280
  0
VERTEX
  8
0
  6
CONTINUOUS
 10
3.980680
 20
5.038440
  0
SEQEND
  8
0
  0
SOLID
  8
0
 62
    15
 10
4.031280
 20
5.010280
 11
4.672800
 21
5.379880
 12
4.056800
 22
4.996640
 13
4.698760
 23
5.366240
  0
POLYLINE
  8
0
  6
CONTINUOUS
 66
     1
 40
0.000000
 41
0.000000
  0
VERTEX
  8
0
  6
CONTINUOUS
 10
4.031280
 20
5.010280
  0
VERTEX
  8
0
  6
CONTINUOUS
 10
4.672800
 20
5.379880
  0
VERTEX
  8
0
  6
CONTINUOUS
 10
4.698760
 20
5.366240
  0
VERTEX
  8
0
  6
CONTINUOUS
 10
4.056800
 20
4.996640
  0
VERTEX
  8
0
  6
CONTINUOUS
 10
4.031280
 20
5.010280
  0
SEQEND
  8
0
  0
SOLID
  8
0
 62
    15
 10
4.056800
 20
4.996640
 11
4.698760
 21
5.366240
 12
4.083200
 22
4.982560
 13
4.724720
 23
5.352600
  0
POLYLINE
  8
0
  6
CONTINUOUS
 66
     1
 40
0.000000
 41
0.000000
  0
VERTEX
  8
0
  6
CONTINUOUS
 10
4.056800
 20
4.996640
  0
VERTEX
  8
0
  6
CONTINUOUS
 10
4.698760
 20
5.366240
  0
VERTEX
  8
0
  6
CONTINUOUS
 10
4.724720
 20
5.352600
  0
VERTEX
  8
0
  6
CONTINUOUS
 10
4.083200
 20
4.982560
  0
VERTEX
  8
0
  6
CONTINUOUS
 10
4.056800
 20
4.996640
  0
SEQEND
  8
0
  0
SOLID
  8
0
 62
    15
 10
4.083200
 20
4.982560
 11
4.724720
 21
5.352600
 12
4.183520
 22
4.927560
 13
4.825480
 23
5.297600
  0
POLYLINE
  8
0
  6
CONTINUOUS
 66
     1
 40
0.000000
 41
0.000000
  0
VERTEX
  8
0
  6
CONTINUOUS
 10
4.083200
 20
4.982560
  0
VERTEX
  8
0
  6
CONTINUOUS
 10
4.724720
 20
5.352600
  0
VERTEX
  8
0
  6
CONTINUOUS
 10
4.825480
 20
5.297600
  0
VERTEX
  8
0
  6
CONTINUOUS
 10
4.183520
 20
4.927560
  0
VERTEX
  8
0
  6
CONTINUOUS
 10
4.083200
 20
4.982560
  0
SEQEND
  8
0
  0
SOLID
  8
0
 62
    15
 10
4.183520
 20
4.927560
 11
4.825480
 21
5.297600
 12
4.229280
 22
4.898960
 13
4.870800
 23
5.269000
  0
POLYLINE
  8
0
  6
CONTINUOUS
 66
     1
 40
0.000000
 41
0.000000
  0
VERTEX
  8
0
  6
CONTINUOUS
 10
4.183520
 20
4.927560
  0
VERTEX
  8
0
  6
CONTINUOUS
 10
4.825480
 20
5.297600
  0
VERTEX
  8
0
  6
CONTINUOUS
 10
4.870800
 20
5.269000
  0
VERTEX
  8
0
  6
CONTINUOUS
 10
4.229280
 20
4.898960
  0
VERTEX
  8
0
  6
CONTINUOUS
 10
4.183520
 20
4.927560
  0
SEQEND
  8
0
  0
SOLID
  8
0
 62
    15
 10
4.229280
 20
4.898960
 11
4.870800
 21
5.269000
 12
4.269320
 22
4.869480
 13
4.910840
 23
5.239080
  0
POLYLINE
  8
0
  6
CONTINUOUS
 66
     1
 40
0.000000
 41
0.000000
  0
VERTEX
  8
0
  6
CONTINUOUS
 10
4.229280
 20
4.898960
  0
VERTEX
  8
0
  6
CONTINUOUS
 10
4.870800
 20
5.269000
  0
VERTEX
  8
0
  6
CONTINUOUS
 10
4.910840
 20
5.239080
  0
VERTEX
  8
0
  6
CONTINUOUS
 10
4.269320
 20
4.869480
  0
VERTEX
  8
0
  6
CONTINUOUS
 10
4.229280
 20
4.898960
  0
SEQEND
  8
0
  0
SOLID
  8
0
 62
    15
 10
4.269320
 20
4.869480
 11
4.910840
 21
5.239080
 12
4.300560
 22
4.835600
 13
4.942080
 23
5.205200
  0
POLYLINE
  8
0
  6
CONTINUOUS
 66
     1
 40
0.000000
 41
0.000000
  0
VERTEX
  8
0
  6
CONTINUOUS
 10
4.269320
 20
4.869480
  0
VERTEX
  8
0
  6
CONTINUOUS
 10
4.910840
 20
5.239080
  0
VERTEX
  8
0
  6
CONTINUOUS
 10
4.942080
 20
5.205200
  0
VERTEX
  8
0
  6
CONTINUOUS
 10
4.300560
 20
4.835600
  0
VERTEX
  8
0
  6
CONTINUOUS
 10
4.269320
 20
4.869480
  0
SEQEND
  8
0
  0
SOLID
  8
0
 62
    15
 10
4.300560
 20
4.835600
 11
4.942080
 21
5.205200
 12
4.320360
 22
4.797320
 13
4.961880
 23
5.166920
  0
POLYLINE
  8
0
  6
CONTINUOUS
 66
     1
 40
0.000000
 41
0.000000
  0
VERTEX
  8
0
  6
CONTINUOUS
 10
4.300560
 20
4.835600
  0
VERTEX
  8
0
  6
CONTINUOUS
 10
4.942080
 20
5.205200
  0
VERTEX
  8
0
  6
CONTINUOUS
 10
4.961880
 20
5.166920
  0
VERTEX
  8
0
  6
CONTINUOUS
 10
4.320360
 20
4.797320
  0
VERTEX
  8
0
  6
CONTINUOUS
 10
4.300560
 20
4.835600
  0
SEQEND
  8
0
  0
SOLID
  8
0
 62
    15
 10
4.320360
 20
4.797320
 11
4.961880
 21
5.166920
 12
4.329600
 22
4.756400
 13
4.971560
 23
5.126440
  0
POLYLINE
  8
0
  6
CONTINUOUS
 66
     1
 40
0.000000
 41
0.000000
  0
VERTEX
  8
0
  6
CONTINUOUS
 10
4.320360
 20
4.797320
  0
VERTEX
  8
0
  6
CONTINUOUS
 10
4.961880
 20
5.166920
  0
VERTEX
  8
0
  6
CONTINUOUS
 10
4.971560
 20
5.126440
  0
VERTEX
  8
0
  6
CONTINUOUS
 10
4.329600
 20
4.756400
  0
VERTEX
  8
0
  6
CONTINUOUS
 10
4.320360
 20
4.797320
  0
SEQEND
  8
0
  0
SOLID
  8
0
 62
    15
 10
4.329600
 20
4.756400
 11
4.971560
 21
5.126440
 12
4.330040
 22
4.715480
 13
4.971560
 23
5.085520
  0
POLYLINE
  8
0
  6
CONTINUOUS
 66
     1
 40
0.000000
 41
0.000000
  0
VERTEX
  8
0
  6
CONTINUOUS
 10
4.329600
 20
4.756400
  0
VERTEX
  8
0
  6
CONTINUOUS
 10
4.971560
 20
5.126440
  0
VERTEX
  8
0
  6
CONTINUOUS
 10
4.971560
 20
5.085520
  0
VERTEX
  8
0
  6
CONTINUOUS
 10
4.330040
 20
4.715480
  0
VERTEX
  8
0
  6
CONTINUOUS
 10
4.329600
 20
4.756400
  0
SEQEND
  8
0
  0
SOLID
  8
0
 62
    15
 10
4.330040
 20
4.715480
 11
4.971560
 21
5.085520
 12
4.321680
 22
4.676760
 13
4.963200
 23
5.046800
  0
POLYLINE
  8
0
  6
CONTINUOUS
 66
     1
 40
0.000000
 41
0.000000
  0
VERTEX
  8
0
  6
CONTINUOUS
 10
4.330040
 20
4.715480
  0
VERTEX
  8
0
  6
CONTINUOUS
 10
4.971560
 20
5.085520
  0
VERTEX
  8
0
  6
CONTINUOUS
 10
4.963200
 20
5.046800
  0
VERTEX
  8
0
  6
CONTINUOUS
 10
4.321680
 20
4.676760
  0
VERTEX
  8
0
  6
CONTINUOUS
 10
4.330040
 20
4.715480
  0
SEQEND
  8
0
  0
SOLID
  8
0
 62
    15
 10
4.321680
 20
4.676760
 11
4.963200
 21
5.046800
 12
4.305400
 22
4.642000
 13
4.946920
 23
5.012040
  0
POLYLINE
  8
0
  6
CONTINUOUS
 66
     1
 40
0.000000
 41
0.000000
  0
VERTEX
  8
0
  6
CONTINUOUS
 10
4.321680
 20
4.676760
  0
VERTEX
  8
0
  6
CONTINUOUS
 10
4.963200
 20
5.046800
  0
VERTEX
  8
0
  6
CONTINUOUS
 10
4.946920
 20
5.012040
  0
VERTEX
  8
0
  6
CONTINUOUS
 10
4.305400
 20
4.642000
  0
VERTEX
  8
0
  6
CONTINUOUS
 10
4.321680
 20
4.676760
  0
SEQEND
  8
0
  0
SOLID
  8
0
 62
    15
 10
4.305400
 20
4.642000
 11
4.946920
 21
5.012040
 12
4.282080
 22
4.613840
 13
4.923600
 23
4.983440
  0
POLYLINE
  8
0
  6
CONTINUOUS
 66
     1
 40
0.000000
 41
0.000000
  0
VERTEX
  8
0
  6
CONTINUOUS
 10
4.305400
 20
4.642000
  0
VERTEX
  8
0
  6
CONTINUOUS
 10
4.946920
 20
5.012040
  0
VERTEX
  8
0
  6
CONTINUOUS
 10
4.923600
 20
4.983440
  0
VERTEX
  8
0
  6
CONTINUOUS
 10
4.282080
 20
4.613840
  0
VERTEX
  8
0
  6
CONTINUOUS
 10
4.305400
 20
4.642000
  0
SEQEND
  8
0
  0
SOLID
  8
0
 62
    15
 10
4.282080
 20
4.613840
 11
4.923600
 21
4.983440
 12
4.253040
 22
4.594040
 13
4.894560
 23
4.964080
  0
POLYLINE
  8
0
  6
CONTINUOUS
 66
     1
 40
0.000000
 41
0.000000
  0
VERTEX
  8
0
  6
CONTINUOUS
 10
4.282080
 20
4.613840
  0
VERTEX
  8
0
  6
CONTINUOUS
 10
4.923600
 20
4.983440
  0
VERTEX
  8
0
  6
CONTINUOUS
 10
4.894560
 20
4.964080
  0
VERTEX
  8
0
  6
CONTINUOUS
 10
4.253040
 20
4.594040
  0
VERTEX
  8
0
  6
CONTINUOUS
 10
4.282080
 20
4.613840
  0
SEQEND
  8
0
  0
SOLID
  8
0
 62
    15
 10
4.253040
 20
4.594040
 11
4.894560
 21
4.964080
 12
4.253040
 22
4.561480
 13
4.894560
 23
4.931080
  0
POLYLINE
  8
0
  6
CONTINUOUS
 66
     1
 40
0.000000
 41
0.000000
  0
VERTEX
  8
0
  6
CONTINUOUS
 10
4.253040
 20
4.594040
  0
VERTEX
  8
0
  6
CONTINUOUS
 10
4.894560
 20
4.964080
  0
VERTEX
  8
0
  6
CONTINUOUS
 10
4.894560
 20
4.931080
  0
VERTEX
  8
0
  6
CONTINUOUS
 10
4.253040
 20
4.561480
  0
VERTEX
  8
0
  6
CONTINUOUS
 10
4.253040
 20
4.594040
  0
SEQEND
  8
0
  0
SOLID
  8
0
 62
    15
 10
4.253040
 20
4.561480
 11
4.894560
 21
4.931080
 12
4.423320
 22
4.548280
 13
5.064840
 23
4.917880
  0
POLYLINE
  8
0
  6
CONTINUOUS
 66
     1
 40
0.000000
 41
0.000000
  0
VERTEX
  8
0
  6
CONTINUOUS
 10
4.253040
 20
4.561480
  0
VERTEX
  8
0
  6
CONTINUOUS
 10
4.894560
 20
4.931080
  0
VERTEX
  8
0
  6
CONTINUOUS
 10
5.064840
 20
4.917880
  0
VERTEX
  8
0
  6
CONTINUOUS
 10
4.423320
 20
4.548280
  0
VERTEX
  8
0
  6
CONTINUOUS
 10
4.253040
 20
4.561480
  0
SEQEND
  8
0
  0
SOLID
  8
0
 62
    15
 10
4.423320
 20
4.548280
 11
5.064840
 21
4.917880
 12
4.423320
 22
4.014120
 13
5.064840
 23
4.384160
  0
POLYLINE
  8
0
  6
CONTINUOUS
 66
     1
 40
0.000000
 41
0.000000
  0
VERTEX
  8
0
  6
CONTINUOUS
 10
4.423320
 20
4.548280
  0
VERTEX
  8
0
  6
CONTINUOUS
 10
5.064840
 20
4.917880
  0
VERTEX
  8
0
  6
CONTINUOUS
 10
5.064840
 20
4.384160
  0
VERTEX
  8
0
  6
CONTINUOUS
 10
4.423320
 20
4.014120
  0
VERTEX
  8
0
  6
CONTINUOUS
 10
4.423320
 20
4.548280
  0
SEQEND
  8
0
  0
POLYLINE
  8
0
  6
CONTINUOUS
 66
     1
 40
0.000000
 41
0.000000
  0
VERTEX
  8
0
  6
CONTINUOUS
 10
3.650240
 20
5.518040
  0
VERTEX
  8
0
  6
CONTINUOUS
 10
3.698640
 20
5.517160
  0
VERTEX
  8
0
  6
CONTINUOUS
 10
3.743520
 20
5.514080
  0
VERTEX
  8
0
  6
CONTINUOUS
 10
3.784440
 20
5.509240
  0
VERTEX
  8
0
  6
CONTINUOUS
 10
3.821400
 20
5.502640
  0
VERTEX
  8
0
  6
CONTINUOUS
 10
3.855280
 20
5.494280
  0
VERTEX
  8
0
  6
CONTINUOUS
 10
3.885200
 20
5.484600
  0
VERTEX
  8
0
  6
CONTINUOUS
 10
3.935800
 20
5.461720
  0
VERTEX
  8
0
  6
CONTINUOUS
 10
3.974080
 20
5.434440
  0
VERTEX
  8
0
  6
CONTINUOUS
 10
4.001360
 20
5.404080
  0
VERTEX
  8
0
  6
CONTINUOUS
 10
4.018520
 20
5.371520
  0
VERTEX
  8
0
  6
CONTINUOUS
 10
4.026440
 20
5.337640
  0
VERTEX
  8
0
  6
CONTINUOUS
 10
4.026440
 20
5.304200
  0
VERTEX
  8
0
  6
CONTINUOUS
 10
4.019400
 20
5.271640
  0
VERTEX
  8
0
  6
CONTINUOUS
 10
4.006640
 20
5.241280
  0
VERTEX
  8
0
  6
CONTINUOUS
 10
3.988600
 20
5.214000
  0
VERTEX
  8
0
  6
CONTINUOUS
 10
3.967040
 20
5.190680
  0
VERTEX
  8
0
  6
CONTINUOUS
 10
3.942400
 20
5.173080
  0
VERTEX
  8
0
  6
CONTINUOUS
 10
3.916440
 20
5.161640
  0
VERTEX
  8
0
  6
CONTINUOUS
 10
3.889160
 20
5.157680
  0
VERTEX
  8
0
  6
CONTINUOUS
 10
3.889160
 20
5.098720
  0
VERTEX
  8
0
  6
CONTINUOUS
 10
3.932720
 20
5.067480
  0
VERTEX
  8
0
  6
CONTINUOUS
 10
3.980680
 20
5.038440
  0
VERTEX
  8
0
  6
CONTINUOUS
 10
4.031280
 20
5.010280
  0
VERTEX
  8
0
  6
CONTINUOUS
 10
4.056800
 20
4.996640
  0
VERTEX
  8
0
  6
CONTINUOUS
 10
4.083200
 20
4.982560
  0
VERTEX
  8
0
  6
CONTINUOUS
 10
4.183520
 20
4.927560
  0
VERTEX
  8
0
  6
CONTINUOUS
 10
4.229280
 20
4.898960
  0
VERTEX
  8
0
  6
CONTINUOUS
 10
4.269320
 20
4.869480
  0
VERTEX
  8
0
  6
CONTINUOUS
 10
4.300560
 20
4.835600
  0
VERTEX
  8
0
  6
CONTINUOUS
 10
4.320360
 20
4.797320
  0
VERTEX
  8
0
  6
CONTINUOUS
 10
4.329600
 20
4.756400
  0
VERTEX
  8
0
  6
CONTINUOUS
 10
4.330040
 20
4.715480
  0
VERTEX
  8
0
  6
CONTINUOUS
 10
4.321680
 20
4.676760
  0
VERTEX
  8
0
  6
CONTINUOUS
 10
4.305400
 20
4.642000
  0
VERTEX
  8
0
  6
CONTINUOUS
 10
4.282080
 20
4.613840
  0
VERTEX
  8
0
  6
CONTINUOUS
 10
4.253040
 20
4.594040
  0
VERTEX
  8
0
  6
CONTINUOUS
 10
4.253040
 20
4.561480
  0
VERTEX
  8
0
  6
CONTINUOUS
 10
4.423320
 20
4.548280
  0
VERTEX
  8
0
  6
CONTINUOUS
 10
4.423320
 20
4.014120
  0
VERTEX
  8
0
  6
CONTINUOUS
 10
3.650240
 20
4.014120
  0
VERTEX
  8
0
  6
CONTINUOUS
 10
3.650240
 20
5.518040
  0
SEQEND
  8
0
  0
TEXT
  8
0
 10
4.015880
 20
3.743960
 40
0.138201
  1
BA  1314
 41
1.000000
  7
SN0
 71
     0
 72
     5
 11
4.698280
 21
3.743960
  0
TEXT
  8
0
 10
3.860120
 20
3.552120
 40
0.138201
  1
3/4" x 2-9/16"
 41
1.000000
  7
SN0
 71
     0
 72
     5
 11
4.853335
 21
3.552120
  0
TEXT
  8
0
 10
3.894440
 20
1.675520
 40
0.138201
  1
BA  1314
 41
1.000000
  7
SN0
 71
     0
 72
     5
 11
4.576840
 21
1.675520
  0
TEXT
  8
0
 10
3.894440
 20
1.484120
 40
0.138201
  1
.77" x 1.5"
 41
1.000000
  7
SN0
 71
     0
 72
     5
 11
4.651223
 21
1.484120
  0
TEXT
  8
0
 10
5.137440
 20
2.533080
 40
0.126633
  1
F
 41
1.000000
  7
SN1
 71
     0
 72
     5
 11
5.230419
 21
2.533080
  0
TEXT
  8
0
 10
5.137440
 20
2.332000
 40
0.126633
  1
E
 41
1.000000
  7
SN1
 71
     0
 72
     5
 11
5.239053
 21
2.332000
  0
TEXT
  8
0
 10
5.137440
 20
2.130480
 40
0.126633
  1
N
 41
1.000000
  7
SN1
 71
     0
 72
     5
 11
5.247687
 21
2.130480
  0
TEXT
  8
0
 10
5.137440
 20
1.928960
 40
0.126633
  1
C
 41
1.000000
  7
SN1
 71
     0
 72
     5
 11
5.247355
 21
1.928960
  0
TEXT
  8
0
 10
5.137440
 20
1.727880
 40
0.126633
  1
E
 41
1.000000
  7
SN1
 71
     0
 72
     5
 11
5.239053
 21
1.727880
  0
TEXT
  8
0
 10
3.844280
 20
7.062440
 40
0.138201
  1
BA  1314
 41
1.000000
  7
SN0
 71
     0
 72
     5
 11
4.526680
 21
7.062440
  0
TEXT
  8
0
 10
3.844280
 20
6.870600
 40
0.138201
  1
3/4" x 2-9/16"
 41
1.000000
  7
SN0
 71
     0
 72
     5
 11
4.837495
 21
6.870600
  0
ENDSEC
  0
EOF
