  0
SECTION
  2
HEADER
  9
$ACADVER
  1
AC1006
  9
$EXTMIN
 10
2.317040
 20
1.426040
  9
$EXTMAX
 10
6.518600
 20
8.565480
  9
$LTSCALE
 40
0.044000
  9
$PDMODE
 70
    35
  9
$PDSIZE
 40
0.035200
  0
ENDSEC
  0
SECTION
  2
TABLES
  0
TABLE
  2
LTYPE
 70
     9
  0
LTYPE
  2
CONTINUOUS
 70
    64
  3
Solid line
 72
    65
 73
     0
 40
0.000000
  0
LTYPE
  2
DASHED
 70
    64
  3
__ __ __ __ __ __ __ __ __ __ __ __ __ __ __
 72
    65
 73
     2
 40
0.000330
 49
0.000220
 49
-0.000110
  0
LTYPE
  2
HIDDEN
 70
    64
  3
 _ _ _ _ _ _ _ _ _ _ _ _ _ _ _ _ _ _ _ _ _ _
 72
    65
 73
     2
 40
0.000165
 49
0.000110
 49
-0.000055
  0
LTYPE
  2
CENTER
 70
    64
  3
____ _ ____ _ ____ _ ____ _ ____ _ ____ _ ____
 72
    65
 73
     4
 40
0.000880
 49
0.000550
 49
-0.000110
 49
0.000110
 49
-0.000110
  0
LTYPE
  2
PHANTOM
 70
    64
  3
_____ _ _ _____ _ _ _____ _ _ _____ _ _ ____
 72
    65
 73
     6
 40
0.001100
 49
0.000550
 49
-0.000110
 49
0.000110
 49
-0.000110
 49
0.000110
 49
-0.000110
  0
LTYPE
  2
DOT
 70
    64
  3
...............................................
 72
    65
 73
     2
 40
0.000110
 49
0.000000
 49
-0.000110
  0
LTYPE
  2
DASHDOT
 70
    64
  3
__ . __ . __ . __ . __ . __ . __ . __ . __ . __
 72
    65
 73
     4
 40
0.000440
 49
0.000220
 49
-0.000110
 49
0.000000
 49
-0.000110
  0
LTYPE
  2
BORDER
 70
    64
  3
__ __ . __ __ . __ __ . __ __ . __ __ . __ __
 72
    65
 73
     6
 40
0.000770
 49
0.000220
 49
-0.000110
 49
0.000220
 49
-0.000110
 49
0.000000
 49
-0.000110
  0
LTYPE
  2
DIVIDE
 70
    64
  3
__ . . __ . . __ . . __ . . __ . . __ . . __
 72
    65
 73
     6
 40
0.000550
 49
0.000220
 49
-0.000110
 49
0.000000
 49
-0.000110
 49
0.000000
 49
-0.000110
  0
LTYPE
  2
DOTDOT
 70
    64
  3
 . .  . .  . .  . .  . .  . . 
 72
    65
 73
     5
 40
0.000242
 49
-0.000110
 49
0.000000
 49
-0.000110
 49
0.000000
 49
-0.000110
  0
ENDTAB
  0
TABLE
  2
STYLE
 70
     2
  0
STYLE
 70
     0
  2
SN0
 40
0.000000
 41
0.000440
 50
0.000000
 71
     0
 42
0.000000
  3
ROMAND
  0
STYLE
 70
    68
  2
SV0
 40
0.000000
 41
0.000440
 50
0.000000
 71
     0
 42
0.000000
  3
ROMAND
  0
ENDTAB
  0
TABLE
  2
LAYER
 70
     3
  0
LAYER
  2
FOREGROUND
 70
    64
 62
     7
  6
CONTINUOUS
  0
LAYER
  2
BACKGROUND
 70
    65
 62
    -7
  6
CONTINUOUS
  0
LAYER
  2
0
 70
    64
 62
     7
  6
CONTINUOUS
  0
ENDTAB
  0
ENDSEC
  0
SECTION
  2
ENTITIES
  0
POLYLINE
  8
FOREGROUND
  6
CONTINUOUS
 66
     1
 40
0.000000
 41
0.000000
  0
VERTEX
  8
FOREGROUND
  6
CONTINUOUS
 10
0.000000
 20
9.991520
  0
VERTEX
  8
FOREGROUND
  6
CONTINUOUS
 10
8.499920
 20
9.991520
  0
VERTEX
  8
FOREGROUND
  6
CONTINUOUS
 10
8.499920
 20
-1.008480
  0
VERTEX
  8
FOREGROUND
  6
CONTINUOUS
 10
0.000000
 20
-1.008480
  0
VERTEX
  8
FOREGROUND
  6
CONTINUOUS
 10
0.000000
 20
9.991520
  0
SEQEND
  8
0
  0
POLYLINE
  8
FOREGROUND
  6
CONTINUOUS
 66
     1
 40
0.000000
 41
0.000000
  0
VERTEX
  8
FOREGROUND
  6
CONTINUOUS
 10
0.000000
 20
9.991520
  0
VERTEX
  8
FOREGROUND
  6
CONTINUOUS
 10
8.499920
 20
9.991520
  0
VERTEX
  8
FOREGROUND
  6
CONTINUOUS
 10
8.499920
 20
-1.008480
  0
VERTEX
  8
FOREGROUND
  6
CONTINUOUS
 10
0.000000
 20
-1.008480
  0
VERTEX
  8
FOREGROUND
  6
CONTINUOUS
 10
0.000000
 20
9.991520
  0
SEQEND
  8
0
  0
TEXT
  8
0
 10
4.950440
 20
8.103040
 40
0.138094
  1
BA  1313
 41
1.000000
  7
SN0
 71
     0
 72
     5
 11
5.631900
 21
8.103040
  0
TEXT
  8
0
 10
4.840880
 20
7.901960
 40
0.138094
  1
3/4" x 3-3/4"
 41
1.000000
  7
SN0
 71
     0
 72
     5
 11
5.739379
 21
7.901960
  0
POLYLINE
  8
0
  6
CONTINUOUS
 66
     1
 40
0.014080
 41
0.014080
  0
VERTEX
  8
0
  6
CONTINUOUS
 10
6.145040
 20
7.806920
  0
VERTEX
  8
0
  6
CONTINUOUS
 10
3.087920
 20
7.806920
  0
VERTEX
  8
0
  6
CONTINUOUS
 10
2.663320
 20
8.202040
  0
VERTEX
  8
0
  6
CONTINUOUS
 10
3.019720
 20
8.555360
  0
VERTEX
  8
0
  6
CONTINUOUS
 10
3.068120
 20
8.511800
  0
VERTEX
  8
0
  6
CONTINUOUS
 10
3.144240
 20
8.455480
  0
VERTEX
  8
0
  6
CONTINUOUS
 10
3.208920
 20
8.415000
  0
VERTEX
  8
0
  6
CONTINUOUS
 10
3.279320
 20
8.375840
  0
VERTEX
  8
0
  6
CONTINUOUS
 10
3.355000
 20
8.339320
  0
VERTEX
  8
0
  6
CONTINUOUS
 10
3.407800
 20
8.316000
  0
VERTEX
  8
0
  6
CONTINUOUS
 10
3.462360
 20
8.294000
  0
VERTEX
  8
0
  6
CONTINUOUS
 10
3.518680
 20
8.273320
  0
VERTEX
  8
0
  6
CONTINUOUS
 10
3.576760
 20
8.253960
  0
VERTEX
  8
0
  6
CONTINUOUS
 10
3.695560
 20
8.220080
  0
VERTEX
  8
0
  6
CONTINUOUS
 10
3.756720
 20
8.205560
  0
VERTEX
  8
0
  6
CONTINUOUS
 10
3.880360
 20
8.182240
  0
VERTEX
  8
0
  6
CONTINUOUS
 10
3.942840
 20
8.173880
  0
VERTEX
  8
0
  6
CONTINUOUS
 10
4.005320
 20
8.167280
  0
VERTEX
  8
0
  6
CONTINUOUS
 10
4.067360
 20
8.162880
  0
VERTEX
  8
0
  6
CONTINUOUS
 10
4.129400
 20
8.160680
  0
VERTEX
  8
0
  6
CONTINUOUS
 10
4.191000
 20
8.161120
  0
VERTEX
  8
0
  6
CONTINUOUS
 10
4.282520
 20
8.166400
  0
VERTEX
  8
0
  6
CONTINUOUS
 10
4.341920
 20
8.173440
  0
VERTEX
  8
0
  6
CONTINUOUS
 10
4.400440
 20
8.183120
  0
VERTEX
  8
0
  6
CONTINUOUS
 10
4.457640
 20
8.195880
  0
VERTEX
  8
0
  6
CONTINUOUS
 10
4.540360
 20
8.220080
  0
VERTEX
  8
0
  6
CONTINUOUS
 10
4.618680
 20
8.251760
  0
VERTEX
  8
0
  6
CONTINUOUS
 10
4.668840
 20
8.277280
  0
VERTEX
  8
0
  6
CONTINUOUS
 10
4.716360
 20
8.305880
  0
VERTEX
  8
0
  6
CONTINUOUS
 10
4.739240
 20
8.321280
  0
VERTEX
  8
0
  6
CONTINUOUS
 10
4.739240
 20
8.337120
  0
VERTEX
  8
0
  6
CONTINUOUS
 10
4.742320
 20
8.366160
  0
VERTEX
  8
0
  6
CONTINUOUS
 10
4.748040
 20
8.391680
  0
VERTEX
  8
0
  6
CONTINUOUS
 10
4.761240
 20
8.423360
  0
VERTEX
  8
0
  6
CONTINUOUS
 10
4.772680
 20
8.440520
  0
VERTEX
  8
0
  6
CONTINUOUS
 10
4.793360
 20
8.460320
  0
VERTEX
  8
0
  6
CONTINUOUS
 10
4.817120
 20
8.473080
  0
VERTEX
  8
0
  6
CONTINUOUS
 10
4.833840
 20
8.478360
  0
VERTEX
  8
0
  6
CONTINUOUS
 10
4.851000
 20
8.481000
  0
VERTEX
  8
0
  6
CONTINUOUS
 10
4.868160
 20
8.481440
  0
VERTEX
  8
0
  6
CONTINUOUS
 10
4.885320
 20
8.479240
  0
VERTEX
  8
0
  6
CONTINUOUS
 10
4.902040
 20
8.474840
  0
VERTEX
  8
0
  6
CONTINUOUS
 10
4.917880
 20
8.468240
  0
VERTEX
  8
0
  6
CONTINUOUS
 10
4.932840
 20
8.459880
  0
VERTEX
  8
0
  6
CONTINUOUS
 10
4.946040
 20
8.449320
  0
VERTEX
  8
0
  6
CONTINUOUS
 10
5.039760
 20
8.542160
  0
VERTEX
  8
0
  6
CONTINUOUS
 10
5.100480
 20
8.489360
  0
VERTEX
  8
0
  6
CONTINUOUS
 10
5.166920
 20
8.439200
  0
VERTEX
  8
0
  6
CONTINUOUS
 10
5.238200
 20
8.395200
  0
VERTEX
  8
0
  6
CONTINUOUS
 10
5.288800
 20
8.370120
  0
VERTEX
  8
0
  6
CONTINUOUS
 10
5.341600
 20
8.349880
  0
VERTEX
  8
0
  6
CONTINUOUS
 10
5.368880
 20
8.341520
  0
VERTEX
  8
0
  6
CONTINUOUS
 10
5.424760
 20
8.329640
  0
VERTEX
  8
0
  6
CONTINUOUS
 10
5.481960
 20
8.324800
  0
VERTEX
  8
0
  6
CONTINUOUS
 10
5.511440
 20
8.325240
  0
VERTEX
  8
0
  6
CONTINUOUS
 10
5.541360
 20
8.327440
  0
VERTEX
  8
0
  6
CONTINUOUS
 10
5.571720
 20
8.331840
  0
VERTEX
  8
0
  6
CONTINUOUS
 10
5.602520
 20
8.338440
  0
VERTEX
  8
0
  6
CONTINUOUS
 10
5.649600
 20
8.352520
  0
VERTEX
  8
0
  6
CONTINUOUS
 10
5.697120
 20
8.372760
  0
VERTEX
  8
0
  6
CONTINUOUS
 10
5.745520
 20
8.398280
  0
VERTEX
  8
0
  6
CONTINUOUS
 10
5.811520
 20
8.442720
  0
VERTEX
  8
0
  6
CONTINUOUS
 10
5.878400
 20
8.499480
  0
VERTEX
  8
0
  6
CONTINUOUS
 10
5.929440
 20
8.550080
  0
VERTEX
  8
0
  6
CONTINUOUS
 10
6.413000
 20
8.079720
  0
VERTEX
  8
0
  6
CONTINUOUS
 10
6.145040
 20
7.805600
  0
VERTEX
  8
0
  6
CONTINUOUS
 10
6.145040
 20
7.806920
  0
SEQEND
  8
0
  0
POLYLINE
  8
0
  6
CONTINUOUS
 66
     1
 40
0.000000
 41
0.000000
  0
VERTEX
  8
0
  6
CONTINUOUS
 10
2.585880
 20
1.427800
  0
VERTEX
  8
0
  6
CONTINUOUS
 10
5.643000
 20
1.427800
  0
VERTEX
  8
0
  6
CONTINUOUS
 10
6.067600
 20
1.822920
  0
VERTEX
  8
0
  6
CONTINUOUS
 10
5.711200
 20
2.176240
  0
VERTEX
  8
0
  6
CONTINUOUS
 10
5.662800
 20
2.132680
  0
VERTEX
  8
0
  6
CONTINUOUS
 10
5.586680
 20
2.076360
  0
VERTEX
  8
0
  6
CONTINUOUS
 10
5.522000
 20
2.035880
  0
VERTEX
  8
0
  6
CONTINUOUS
 10
5.451600
 20
1.996720
  0
VERTEX
  8
0
  6
CONTINUOUS
 10
5.375920
 20
1.960200
  0
VERTEX
  8
0
  6
CONTINUOUS
 10
5.323120
 20
1.936880
  0
VERTEX
  8
0
  6
CONTINUOUS
 10
5.268560
 20
1.914880
  0
VERTEX
  8
0
  6
CONTINUOUS
 10
5.212240
 20
1.894200
  0
VERTEX
  8
0
  6
CONTINUOUS
 10
5.154160
 20
1.874840
  0
VERTEX
  8
0
  6
CONTINUOUS
 10
5.035360
 20
1.840960
  0
VERTEX
  8
0
  6
CONTINUOUS
 10
4.974200
 20
1.826440
  0
VERTEX
  8
0
  6
CONTINUOUS
 10
4.850560
 20
1.803120
  0
VERTEX
  8
0
  6
CONTINUOUS
 10
4.788080
 20
1.794760
  0
VERTEX
  8
0
  6
CONTINUOUS
 10
4.725600
 20
1.788160
  0
VERTEX
  8
0
  6
CONTINUOUS
 10
4.663560
 20
1.783760
  0
VERTEX
  8
0
  6
CONTINUOUS
 10
4.601520
 20
1.781560
  0
VERTEX
  8
0
  6
CONTINUOUS
 10
4.539920
 20
1.782000
  0
VERTEX
  8
0
  6
CONTINUOUS
 10
4.448400
 20
1.787280
  0
VERTEX
  8
0
  6
CONTINUOUS
 10
4.389000
 20
1.794320
  0
VERTEX
  8
0
  6
CONTINUOUS
 10
4.330480
 20
1.804000
  0
VERTEX
  8
0
  6
CONTINUOUS
 10
4.273280
 20
1.816760
  0
VERTEX
  8
0
  6
CONTINUOUS
 10
4.190560
 20
1.840960
  0
VERTEX
  8
0
  6
CONTINUOUS
 10
4.112240
 20
1.872640
  0
VERTEX
  8
0
  6
CONTINUOUS
 10
4.062080
 20
1.898160
  0
VERTEX
  8
0
  6
CONTINUOUS
 10
4.014560
 20
1.926760
  0
VERTEX
  8
0
  6
CONTINUOUS
 10
3.991680
 20
1.942160
  0
VERTEX
  8
0
  6
CONTINUOUS
 10
3.991680
 20
1.958000
  0
VERTEX
  8
0
  6
CONTINUOUS
 10
3.988600
 20
1.987040
  0
VERTEX
  8
0
  6
CONTINUOUS
 10
3.982880
 20
2.012560
  0
VERTEX
  8
0
  6
CONTINUOUS
 10
3.969680
 20
2.044240
  0
VERTEX
  8
0
  6
CONTINUOUS
 10
3.951640
 20
2.068880
  0
VERTEX
  8
0
  6
CONTINUOUS
 10
3.930080
 20
2.086040
  0
VERTEX
  8
0
  6
CONTINUOUS
 10
3.905880
 20
2.097480
  0
VERTEX
  8
0
  6
CONTINUOUS
 10
3.879920
 20
2.102320
  0
VERTEX
  8
0
  6
CONTINUOUS
 10
3.862760
 20
2.102320
  0
VERTEX
  8
0
  6
CONTINUOUS
 10
3.845600
 20
2.100120
  0
VERTEX
  8
0
  6
CONTINUOUS
 10
3.828880
 20
2.095720
  0
VERTEX
  8
0
  6
CONTINUOUS
 10
3.813040
 20
2.089120
  0
VERTEX
  8
0
  6
CONTINUOUS
 10
3.798080
 20
2.080760
  0
VERTEX
  8
0
  6
CONTINUOUS
 10
3.784880
 20
2.070200
  0
VERTEX
  8
0
  6
CONTINUOUS
 10
3.691160
 20
2.163480
  0
VERTEX
  8
0
  6
CONTINUOUS
 10
3.630440
 20
2.110680
  0
VERTEX
  8
0
  6
CONTINUOUS
 10
3.564000
 20
2.060520
  0
VERTEX
  8
0
  6
CONTINUOUS
 10
3.492720
 20
2.016080
  0
VERTEX
  8
0
  6
CONTINUOUS
 10
3.442120
 20
1.991000
  0
VERTEX
  8
0
  6
CONTINUOUS
 10
3.389320
 20
1.970760
  0
VERTEX
  8
0
  6
CONTINUOUS
 10
3.362040
 20
1.962400
  0
VERTEX
  8
0
  6
CONTINUOUS
 10
3.334320
 20
1.955800
  0
VERTEX
  8
0
  6
CONTINUOUS
 10
3.278000
 20
1.947440
  0
VERTEX
  8
0
  6
CONTINUOUS
 10
3.248960
 20
1.945680
  0
VERTEX
  8
0
  6
CONTINUOUS
 10
3.219480
 20
1.946120
  0
VERTEX
  8
0
  6
CONTINUOUS
 10
3.189560
 20
1.948320
  0
VERTEX
  8
0
  6
CONTINUOUS
 10
3.159200
 20
1.952720
  0
VERTEX
  8
0
  6
CONTINUOUS
 10
3.128400
 20
1.959320
  0
VERTEX
  8
0
  6
CONTINUOUS
 10
3.081320
 20
1.973840
  0
VERTEX
  8
0
  6
CONTINUOUS
 10
3.033800
 20
1.993640
  0
VERTEX
  8
0
  6
CONTINUOUS
 10
2.985400
 20
2.019600
  0
VERTEX
  8
0
  6
CONTINUOUS
 10
2.936120
 20
2.051720
  0
VERTEX
  8
0
  6
CONTINUOUS
 10
2.869240
 20
2.105400
  0
VERTEX
  8
0
  6
CONTINUOUS
 10
2.818640
 20
2.153800
  0
VERTEX
  8
0
  6
CONTINUOUS
 10
2.801480
 20
2.171400
  0
VERTEX
  8
0
  6
CONTINUOUS
 10
2.317920
 20
1.700600
  0
VERTEX
  8
0
  6
CONTINUOUS
 10
2.585880
 20
1.426480
  0
VERTEX
  8
0
  6
CONTINUOUS
 10
2.585880
 20
1.427800
  0
SEQEND
  8
0
  0
POLYLINE
  8
0
  6
CONTINUOUS
 66
     1
 40
0.000000
 41
0.000000
  0
VERTEX
  8
0
  6
CONTINUOUS
 10
5.837480
 20
2.858680
  0
VERTEX
  8
0
  6
CONTINUOUS
 10
2.780800
 20
2.858680
  0
VERTEX
  8
0
  6
CONTINUOUS
 10
2.355760
 20
3.253800
  0
VERTEX
  8
0
  6
CONTINUOUS
 10
2.712160
 20
3.607120
  0
VERTEX
  8
0
  6
CONTINUOUS
 10
2.761000
 20
3.563560
  0
VERTEX
  8
0
  6
CONTINUOUS
 10
2.837120
 20
3.507240
  0
VERTEX
  8
0
  6
CONTINUOUS
 10
2.901360
 20
3.466760
  0
VERTEX
  8
0
  6
CONTINUOUS
 10
2.972200
 20
3.427600
  0
VERTEX
  8
0
  6
CONTINUOUS
 10
3.047440
 20
3.391080
  0
VERTEX
  8
0
  6
CONTINUOUS
 10
3.155240
 20
3.345760
  0
VERTEX
  8
0
  6
CONTINUOUS
 10
3.269200
 20
3.305720
  0
VERTEX
  8
0
  6
CONTINUOUS
 10
3.388440
 20
3.271840
  0
VERTEX
  8
0
  6
CONTINUOUS
 10
3.449600
 20
3.257320
  0
VERTEX
  8
0
  6
CONTINUOUS
 10
3.573240
 20
3.234000
  0
VERTEX
  8
0
  6
CONTINUOUS
 10
3.635280
 20
3.225640
  0
VERTEX
  8
0
  6
CONTINUOUS
 10
3.697760
 20
3.219040
  0
VERTEX
  8
0
  6
CONTINUOUS
 10
3.760240
 20
3.214640
  0
VERTEX
  8
0
  6
CONTINUOUS
 10
3.822280
 20
3.212440
  0
VERTEX
  8
0
  6
CONTINUOUS
 10
3.883880
 20
3.212880
  0
VERTEX
  8
0
  6
CONTINUOUS
 10
3.974960
 20
3.218160
  0
VERTEX
  8
0
  6
CONTINUOUS
 10
4.034360
 20
3.225200
  0
VERTEX
  8
0
  6
CONTINUOUS
 10
4.092880
 20
3.234880
  0
VERTEX
  8
0
  6
CONTINUOUS
 10
4.178240
 20
3.255120
  0
VERTEX
  8
0
  6
CONTINUOUS
 10
4.232800
 20
3.271840
  0
VERTEX
  8
0
  6
CONTINUOUS
 10
4.311560
 20
3.303520
  0
VERTEX
  8
0
  6
CONTINUOUS
 10
4.385480
 20
3.342680
  0
VERTEX
  8
0
  6
CONTINUOUS
 10
4.431680
 20
3.373040
  0
VERTEX
  8
0
  6
CONTINUOUS
 10
4.433000
 20
3.403840
  0
VERTEX
  8
0
  6
CONTINUOUS
 10
4.437400
 20
3.431120
  0
VERTEX
  8
0
  6
CONTINUOUS
 10
4.444440
 20
3.454880
  0
VERTEX
  8
0
  6
CONTINUOUS
 10
4.459400
 20
3.484360
  0
VERTEX
  8
0
  6
CONTINUOUS
 10
4.478760
 20
3.506360
  0
VERTEX
  8
0
  6
CONTINUOUS
 10
4.501640
 20
3.521760
  0
VERTEX
  8
0
  6
CONTINUOUS
 10
4.526280
 20
3.530560
  0
VERTEX
  8
0
  6
CONTINUOUS
 10
4.543880
 20
3.533200
  0
VERTEX
  8
0
  6
CONTINUOUS
 10
4.561040
 20
3.533200
  0
VERTEX
  8
0
  6
CONTINUOUS
 10
4.578200
 20
3.531000
  0
VERTEX
  8
0
  6
CONTINUOUS
 10
4.594920
 20
3.526600
  0
VERTEX
  8
0
  6
CONTINUOUS
 10
4.610760
 20
3.520000
  0
VERTEX
  8
0
  6
CONTINUOUS
 10
4.625720
 20
3.511640
  0
VERTEX
  8
0
  6
CONTINUOUS
 10
4.638920
 20
3.501080
  0
VERTEX
  8
0
  6
CONTINUOUS
 10
4.732640
 20
3.594360
  0
VERTEX
  8
0
  6
CONTINUOUS
 10
4.793360
 20
3.541560
  0
VERTEX
  8
0
  6
CONTINUOUS
 10
4.859800
 20
3.491400
  0
VERTEX
  8
0
  6
CONTINUOUS
 10
4.931080
 20
3.446960
  0
VERTEX
  8
0
  6
CONTINUOUS
 10
4.981680
 20
3.421880
  0
VERTEX
  8
0
  6
CONTINUOUS
 10
5.034480
 20
3.401640
  0
VERTEX
  8
0
  6
CONTINUOUS
 10
5.061760
 20
3.393280
  0
VERTEX
  8
0
  6
CONTINUOUS
 10
5.089480
 20
3.386680
  0
VERTEX
  8
0
  6
CONTINUOUS
 10
5.145800
 20
3.378320
  0
VERTEX
  8
0
  6
CONTINUOUS
 10
5.174840
 20
3.376560
  0
VERTEX
  8
0
  6
CONTINUOUS
 10
5.204320
 20
3.377000
  0
VERTEX
  8
0
  6
CONTINUOUS
 10
5.234240
 20
3.379200
  0
VERTEX
  8
0
  6
CONTINUOUS
 10
5.264600
 20
3.383600
  0
VERTEX
  8
0
  6
CONTINUOUS
 10
5.295400
 20
3.390200
  0
VERTEX
  8
0
  6
CONTINUOUS
 10
5.342480
 20
3.404720
  0
VERTEX
  8
0
  6
CONTINUOUS
 10
5.390000
 20
3.424520
  0
VERTEX
  8
0
  6
CONTINUOUS
 10
5.438400
 20
3.450480
  0
VERTEX
  8
0
  6
CONTINUOUS
 10
5.487680
 20
3.482600
  0
VERTEX
  8
0
  6
CONTINUOUS
 10
5.554560
 20
3.536280
  0
VERTEX
  8
0
  6
CONTINUOUS
 10
5.605160
 20
3.584680
  0
VERTEX
  8
0
  6
CONTINUOUS
 10
5.622320
 20
3.602280
  0
VERTEX
  8
0
  6
CONTINUOUS
 10
6.105880
 20
3.131480
  0
VERTEX
  8
0
  6
CONTINUOUS
 10
5.837480
 20
2.857360
  0
VERTEX
  8
0
  6
CONTINUOUS
 10
5.837480
 20
2.858680
  0
SEQEND
  8
0
  0
SOLID
  8
0
 62
    15
 10
4.217400
 20
5.633320
 11
4.849680
 21
5.283520
 12
4.208600
 22
5.598120
 13
4.841320
 23
5.248320
  0
POLYLINE
  8
0
  6
CONTINUOUS
 66
     1
 40
0.000000
 41
0.000000
  0
VERTEX
  8
0
  6
CONTINUOUS
 10
4.217400
 20
5.633320
  0
VERTEX
  8
0
  6
CONTINUOUS
 10
4.849680
 20
5.283520
  0
VERTEX
  8
0
  6
CONTINUOUS
 10
4.841320
 20
5.248320
  0
VERTEX
  8
0
  6
CONTINUOUS
 10
4.208600
 20
5.598120
  0
VERTEX
  8
0
  6
CONTINUOUS
 10
4.217400
 20
5.633320
  0
SEQEND
  8
0
  0
SOLID
  8
0
 62
    15
 10
5.544000
 20
6.804160
 11
6.176280
 21
6.454360
 12
5.456000
 22
6.798440
 13
6.088280
 23
6.448640
  0
POLYLINE
  8
0
  6
CONTINUOUS
 66
     1
 40
0.000000
 41
0.000000
  0
VERTEX
  8
0
  6
CONTINUOUS
 10
5.544000
 20
6.804160
  0
VERTEX
  8
0
  6
CONTINUOUS
 10
6.176280
 20
6.454360
  0
VERTEX
  8
0
  6
CONTINUOUS
 10
6.088280
 20
6.448640
  0
VERTEX
  8
0
  6
CONTINUOUS
 10
5.456000
 20
6.798440
  0
VERTEX
  8
0
  6
CONTINUOUS
 10
5.544000
 20
6.804160
  0
SEQEND
  8
0
  0
SOLID
  8
0
 62
    15
 10
5.456000
 20
6.798440
 11
6.088280
 21
6.448640
 12
5.360520
 22
6.782600
 13
5.993240
 23
6.432800
  0
POLYLINE
  8
0
  6
CONTINUOUS
 66
     1
 40
0.000000
 41
0.000000
  0
VERTEX
  8
0
  6
CONTINUOUS
 10
5.456000
 20
6.798440
  0
VERTEX
  8
0
  6
CONTINUOUS
 10
6.088280
 20
6.448640
  0
VERTEX
  8
0
  6
CONTINUOUS
 10
5.993240
 20
6.432800
  0
VERTEX
  8
0
  6
CONTINUOUS
 10
5.360520
 20
6.782600
  0
VERTEX
  8
0
  6
CONTINUOUS
 10
5.456000
 20
6.798440
  0
SEQEND
  8
0
  0
SOLID
  8
0
 62
    15
 10
5.360520
 20
6.782600
 11
5.993240
 21
6.432800
 12
5.153720
 22
6.721880
 13
5.786000
 23
6.372080
  0
POLYLINE
  8
0
  6
CONTINUOUS
 66
     1
 40
0.000000
 41
0.000000
  0
VERTEX
  8
0
  6
CONTINUOUS
 10
5.360520
 20
6.782600
  0
VERTEX
  8
0
  6
CONTINUOUS
 10
5.993240
 20
6.432800
  0
VERTEX
  8
0
  6
CONTINUOUS
 10
5.786000
 20
6.372080
  0
VERTEX
  8
0
  6
CONTINUOUS
 10
5.153720
 20
6.721880
  0
VERTEX
  8
0
  6
CONTINUOUS
 10
5.360520
 20
6.782600
  0
SEQEND
  8
0
  0
SOLID
  8
0
 62
    15
 10
5.153720
 20
6.721880
 11
5.786000
 21
6.372080
 12
4.935920
 22
6.626400
 13
5.568640
 23
6.276600
  0
POLYLINE
  8
0
  6
CONTINUOUS
 66
     1
 40
0.000000
 41
0.000000
  0
VERTEX
  8
0
  6
CONTINUOUS
 10
5.153720
 20
6.721880
  0
VERTEX
  8
0
  6
CONTINUOUS
 10
5.786000
 20
6.372080
  0
VERTEX
  8
0
  6
CONTINUOUS
 10
5.568640
 20
6.276600
  0
VERTEX
  8
0
  6
CONTINUOUS
 10
4.935920
 20
6.626400
  0
VERTEX
  8
0
  6
CONTINUOUS
 10
5.153720
 20
6.721880
  0
SEQEND
  8
0
  0
SOLID
  8
0
 62
    15
 10
4.935920
 20
6.626400
 11
5.568640
 21
6.276600
 12
4.721200
 22
6.499680
 13
5.353920
 23
6.150320
  0
POLYLINE
  8
0
  6
CONTINUOUS
 66
     1
 40
0.000000
 41
0.000000
  0
VERTEX
  8
0
  6
CONTINUOUS
 10
4.935920
 20
6.626400
  0
VERTEX
  8
0
  6
CONTINUOUS
 10
5.568640
 20
6.276600
  0
VERTEX
  8
0
  6
CONTINUOUS
 10
5.353920
 20
6.150320
  0
VERTEX
  8
0
  6
CONTINUOUS
 10
4.721200
 20
6.499680
  0
VERTEX
  8
0
  6
CONTINUOUS
 10
4.935920
 20
6.626400
  0
SEQEND
  8
0
  0
SOLID
  8
0
 62
    15
 10
4.721200
 20
6.499680
 11
5.353920
 21
6.150320
 12
4.522760
 22
6.346120
 13
5.155480
 23
5.996320
  0
POLYLINE
  8
0
  6
CONTINUOUS
 66
     1
 40
0.000000
 41
0.000000
  0
VERTEX
  8
0
  6
CONTINUOUS
 10
4.721200
 20
6.499680
  0
VERTEX
  8
0
  6
CONTINUOUS
 10
5.353920
 20
6.150320
  0
VERTEX
  8
0
  6
CONTINUOUS
 10
5.155480
 20
5.996320
  0
VERTEX
  8
0
  6
CONTINUOUS
 10
4.522760
 20
6.346120
  0
VERTEX
  8
0
  6
CONTINUOUS
 10
4.721200
 20
6.499680
  0
SEQEND
  8
0
  0
SOLID
  8
0
 62
    15
 10
4.522760
 20
6.346120
 11
5.155480
 21
5.996320
 12
4.353800
 22
6.169240
 13
4.986080
 23
5.819440
  0
POLYLINE
  8
0
  6
CONTINUOUS
 66
     1
 40
0.000000
 41
0.000000
  0
VERTEX
  8
0
  6
CONTINUOUS
 10
4.522760
 20
6.346120
  0
VERTEX
  8
0
  6
CONTINUOUS
 10
5.155480
 20
5.996320
  0
VERTEX
  8
0
  6
CONTINUOUS
 10
4.986080
 20
5.819440
  0
VERTEX
  8
0
  6
CONTINUOUS
 10
4.353800
 20
6.169240
  0
VERTEX
  8
0
  6
CONTINUOUS
 10
4.522760
 20
6.346120
  0
SEQEND
  8
0
  0
SOLID
  8
0
 62
    15
 10
4.353800
 20
6.169240
 11
4.986080
 21
5.819440
 12
4.284280
 22
6.073320
 13
4.917000
 23
5.723520
  0
POLYLINE
  8
0
  6
CONTINUOUS
 66
     1
 40
0.000000
 41
0.000000
  0
VERTEX
  8
0
  6
CONTINUOUS
 10
4.353800
 20
6.169240
  0
VERTEX
  8
0
  6
CONTINUOUS
 10
4.986080
 20
5.819440
  0
VERTEX
  8
0
  6
CONTINUOUS
 10
4.917000
 20
5.723520
  0
VERTEX
  8
0
  6
CONTINUOUS
 10
4.284280
 20
6.073320
  0
VERTEX
  8
0
  6
CONTINUOUS
 10
4.353800
 20
6.169240
  0
SEQEND
  8
0
  0
SOLID
  8
0
 62
    15
 10
4.284280
 20
6.073320
 11
4.917000
 21
5.723520
 12
4.227520
 22
5.973000
 13
4.859800
 23
5.623200
  0
POLYLINE
  8
0
  6
CONTINUOUS
 66
     1
 40
0.000000
 41
0.000000
  0
VERTEX
  8
0
  6
CONTINUOUS
 10
4.284280
 20
6.073320
  0
VERTEX
  8
0
  6
CONTINUOUS
 10
4.917000
 20
5.723520
  0
VERTEX
  8
0
  6
CONTINUOUS
 10
4.859800
 20
5.623200
  0
VERTEX
  8
0
  6
CONTINUOUS
 10
4.227520
 20
5.973000
  0
VERTEX
  8
0
  6
CONTINUOUS
 10
4.284280
 20
6.073320
  0
SEQEND
  8
0
  0
SOLID
  8
0
 62
    15
 10
4.227520
 20
5.973000
 11
4.859800
 21
5.623200
 12
4.184400
 22
5.868720
 13
4.817120
 23
5.518920
  0
POLYLINE
  8
0
  6
CONTINUOUS
 66
     1
 40
0.000000
 41
0.000000
  0
VERTEX
  8
0
  6
CONTINUOUS
 10
4.227520
 20
5.973000
  0
VERTEX
  8
0
  6
CONTINUOUS
 10
4.859800
 20
5.623200
  0
VERTEX
  8
0
  6
CONTINUOUS
 10
4.817120
 20
5.518920
  0
VERTEX
  8
0
  6
CONTINUOUS
 10
4.184400
 20
5.868720
  0
VERTEX
  8
0
  6
CONTINUOUS
 10
4.227520
 20
5.973000
  0
SEQEND
  8
0
  0
SOLID
  8
0
 62
    15
 10
4.184400
 20
5.868720
 11
4.817120
 21
5.518920
 12
4.157120
 22
5.760920
 13
4.789400
 23
5.411560
  0
POLYLINE
  8
0
  6
CONTINUOUS
 66
     1
 40
0.000000
 41
0.000000
  0
VERTEX
  8
0
  6
CONTINUOUS
 10
4.184400
 20
5.868720
  0
VERTEX
  8
0
  6
CONTINUOUS
 10
4.817120
 20
5.518920
  0
VERTEX
  8
0
  6
CONTINUOUS
 10
4.789400
 20
5.411560
  0
VERTEX
  8
0
  6
CONTINUOUS
 10
4.157120
 20
5.760920
  0
VERTEX
  8
0
  6
CONTINUOUS
 10
4.184400
 20
5.868720
  0
SEQEND
  8
0
  0
SOLID
  8
0
 62
    15
 10
4.157120
 20
5.760920
 11
4.789400
 21
5.411560
 12
4.194080
 22
5.715600
 13
4.826360
 23
5.366240
  0
POLYLINE
  8
0
  6
CONTINUOUS
 66
     1
 40
0.000000
 41
0.000000
  0
VERTEX
  8
0
  6
CONTINUOUS
 10
4.157120
 20
5.760920
  0
VERTEX
  8
0
  6
CONTINUOUS
 10
4.789400
 20
5.411560
  0
VERTEX
  8
0
  6
CONTINUOUS
 10
4.826360
 20
5.366240
  0
VERTEX
  8
0
  6
CONTINUOUS
 10
4.194080
 20
5.715600
  0
VERTEX
  8
0
  6
CONTINUOUS
 10
4.157120
 20
5.760920
  0
SEQEND
  8
0
  0
SOLID
  8
0
 62
    15
 10
4.194080
 20
5.715600
 11
4.826360
 21
5.366240
 12
4.213440
 22
5.672920
 13
4.845720
 23
5.323120
  0
POLYLINE
  8
0
  6
CONTINUOUS
 66
     1
 40
0.000000
 41
0.000000
  0
VERTEX
  8
0
  6
CONTINUOUS
 10
4.194080
 20
5.715600
  0
VERTEX
  8
0
  6
CONTINUOUS
 10
4.826360
 20
5.366240
  0
VERTEX
  8
0
  6
CONTINUOUS
 10
4.845720
 20
5.323120
  0
VERTEX
  8
0
  6
CONTINUOUS
 10
4.213440
 20
5.672920
  0
VERTEX
  8
0
  6
CONTINUOUS
 10
4.194080
 20
5.715600
  0
SEQEND
  8
0
  0
SOLID
  8
0
 62
    15
 10
4.213440
 20
5.672920
 11
4.845720
 21
5.323120
 12
4.217400
 22
5.633320
 13
4.849680
 23
5.283520
  0
POLYLINE
  8
0
  6
CONTINUOUS
 66
     1
 40
0.000000
 41
0.000000
  0
VERTEX
  8
0
  6
CONTINUOUS
 10
4.213440
 20
5.672920
  0
VERTEX
  8
0
  6
CONTINUOUS
 10
4.845720
 20
5.323120
  0
VERTEX
  8
0
  6
CONTINUOUS
 10
4.849680
 20
5.283520
  0
VERTEX
  8
0
  6
CONTINUOUS
 10
4.217400
 20
5.633320
  0
VERTEX
  8
0
  6
CONTINUOUS
 10
4.213440
 20
5.672920
  0
SEQEND
  8
0
  0
SOLID
  8
0
 62
    15
 10
5.548840
 20
7.306200
 11
6.181120
 21
6.956400
 12
5.544000
 22
6.804160
 13
6.176280
 23
6.454360
  0
POLYLINE
  8
0
  6
CONTINUOUS
 66
     1
 40
0.000000
 41
0.000000
  0
VERTEX
  8
0
  6
CONTINUOUS
 10
5.548840
 20
7.306200
  0
VERTEX
  8
0
  6
CONTINUOUS
 10
6.181120
 20
6.956400
  0
VERTEX
  8
0
  6
CONTINUOUS
 10
6.176280
 20
6.454360
  0
VERTEX
  8
0
  6
CONTINUOUS
 10
5.544000
 20
6.804160
  0
VERTEX
  8
0
  6
CONTINUOUS
 10
5.548840
 20
7.306200
  0
SEQEND
  8
0
  0
SOLID
  8
0
 62
    15
 10
4.208600
 20
5.598120
 11
4.841320
 21
5.248320
 12
4.164160
 22
5.545760
 13
4.796880
 23
5.196400
  0
POLYLINE
  8
0
  6
CONTINUOUS
 66
     1
 40
0.000000
 41
0.000000
  0
VERTEX
  8
0
  6
CONTINUOUS
 10
4.208600
 20
5.598120
  0
VERTEX
  8
0
  6
CONTINUOUS
 10
4.841320
 20
5.248320
  0
VERTEX
  8
0
  6
CONTINUOUS
 10
4.796880
 20
5.196400
  0
VERTEX
  8
0
  6
CONTINUOUS
 10
4.164160
 20
5.545760
  0
VERTEX
  8
0
  6
CONTINUOUS
 10
4.208600
 20
5.598120
  0
SEQEND
  8
0
  0
SOLID
  8
0
 62
    15
 10
4.164160
 20
5.545760
 11
4.796880
 21
5.196400
 12
4.099920
 22
5.524640
 13
4.732640
 23
5.174840
  0
POLYLINE
  8
0
  6
CONTINUOUS
 66
     1
 40
0.000000
 41
0.000000
  0
VERTEX
  8
0
  6
CONTINUOUS
 10
4.164160
 20
5.545760
  0
VERTEX
  8
0
  6
CONTINUOUS
 10
4.796880
 20
5.196400
  0
VERTEX
  8
0
  6
CONTINUOUS
 10
4.732640
 20
5.174840
  0
VERTEX
  8
0
  6
CONTINUOUS
 10
4.099920
 20
5.524640
  0
VERTEX
  8
0
  6
CONTINUOUS
 10
4.164160
 20
5.545760
  0
SEQEND
  8
0
  0
SOLID
  8
0
 62
    15
 10
4.099920
 20
5.524640
 11
4.732640
 21
5.174840
 12
4.098600
 22
5.392200
 13
4.731320
 23
5.042840
  0
POLYLINE
  8
0
  6
CONTINUOUS
 66
     1
 40
0.000000
 41
0.000000
  0
VERTEX
  8
0
  6
CONTINUOUS
 10
4.099920
 20
5.524640
  0
VERTEX
  8
0
  6
CONTINUOUS
 10
4.732640
 20
5.174840
  0
VERTEX
  8
0
  6
CONTINUOUS
 10
4.731320
 20
5.042840
  0
VERTEX
  8
0
  6
CONTINUOUS
 10
4.098600
 20
5.392200
  0
VERTEX
  8
0
  6
CONTINUOUS
 10
4.099920
 20
5.524640
  0
SEQEND
  8
0
  0
SOLID
  8
0
 62
    15
 10
4.098600
 20
5.392200
 11
4.731320
 21
5.042840
 12
3.991240
 22
5.384280
 13
4.623960
 23
5.034480
  0
POLYLINE
  8
0
  6
CONTINUOUS
 66
     1
 40
0.000000
 41
0.000000
  0
VERTEX
  8
0
  6
CONTINUOUS
 10
4.098600
 20
5.392200
  0
VERTEX
  8
0
  6
CONTINUOUS
 10
4.731320
 20
5.042840
  0
VERTEX
  8
0
  6
CONTINUOUS
 10
4.623960
 20
5.034480
  0
VERTEX
  8
0
  6
CONTINUOUS
 10
3.991240
 20
5.384280
  0
VERTEX
  8
0
  6
CONTINUOUS
 10
4.098600
 20
5.392200
  0
SEQEND
  8
0
  0
SOLID
  8
0
 62
    15
 10
3.991240
 20
5.384280
 11
4.623960
 21
5.034480
 12
3.881240
 22
5.364480
 13
4.513960
 23
5.014680
  0
POLYLINE
  8
0
  6
CONTINUOUS
 66
     1
 40
0.000000
 41
0.000000
  0
VERTEX
  8
0
  6
CONTINUOUS
 10
3.991240
 20
5.384280
  0
VERTEX
  8
0
  6
CONTINUOUS
 10
4.623960
 20
5.034480
  0
VERTEX
  8
0
  6
CONTINUOUS
 10
4.513960
 20
5.014680
  0
VERTEX
  8
0
  6
CONTINUOUS
 10
3.881240
 20
5.364480
  0
VERTEX
  8
0
  6
CONTINUOUS
 10
3.991240
 20
5.384280
  0
SEQEND
  8
0
  0
SOLID
  8
0
 62
    15
 10
3.881240
 20
5.364480
 11
4.513960
 21
5.014680
 12
3.774320
 22
5.328840
 13
4.406600
 23
4.979040
  0
POLYLINE
  8
0
  6
CONTINUOUS
 66
     1
 40
0.000000
 41
0.000000
  0
VERTEX
  8
0
  6
CONTINUOUS
 10
3.881240
 20
5.364480
  0
VERTEX
  8
0
  6
CONTINUOUS
 10
4.513960
 20
5.014680
  0
VERTEX
  8
0
  6
CONTINUOUS
 10
4.406600
 20
4.979040
  0
VERTEX
  8
0
  6
CONTINUOUS
 10
3.774320
 20
5.328840
  0
VERTEX
  8
0
  6
CONTINUOUS
 10
3.881240
 20
5.364480
  0
SEQEND
  8
0
  0
SOLID
  8
0
 62
    15
 10
3.774320
 20
5.328840
 11
4.406600
 21
4.979040
 12
3.675760
 22
5.272960
 13
4.308040
 23
4.923160
  0
POLYLINE
  8
0
  6
CONTINUOUS
 66
     1
 40
0.000000
 41
0.000000
  0
VERTEX
  8
0
  6
CONTINUOUS
 10
3.774320
 20
5.328840
  0
VERTEX
  8
0
  6
CONTINUOUS
 10
4.406600
 20
4.979040
  0
VERTEX
  8
0
  6
CONTINUOUS
 10
4.308040
 20
4.923160
  0
VERTEX
  8
0
  6
CONTINUOUS
 10
3.675760
 20
5.272960
  0
VERTEX
  8
0
  6
CONTINUOUS
 10
3.774320
 20
5.328840
  0
SEQEND
  8
0
  0
SOLID
  8
0
 62
    15
 10
3.675760
 20
5.272960
 11
4.308040
 21
4.923160
 12
3.590840
 22
5.192440
 13
4.223560
 23
4.842640
  0
POLYLINE
  8
0
  6
CONTINUOUS
 66
     1
 40
0.000000
 41
0.000000
  0
VERTEX
  8
0
  6
CONTINUOUS
 10
3.675760
 20
5.272960
  0
VERTEX
  8
0
  6
CONTINUOUS
 10
4.308040
 20
4.923160
  0
VERTEX
  8
0
  6
CONTINUOUS
 10
4.223560
 20
4.842640
  0
VERTEX
  8
0
  6
CONTINUOUS
 10
3.590840
 20
5.192440
  0
VERTEX
  8
0
  6
CONTINUOUS
 10
3.675760
 20
5.272960
  0
SEQEND
  8
0
  0
SOLID
  8
0
 62
    15
 10
3.590840
 20
5.192440
 11
4.223560
 21
4.842640
 12
3.524840
 22
5.082880
 13
4.157560
 23
4.733080
  0
POLYLINE
  8
0
  6
CONTINUOUS
 66
     1
 40
0.000000
 41
0.000000
  0
VERTEX
  8
0
  6
CONTINUOUS
 10
3.590840
 20
5.192440
  0
VERTEX
  8
0
  6
CONTINUOUS
 10
4.223560
 20
4.842640
  0
VERTEX
  8
0
  6
CONTINUOUS
 10
4.157560
 20
4.733080
  0
VERTEX
  8
0
  6
CONTINUOUS
 10
3.524840
 20
5.082880
  0
VERTEX
  8
0
  6
CONTINUOUS
 10
3.590840
 20
5.192440
  0
SEQEND
  8
0
  0
SOLID
  8
0
 62
    15
 10
3.524840
 20
5.082880
 11
4.157560
 21
4.733080
 12
3.483480
 22
4.940320
 13
4.116200
 23
4.590960
  0
POLYLINE
  8
0
  6
CONTINUOUS
 66
     1
 40
0.000000
 41
0.000000
  0
VERTEX
  8
0
  6
CONTINUOUS
 10
3.524840
 20
5.082880
  0
VERTEX
  8
0
  6
CONTINUOUS
 10
4.157560
 20
4.733080
  0
VERTEX
  8
0
  6
CONTINUOUS
 10
4.116200
 20
4.590960
  0
VERTEX
  8
0
  6
CONTINUOUS
 10
3.483480
 20
4.940320
  0
VERTEX
  8
0
  6
CONTINUOUS
 10
3.524840
 20
5.082880
  0
SEQEND
  8
0
  0
SOLID
  8
0
 62
    15
 10
3.483480
 20
4.940320
 11
4.116200
 21
4.590960
 12
3.473800
 22
4.855400
 13
4.106080
 23
4.506040
  0
POLYLINE
  8
0
  6
CONTINUOUS
 66
     1
 40
0.000000
 41
0.000000
  0
VERTEX
  8
0
  6
CONTINUOUS
 10
3.483480
 20
4.940320
  0
VERTEX
  8
0
  6
CONTINUOUS
 10
4.116200
 20
4.590960
  0
VERTEX
  8
0
  6
CONTINUOUS
 10
4.106080
 20
4.506040
  0
VERTEX
  8
0
  6
CONTINUOUS
 10
3.473800
 20
4.855400
  0
VERTEX
  8
0
  6
CONTINUOUS
 10
3.483480
 20
4.940320
  0
SEQEND
  8
0
  0
SOLID
  8
0
 62
    15
 10
3.473800
 20
4.855400
 11
4.106080
 21
4.506040
 12
3.472040
 22
4.760800
 13
4.104320
 23
4.411000
  0
POLYLINE
  8
0
  6
CONTINUOUS
 66
     1
 40
0.000000
 41
0.000000
  0
VERTEX
  8
0
  6
CONTINUOUS
 10
3.473800
 20
4.855400
  0
VERTEX
  8
0
  6
CONTINUOUS
 10
4.106080
 20
4.506040
  0
VERTEX
  8
0
  6
CONTINUOUS
 10
4.104320
 20
4.411000
  0
VERTEX
  8
0
  6
CONTINUOUS
 10
3.472040
 20
4.760800
  0
VERTEX
  8
0
  6
CONTINUOUS
 10
3.473800
 20
4.855400
  0
SEQEND
  8
0
  0
SOLID
  8
0
 62
    15
 10
3.472040
 20
4.760800
 11
4.104320
 21
4.411000
 12
2.797080
 22
4.755080
 13
3.429800
 23
4.405720
  0
POLYLINE
  8
0
  6
CONTINUOUS
 66
     1
 40
0.000000
 41
0.000000
  0
VERTEX
  8
0
  6
CONTINUOUS
 10
3.472040
 20
4.760800
  0
VERTEX
  8
0
  6
CONTINUOUS
 10
4.104320
 20
4.411000
  0
VERTEX
  8
0
  6
CONTINUOUS
 10
3.429800
 20
4.405720
  0
VERTEX
  8
0
  6
CONTINUOUS
 10
2.797080
 20
4.755080
  0
VERTEX
  8
0
  6
CONTINUOUS
 10
3.472040
 20
4.760800
  0
SEQEND
  8
0
  0
SOLID
  8
0
 62
    15
 10
2.794880
 20
5.138760
 11
3.427600
 21
4.788960
 12
2.796200
 22
5.137880
 13
3.428480
 23
4.788080
  0
POLYLINE
  8
0
  6
CONTINUOUS
 66
     1
 40
0.000000
 41
0.000000
  0
VERTEX
  8
0
  6
CONTINUOUS
 10
2.794880
 20
5.138760
  0
VERTEX
  8
0
  6
CONTINUOUS
 10
3.427600
 20
4.788960
  0
VERTEX
  8
0
  6
CONTINUOUS
 10
3.428480
 20
4.788080
  0
VERTEX
  8
0
  6
CONTINUOUS
 10
2.796200
 20
5.137880
  0
VERTEX
  8
0
  6
CONTINUOUS
 10
2.794880
 20
5.138760
  0
SEQEND
  8
0
  0
POLYLINE
  8
0
  6
CONTINUOUS
 66
     1
 40
0.000000
 41
0.000000
  0
VERTEX
  8
0
  6
CONTINUOUS
 10
2.796200
 20
5.137880
  0
VERTEX
  8
0
  6
CONTINUOUS
 10
4.968920
 20
7.288160
  0
VERTEX
  8
0
  6
CONTINUOUS
 10
5.548840
 20
7.306200
  0
VERTEX
  8
0
  6
CONTINUOUS
 10
5.544000
 20
6.804160
  0
VERTEX
  8
0
  6
CONTINUOUS
 10
5.456000
 20
6.798440
  0
VERTEX
  8
0
  6
CONTINUOUS
 10
5.360520
 20
6.782600
  0
VERTEX
  8
0
  6
CONTINUOUS
 10
5.153720
 20
6.721880
  0
VERTEX
  8
0
  6
CONTINUOUS
 10
4.935920
 20
6.626400
  0
VERTEX
  8
0
  6
CONTINUOUS
 10
4.721200
 20
6.499680
  0
VERTEX
  8
0
  6
CONTINUOUS
 10
4.522760
 20
6.346120
  0
VERTEX
  8
0
  6
CONTINUOUS
 10
4.353800
 20
6.169240
  0
VERTEX
  8
0
  6
CONTINUOUS
 10
4.284280
 20
6.073320
  0
VERTEX
  8
0
  6
CONTINUOUS
 10
4.227520
 20
5.973000
  0
VERTEX
  8
0
  6
CONTINUOUS
 10
4.184400
 20
5.868720
  0
VERTEX
  8
0
  6
CONTINUOUS
 10
4.157120
 20
5.760920
  0
VERTEX
  8
0
  6
CONTINUOUS
 10
4.194080
 20
5.715600
  0
VERTEX
  8
0
  6
CONTINUOUS
 10
4.213440
 20
5.672920
  0
VERTEX
  8
0
  6
CONTINUOUS
 10
4.217400
 20
5.633320
  0
VERTEX
  8
0
  6
CONTINUOUS
 10
4.208600
 20
5.598120
  0
VERTEX
  8
0
  6
CONTINUOUS
 10
4.164160
 20
5.545760
  0
VERTEX
  8
0
  6
CONTINUOUS
 10
4.099920
 20
5.524640
  0
VERTEX
  8
0
  6
CONTINUOUS
 10
4.098600
 20
5.392200
  0
VERTEX
  8
0
  6
CONTINUOUS
 10
3.991240
 20
5.384280
  0
VERTEX
  8
0
  6
CONTINUOUS
 10
3.881240
 20
5.364480
  0
VERTEX
  8
0
  6
CONTINUOUS
 10
3.774320
 20
5.328840
  0
VERTEX
  8
0
  6
CONTINUOUS
 10
3.675760
 20
5.272960
  0
VERTEX
  8
0
  6
CONTINUOUS
 10
3.590840
 20
5.192440
  0
VERTEX
  8
0
  6
CONTINUOUS
 10
3.524840
 20
5.082880
  0
VERTEX
  8
0
  6
CONTINUOUS
 10
3.483480
 20
4.940320
  0
VERTEX
  8
0
  6
CONTINUOUS
 10
3.473800
 20
4.855400
  0
VERTEX
  8
0
  6
CONTINUOUS
 10
3.472040
 20
4.760800
  0
VERTEX
  8
0
  6
CONTINUOUS
 10
2.797080
 20
4.755080
  0
VERTEX
  8
0
  6
CONTINUOUS
 10
2.794880
 20
5.138760
  0
VERTEX
  8
0
  6
CONTINUOUS
 10
2.796200
 20
5.137880
  0
SEQEND
  8
0
  0
TEXT
  8
0
 10
4.529360
 20
4.627040
 40
0.138094
  1
BA  1313
 41
1.000000
  7
SN0
 71
     0
 72
     5
 11
5.210820
 21
4.627040
  0
TEXT
  8
0
 10
4.419800
 20
4.425520
 40
0.138094
  1
3/4" x 3-3/4"
 41
1.000000
  7
SN0
 71
     0
 72
     5
 11
5.318299
 21
4.425520
  0
TEXT
  8
0
 10
5.779400
 20
5.411120
 40
0.138094
  1
Similar  to
 41
1.000000
  7
SN0
 71
     0
 72
     5
 11
6.515119
 21
5.411120
  0
TEXT
  8
0
 10
5.779400
 20
5.209600
 40
0.138094
  1
BA  1319
 41
1.000000
  7
SN0
 71
     0
 72
     5
 11
6.460860
 21
5.209600
  0
ENDSEC
  0
EOF
