  0
SECTION
  2
HEADER
  9
$ACADVER
  1
AC1006
  9
$EXTMIN
 10
1.395240
 20
2.156000
  9
$EXTMAX
 10
7.005240
 20
6.558640
  9
$LTSCALE
 40
0.044000
  9
$PDMODE
 70
    35
  9
$PDSIZE
 40
0.035200
  0
ENDSEC
  0
SECTION
  2
TABLES
  0
TABLE
  2
LTYPE
 70
     9
  0
LTYPE
  2
CONTINUOUS
 70
    64
  3
Solid line
 72
    65
 73
     0
 40
0.000000
  0
LTYPE
  2
DASHED
 70
    64
  3
__ __ __ __ __ __ __ __ __ __ __ __ __ __ __
 72
    65
 73
     2
 40
0.000330
 49
0.000220
 49
-0.000110
  0
LTYPE
  2
HIDDEN
 70
    64
  3
 _ _ _ _ _ _ _ _ _ _ _ _ _ _ _ _ _ _ _ _ _ _
 72
    65
 73
     2
 40
0.000165
 49
0.000110
 49
-0.000055
  0
LTYPE
  2
CENTER
 70
    64
  3
____ _ ____ _ ____ _ ____ _ ____ _ ____ _ ____
 72
    65
 73
     4
 40
0.000880
 49
0.000550
 49
-0.000110
 49
0.000110
 49
-0.000110
  0
LTYPE
  2
PHANTOM
 70
    64
  3
_____ _ _ _____ _ _ _____ _ _ _____ _ _ ____
 72
    65
 73
     6
 40
0.001100
 49
0.000550
 49
-0.000110
 49
0.000110
 49
-0.000110
 49
0.000110
 49
-0.000110
  0
LTYPE
  2
DOT
 70
    64
  3
...............................................
 72
    65
 73
     2
 40
0.000110
 49
0.000000
 49
-0.000110
  0
LTYPE
  2
DASHDOT
 70
    64
  3
__ . __ . __ . __ . __ . __ . __ . __ . __ . __
 72
    65
 73
     4
 40
0.000440
 49
0.000220
 49
-0.000110
 49
0.000000
 49
-0.000110
  0
LTYPE
  2
BORDER
 70
    64
  3
__ __ . __ __ . __ __ . __ __ . __ __ . __ __
 72
    65
 73
     6
 40
0.000770
 49
0.000220
 49
-0.000110
 49
0.000220
 49
-0.000110
 49
0.000000
 49
-0.000110
  0
LTYPE
  2
DIVIDE
 70
    64
  3
__ . . __ . . __ . . __ . . __ . . __ . . __
 72
    65
 73
     6
 40
0.000550
 49
0.000220
 49
-0.000110
 49
0.000000
 49
-0.000110
 49
0.000000
 49
-0.000110
  0
LTYPE
  2
DOTDOT
 70
    64
  3
 . .  . .  . .  . .  . .  . . 
 72
    65
 73
     5
 40
0.000242
 49
-0.000110
 49
0.000000
 49
-0.000110
 49
0.000000
 49
-0.000110
  0
ENDTAB
  0
TABLE
  2
STYLE
 70
     2
  0
STYLE
 70
     0
  2
SN0
 40
0.000000
 41
0.000440
 50
0.000000
 71
     0
 42
0.000000
  3
ROMAND
  0
STYLE
 70
    68
  2
SV0
 40
0.000000
 41
0.000440
 50
0.000000
 71
     0
 42
0.000000
  3
ROMAND
  0
ENDTAB
  0
TABLE
  2
LAYER
 70
     3
  0
LAYER
  2
FOREGROUND
 70
    64
 62
     7
  6
CONTINUOUS
  0
LAYER
  2
BACKGROUND
 70
    65
 62
    -7
  6
CONTINUOUS
  0
LAYER
  2
0
 70
    64
 62
     7
  6
CONTINUOUS
  0
ENDTAB
  0
ENDSEC
  0
SECTION
  2
ENTITIES
  0
POLYLINE
  8
FOREGROUND
  6
CONTINUOUS
 66
     1
 40
0.000000
 41
0.000000
  0
VERTEX
  8
FOREGROUND
  6
CONTINUOUS
 10
0.000000
 20
8.714640
  0
VERTEX
  8
FOREGROUND
  6
CONTINUOUS
 10
8.499920
 20
8.714640
  0
VERTEX
  8
FOREGROUND
  6
CONTINUOUS
 10
8.499920
 20
-2.285360
  0
VERTEX
  8
FOREGROUND
  6
CONTINUOUS
 10
0.000000
 20
-2.285360
  0
VERTEX
  8
FOREGROUND
  6
CONTINUOUS
 10
0.000000
 20
8.714640
  0
SEQEND
  8
0
  0
POLYLINE
  8
FOREGROUND
  6
CONTINUOUS
 66
     1
 40
0.000000
 41
0.000000
  0
VERTEX
  8
FOREGROUND
  6
CONTINUOUS
 10
0.000000
 20
8.714640
  0
VERTEX
  8
FOREGROUND
  6
CONTINUOUS
 10
8.499920
 20
8.714640
  0
VERTEX
  8
FOREGROUND
  6
CONTINUOUS
 10
8.499920
 20
-2.285360
  0
VERTEX
  8
FOREGROUND
  6
CONTINUOUS
 10
0.000000
 20
-2.285360
  0
VERTEX
  8
FOREGROUND
  6
CONTINUOUS
 10
0.000000
 20
8.714640
  0
SEQEND
  8
0
  0
SOLID
  8
0
 62
    15
 10
1.501280
 20
2.587640
 11
1.498200
 21
3.325520
 12
1.501280
 22
3.841640
 13
1.498200
 23
4.579520
  0
POLYLINE
  8
0
  6
CONTINUOUS
 66
     1
 40
0.000000
 41
0.000000
  0
VERTEX
  8
0
  6
CONTINUOUS
 10
1.501280
 20
2.587640
  0
VERTEX
  8
0
  6
CONTINUOUS
 10
1.498200
 20
3.325520
  0
VERTEX
  8
0
  6
CONTINUOUS
 10
1.498200
 20
4.579520
  0
VERTEX
  8
0
  6
CONTINUOUS
 10
1.501280
 20
3.841640
  0
VERTEX
  8
0
  6
CONTINUOUS
 10
1.501280
 20
2.587640
  0
SEQEND
  8
0
  0
SOLID
  8
0
 62
    15
 10
3.003000
 20
3.841640
 11
2.999480
 21
4.579520
 12
3.026320
 22
3.597440
 13
3.022800
 23
4.335320
  0
POLYLINE
  8
0
  6
CONTINUOUS
 66
     1
 40
0.000000
 41
0.000000
  0
VERTEX
  8
0
  6
CONTINUOUS
 10
3.003000
 20
3.841640
  0
VERTEX
  8
0
  6
CONTINUOUS
 10
2.999480
 20
4.579520
  0
VERTEX
  8
0
  6
CONTINUOUS
 10
3.022800
 20
4.335320
  0
VERTEX
  8
0
  6
CONTINUOUS
 10
3.026320
 20
3.597440
  0
VERTEX
  8
0
  6
CONTINUOUS
 10
3.003000
 20
3.841640
  0
SEQEND
  8
0
  0
SOLID
  8
0
 62
    15
 10
6.190800
 20
2.660240
 11
6.187280
 21
3.398120
 12
6.190800
 22
2.668600
 13
6.187280
 23
3.406480
  0
POLYLINE
  8
0
  6
CONTINUOUS
 66
     1
 40
0.000000
 41
0.000000
  0
VERTEX
  8
0
  6
CONTINUOUS
 10
6.190800
 20
2.660240
  0
VERTEX
  8
0
  6
CONTINUOUS
 10
6.187280
 20
3.398120
  0
VERTEX
  8
0
  6
CONTINUOUS
 10
6.187280
 20
3.406480
  0
VERTEX
  8
0
  6
CONTINUOUS
 10
6.190800
 20
2.668600
  0
VERTEX
  8
0
  6
CONTINUOUS
 10
6.190800
 20
2.660240
  0
SEQEND
  8
0
  0
SOLID
  8
0
 62
    15
 10
5.495160
 20
3.083080
 11
5.491640
 21
3.820960
 12
7.004800
 22
3.083080
 13
7.001280
 23
3.820960
  0
POLYLINE
  8
0
  6
CONTINUOUS
 66
     1
 40
0.000000
 41
0.000000
  0
VERTEX
  8
0
  6
CONTINUOUS
 10
5.495160
 20
3.083080
  0
VERTEX
  8
0
  6
CONTINUOUS
 10
5.491640
 20
3.820960
  0
VERTEX
  8
0
  6
CONTINUOUS
 10
7.001280
 20
3.820960
  0
VERTEX
  8
0
  6
CONTINUOUS
 10
7.004800
 20
3.083080
  0
VERTEX
  8
0
  6
CONTINUOUS
 10
5.495160
 20
3.083080
  0
SEQEND
  8
0
  0
SOLID
  8
0
 62
    15
 10
5.461720
 20
3.326840
 11
5.458200
 21
4.064720
 12
5.495160
 22
3.083080
 13
5.491640
 23
3.820960
  0
POLYLINE
  8
0
  6
CONTINUOUS
 66
     1
 40
0.000000
 41
0.000000
  0
VERTEX
  8
0
  6
CONTINUOUS
 10
5.461720
 20
3.326840
  0
VERTEX
  8
0
  6
CONTINUOUS
 10
5.458200
 20
4.064720
  0
VERTEX
  8
0
  6
CONTINUOUS
 10
5.491640
 20
3.820960
  0
VERTEX
  8
0
  6
CONTINUOUS
 10
5.495160
 20
3.083080
  0
VERTEX
  8
0
  6
CONTINUOUS
 10
5.461720
 20
3.326840
  0
SEQEND
  8
0
  0
SOLID
  8
0
 62
    15
 10
3.026320
 20
3.597440
 11
3.022800
 21
4.335320
 12
5.461720
 22
3.326840
 13
5.458200
 23
4.064720
  0
POLYLINE
  8
0
  6
CONTINUOUS
 66
     1
 40
0.000000
 41
0.000000
  0
VERTEX
  8
0
  6
CONTINUOUS
 10
3.026320
 20
3.597440
  0
VERTEX
  8
0
  6
CONTINUOUS
 10
3.022800
 20
4.335320
  0
VERTEX
  8
0
  6
CONTINUOUS
 10
5.458200
 20
4.064720
  0
VERTEX
  8
0
  6
CONTINUOUS
 10
5.461720
 20
3.326840
  0
VERTEX
  8
0
  6
CONTINUOUS
 10
3.026320
 20
3.597440
  0
SEQEND
  8
0
  0
SOLID
  8
0
 62
    15
 10
1.501280
 20
3.841640
 11
1.498200
 21
4.579520
 12
3.003000
 22
3.841640
 13
2.999480
 23
4.579520
  0
POLYLINE
  8
0
  6
CONTINUOUS
 66
     1
 40
0.000000
 41
0.000000
  0
VERTEX
  8
0
  6
CONTINUOUS
 10
1.501280
 20
3.841640
  0
VERTEX
  8
0
  6
CONTINUOUS
 10
1.498200
 20
4.579520
  0
VERTEX
  8
0
  6
CONTINUOUS
 10
2.999480
 20
4.579520
  0
VERTEX
  8
0
  6
CONTINUOUS
 10
3.003000
 20
3.841640
  0
VERTEX
  8
0
  6
CONTINUOUS
 10
1.501280
 20
3.841640
  0
SEQEND
  8
0
  0
POLYLINE
  8
0
  6
CONTINUOUS
 66
     1
 40
0.000000
 41
0.000000
  0
VERTEX
  8
0
  6
CONTINUOUS
 10
6.190800
 20
2.668600
  0
VERTEX
  8
0
  6
CONTINUOUS
 10
2.321440
 20
2.668600
  0
VERTEX
  8
0
  6
CONTINUOUS
 10
2.240040
 20
2.587640
  0
VERTEX
  8
0
  6
CONTINUOUS
 10
1.501280
 20
2.587640
  0
VERTEX
  8
0
  6
CONTINUOUS
 10
1.501280
 20
3.841640
  0
VERTEX
  8
0
  6
CONTINUOUS
 10
3.003000
 20
3.841640
  0
VERTEX
  8
0
  6
CONTINUOUS
 10
3.026320
 20
3.597440
  0
VERTEX
  8
0
  6
CONTINUOUS
 10
5.461720
 20
3.326840
  0
VERTEX
  8
0
  6
CONTINUOUS
 10
5.495160
 20
3.083080
  0
VERTEX
  8
0
  6
CONTINUOUS
 10
7.004800
 20
3.083080
  0
VERTEX
  8
0
  6
CONTINUOUS
 10
7.004800
 20
2.587640
  0
VERTEX
  8
0
  6
CONTINUOUS
 10
6.263400
 20
2.587640
  0
VERTEX
  8
0
  6
CONTINUOUS
 10
6.190800
 20
2.660240
  0
VERTEX
  8
0
  6
CONTINUOUS
 10
6.190800
 20
2.668600
  0
SEQEND
  8
0
  0
TEXT
  8
0
 10
3.910280
 20
2.404600
 40
0.138081
  1
BA  1312
 41
1.000000
  7
SN0
 71
     0
 72
     5
 11
4.593297
 21
2.404600
  0
TEXT
  8
0
 10
3.726800
 20
2.203080
 40
0.138081
  1
1-1/4" x 5-1/2"
 41
1.000000
  7
SN0
 71
     0
 72
     5
 11
4.775589
 21
2.203080
  0
POLYLINE
  8
0
  6
CONTINUOUS
 66
     1
 40
0.014080
 41
0.014080
  0
VERTEX
  8
0
  6
CONTINUOUS
 10
6.092240
 20
5.378120
  0
VERTEX
  8
0
  6
CONTINUOUS
 10
2.222880
 20
5.378120
  0
VERTEX
  8
0
  6
CONTINUOUS
 10
2.141480
 20
5.296720
  0
VERTEX
  8
0
  6
CONTINUOUS
 10
1.402720
 20
5.296720
  0
VERTEX
  8
0
  6
CONTINUOUS
 10
1.402720
 20
6.551160
  0
VERTEX
  8
0
  6
CONTINUOUS
 10
2.904440
 20
6.551160
  0
VERTEX
  8
0
  6
CONTINUOUS
 10
2.927760
 20
6.306520
  0
VERTEX
  8
0
  6
CONTINUOUS
 10
5.363160
 20
6.035920
  0
VERTEX
  8
0
  6
CONTINUOUS
 10
5.396600
 20
5.792160
  0
VERTEX
  8
0
  6
CONTINUOUS
 10
6.906240
 20
5.792160
  0
VERTEX
  8
0
  6
CONTINUOUS
 10
6.906240
 20
5.296720
  0
VERTEX
  8
0
  6
CONTINUOUS
 10
6.164840
 20
5.296720
  0
VERTEX
  8
0
  6
CONTINUOUS
 10
6.092240
 20
5.369760
  0
VERTEX
  8
0
  6
CONTINUOUS
 10
6.092240
 20
5.378120
  0
SEQEND
  8
0
  0
TEXT
  8
0
 10
2.134440
 20
5.763560
 40
0.138081
  1
BA  1312
 41
1.000000
  7
SN0
 71
     0
 72
     5
 11
2.817458
 21
5.763560
  0
TEXT
  8
0
 10
1.950960
 20
5.562040
 40
0.138081
  1
1-1/4" x 5-1/2"
 41
1.000000
  7
SN0
 71
     0
 72
     5
 11
2.999749
 21
5.562040
  0
ENDSEC
  0
EOF
