  0
SECTION
  2
HEADER
  9
$ACADVER
  1
AC1006
  9
$EXTMIN
 10
1.647800
 20
2.443760
  9
$EXTMAX
 10
6.791840
 20
7.154840
  9
$LTSCALE
 40
0.044000
  9
$PDMODE
 70
    35
  9
$PDSIZE
 40
0.035200
  0
ENDSEC
  0
SECTION
  2
TABLES
  0
TABLE
  2
LTYPE
 70
     9
  0
LTYPE
  2
CONTINUOUS
 70
    64
  3
Solid line
 72
    65
 73
     0
 40
0.000000
  0
LTYPE
  2
DASHED
 70
    64
  3
__ __ __ __ __ __ __ __ __ __ __ __ __ __ __
 72
    65
 73
     2
 40
0.000330
 49
0.000220
 49
-0.000110
  0
LTYPE
  2
HIDDEN
 70
    64
  3
 _ _ _ _ _ _ _ _ _ _ _ _ _ _ _ _ _ _ _ _ _ _
 72
    65
 73
     2
 40
0.000165
 49
0.000110
 49
-0.000055
  0
LTYPE
  2
CENTER
 70
    64
  3
____ _ ____ _ ____ _ ____ _ ____ _ ____ _ ____
 72
    65
 73
     4
 40
0.000880
 49
0.000550
 49
-0.000110
 49
0.000110
 49
-0.000110
  0
LTYPE
  2
PHANTOM
 70
    64
  3
_____ _ _ _____ _ _ _____ _ _ _____ _ _ ____
 72
    65
 73
     6
 40
0.001100
 49
0.000550
 49
-0.000110
 49
0.000110
 49
-0.000110
 49
0.000110
 49
-0.000110
  0
LTYPE
  2
DOT
 70
    64
  3
...............................................
 72
    65
 73
     2
 40
0.000110
 49
0.000000
 49
-0.000110
  0
LTYPE
  2
DASHDOT
 70
    64
  3
__ . __ . __ . __ . __ . __ . __ . __ . __ . __
 72
    65
 73
     4
 40
0.000440
 49
0.000220
 49
-0.000110
 49
0.000000
 49
-0.000110
  0
LTYPE
  2
BORDER
 70
    64
  3
__ __ . __ __ . __ __ . __ __ . __ __ . __ __
 72
    65
 73
     6
 40
0.000770
 49
0.000220
 49
-0.000110
 49
0.000220
 49
-0.000110
 49
0.000000
 49
-0.000110
  0
LTYPE
  2
DIVIDE
 70
    64
  3
__ . . __ . . __ . . __ . . __ . . __ . . __
 72
    65
 73
     6
 40
0.000550
 49
0.000220
 49
-0.000110
 49
0.000000
 49
-0.000110
 49
0.000000
 49
-0.000110
  0
LTYPE
  2
DOTDOT
 70
    64
  3
 . .  . .  . .  . .  . .  . . 
 72
    65
 73
     5
 40
0.000242
 49
-0.000110
 49
0.000000
 49
-0.000110
 49
0.000000
 49
-0.000110
  0
ENDTAB
  0
TABLE
  2
STYLE
 70
     2
  0
STYLE
 70
     0
  2
SN0
 40
0.000000
 41
0.000440
 50
0.000000
 71
     0
 42
0.000000
  3
ROMAND
  0
STYLE
 70
    68
  2
SV0
 40
0.000000
 41
0.000440
 50
0.000000
 71
     0
 42
0.000000
  3
ROMAND
  0
ENDTAB
  0
TABLE
  2
LAYER
 70
     3
  0
LAYER
  2
FOREGROUND
 70
    64
 62
     7
  6
CONTINUOUS
  0
LAYER
  2
BACKGROUND
 70
    65
 62
    -7
  6
CONTINUOUS
  0
LAYER
  2
0
 70
    64
 62
     7
  6
CONTINUOUS
  0
ENDTAB
  0
ENDSEC
  0
SECTION
  2
ENTITIES
  0
POLYLINE
  8
FOREGROUND
  6
CONTINUOUS
 66
     1
 40
0.000000
 41
0.000000
  0
VERTEX
  8
FOREGROUND
  6
CONTINUOUS
 10
0.000000
 20
9.598600
  0
VERTEX
  8
FOREGROUND
  6
CONTINUOUS
 10
8.499920
 20
9.598600
  0
VERTEX
  8
FOREGROUND
  6
CONTINUOUS
 10
8.499920
 20
-1.401400
  0
VERTEX
  8
FOREGROUND
  6
CONTINUOUS
 10
0.000000
 20
-1.401400
  0
VERTEX
  8
FOREGROUND
  6
CONTINUOUS
 10
0.000000
 20
9.598600
  0
SEQEND
  8
0
  0
POLYLINE
  8
FOREGROUND
  6
CONTINUOUS
 66
     1
 40
0.000000
 41
0.000000
  0
VERTEX
  8
FOREGROUND
  6
CONTINUOUS
 10
0.000000
 20
9.598600
  0
VERTEX
  8
FOREGROUND
  6
CONTINUOUS
 10
8.499920
 20
9.598600
  0
VERTEX
  8
FOREGROUND
  6
CONTINUOUS
 10
8.499920
 20
-1.401400
  0
VERTEX
  8
FOREGROUND
  6
CONTINUOUS
 10
0.000000
 20
-1.401400
  0
VERTEX
  8
FOREGROUND
  6
CONTINUOUS
 10
0.000000
 20
9.598600
  0
SEQEND
  8
0
  0
POLYLINE
  8
0
  6
CONTINUOUS
 66
     1
 40
0.014080
 41
0.014080
  0
VERTEX
  8
0
  6
CONTINUOUS
 10
1.655280
 20
6.394520
  0
VERTEX
  8
0
  6
CONTINUOUS
 10
1.655280
 20
7.146920
  0
VERTEX
  8
0
  6
CONTINUOUS
 10
2.373360
 20
7.146920
  0
VERTEX
  8
0
  6
CONTINUOUS
 10
2.390080
 20
6.989400
  0
VERTEX
  8
0
  6
CONTINUOUS
 10
2.428360
 20
6.989400
  0
VERTEX
  8
0
  6
CONTINUOUS
 10
2.452560
 20
7.021520
  0
VERTEX
  8
0
  6
CONTINUOUS
 10
2.479840
 20
7.044400
  0
VERTEX
  8
0
  6
CONTINUOUS
 10
2.508880
 20
7.059360
  0
VERTEX
  8
0
  6
CONTINUOUS
 10
2.539240
 20
7.066840
  0
VERTEX
  8
0
  6
CONTINUOUS
 10
2.560360
 20
7.068160
  0
VERTEX
  8
0
  6
CONTINUOUS
 10
2.581480
 20
7.066840
  0
VERTEX
  8
0
  6
CONTINUOUS
 10
2.602160
 20
7.063320
  0
VERTEX
  8
0
  6
CONTINUOUS
 10
2.622840
 20
7.057160
  0
VERTEX
  8
0
  6
CONTINUOUS
 10
2.662440
 20
7.039560
  0
VERTEX
  8
0
  6
CONTINUOUS
 10
2.698080
 20
7.015800
  0
VERTEX
  8
0
  6
CONTINUOUS
 10
2.728880
 20
6.987640
  0
VERTEX
  8
0
  6
CONTINUOUS
 10
2.755720
 20
6.961680
  0
VERTEX
  8
0
  6
CONTINUOUS
 10
2.782120
 20
6.942320
  0
VERTEX
  8
0
  6
CONTINUOUS
 10
2.808080
 20
6.928240
  0
VERTEX
  8
0
  6
CONTINUOUS
 10
2.847680
 20
6.915040
  0
VERTEX
  8
0
  6
CONTINUOUS
 10
2.889920
 20
6.907560
  0
VERTEX
  8
0
  6
CONTINUOUS
 10
2.952400
 20
6.901400
  0
VERTEX
  8
0
  6
CONTINUOUS
 10
2.968680
 20
6.844640
  0
VERTEX
  8
0
  6
CONTINUOUS
 10
3.054920
 20
6.844640
  0
VERTEX
  8
0
  6
CONTINUOUS
 10
3.074280
 20
6.771600
  0
VERTEX
  8
0
  6
CONTINUOUS
 10
3.306600
 20
6.771600
  0
VERTEX
  8
0
  6
CONTINUOUS
 10
3.351040
 20
6.833640
  0
VERTEX
  8
0
  6
CONTINUOUS
 10
3.405160
 20
6.827480
  0
VERTEX
  8
0
  6
CONTINUOUS
 10
3.454440
 20
6.826600
  0
VERTEX
  8
0
  6
CONTINUOUS
 10
3.500640
 20
6.830560
  0
VERTEX
  8
0
  6
CONTINUOUS
 10
3.545080
 20
6.838480
  0
VERTEX
  8
0
  6
CONTINUOUS
 10
3.588640
 20
6.850360
  0
VERTEX
  8
0
  6
CONTINUOUS
 10
3.655520
 20
6.875440
  0
VERTEX
  8
0
  6
CONTINUOUS
 10
3.727680
 20
6.907120
  0
VERTEX
  8
0
  6
CONTINUOUS
 10
3.838560
 20
6.961680
  0
VERTEX
  8
0
  6
CONTINUOUS
 10
3.925240
 20
6.997320
  0
VERTEX
  8
0
  6
CONTINUOUS
 10
3.985520
 20
7.017120
  0
VERTEX
  8
0
  6
CONTINUOUS
 10
4.048440
 20
7.033400
  0
VERTEX
  8
0
  6
CONTINUOUS
 10
4.081440
 20
7.040000
  0
VERTEX
  8
0
  6
CONTINUOUS
 10
4.149200
 20
7.048800
  0
VERTEX
  8
0
  6
CONTINUOUS
 10
4.184400
 20
7.051000
  0
VERTEX
  8
0
  6
CONTINUOUS
 10
4.220920
 20
7.051880
  0
VERTEX
  8
0
  6
CONTINUOUS
 10
4.219160
 20
7.051440
  0
VERTEX
  8
0
  6
CONTINUOUS
 10
4.255680
 20
7.050560
  0
VERTEX
  8
0
  6
CONTINUOUS
 10
4.290880
 20
7.048360
  0
VERTEX
  8
0
  6
CONTINUOUS
 10
4.359080
 20
7.039560
  0
VERTEX
  8
0
  6
CONTINUOUS
 10
4.423760
 20
7.025480
  0
VERTEX
  8
0
  6
CONTINUOUS
 10
4.485360
 20
7.007440
  0
VERTEX
  8
0
  6
CONTINUOUS
 10
4.544320
 20
6.985440
  0
VERTEX
  8
0
  6
CONTINUOUS
 10
4.601960
 20
6.961240
  0
VERTEX
  8
0
  6
CONTINUOUS
 10
4.737480
 20
6.895240
  0
VERTEX
  8
0
  6
CONTINUOUS
 10
4.807000
 20
6.866200
  0
VERTEX
  8
0
  6
CONTINUOUS
 10
4.873000
 20
6.843760
  0
VERTEX
  8
0
  6
CONTINUOUS
 10
4.917000
 20
6.833640
  0
VERTEX
  8
0
  6
CONTINUOUS
 10
4.962320
 20
6.827920
  0
VERTEX
  8
0
  6
CONTINUOUS
 10
5.009840
 20
6.826600
  0
VERTEX
  8
0
  6
CONTINUOUS
 10
5.034920
 20
6.827480
  0
VERTEX
  8
0
  6
CONTINUOUS
 10
5.089040
 20
6.833640
  0
VERTEX
  8
0
  6
CONTINUOUS
 10
5.133480
 20
6.771160
  0
VERTEX
  8
0
  6
CONTINUOUS
 10
5.365800
 20
6.771160
  0
VERTEX
  8
0
  6
CONTINUOUS
 10
5.385160
 20
6.844640
  0
VERTEX
  8
0
  6
CONTINUOUS
 10
5.471400
 20
6.844640
  0
VERTEX
  8
0
  6
CONTINUOUS
 10
5.487680
 20
6.901400
  0
VERTEX
  8
0
  6
CONTINUOUS
 10
5.550160
 20
6.907560
  0
VERTEX
  8
0
  6
CONTINUOUS
 10
5.578760
 20
6.911520
  0
VERTEX
  8
0
  6
CONTINUOUS
 10
5.618800
 20
6.922520
  0
VERTEX
  8
0
  6
CONTINUOUS
 10
5.645200
 20
6.933960
  0
VERTEX
  8
0
  6
CONTINUOUS
 10
5.671160
 20
6.950680
  0
VERTEX
  8
0
  6
CONTINUOUS
 10
5.697560
 20
6.973560
  0
VERTEX
  8
0
  6
CONTINUOUS
 10
5.725720
 20
7.001720
  0
VERTEX
  8
0
  6
CONTINUOUS
 10
5.759160
 20
7.027680
  0
VERTEX
  8
0
  6
CONTINUOUS
 10
5.777640
 20
7.039120
  0
VERTEX
  8
0
  6
CONTINUOUS
 10
5.817240
 20
7.056720
  0
VERTEX
  8
0
  6
CONTINUOUS
 10
5.837920
 20
7.062880
  0
VERTEX
  8
0
  6
CONTINUOUS
 10
5.859040
 20
7.066400
  0
VERTEX
  8
0
  6
CONTINUOUS
 10
5.890280
 20
7.067720
  0
VERTEX
  8
0
  6
CONTINUOUS
 10
5.921080
 20
7.062440
  0
VERTEX
  8
0
  6
CONTINUOUS
 10
5.951000
 20
7.050120
  0
VERTEX
  8
0
  6
CONTINUOUS
 10
5.978720
 20
7.029880
  0
VERTEX
  8
0
  6
CONTINUOUS
 10
5.995880
 20
7.011840
  0
VERTEX
  8
0
  6
CONTINUOUS
 10
6.011720
 20
6.989400
  0
VERTEX
  8
0
  6
CONTINUOUS
 10
6.050000
 20
6.989400
  0
VERTEX
  8
0
  6
CONTINUOUS
 10
6.066720
 20
7.146920
  0
VERTEX
  8
0
  6
CONTINUOUS
 10
6.784800
 20
7.146920
  0
VERTEX
  8
0
  6
CONTINUOUS
 10
6.784800
 20
6.394520
  0
VERTEX
  8
0
  6
CONTINUOUS
 10
1.655280
 20
6.394520
  0
SEQEND
  8
0
  0
POLYLINE
  8
0
  6
CONTINUOUS
 66
     1
 40
0.000000
 41
0.000000
  0
VERTEX
  8
0
  6
CONTINUOUS
 10
1.655280
 20
2.444200
  0
VERTEX
  8
0
  6
CONTINUOUS
 10
1.655280
 20
3.196600
  0
VERTEX
  8
0
  6
CONTINUOUS
 10
2.373360
 20
3.196600
  0
VERTEX
  8
0
  6
CONTINUOUS
 10
2.390080
 20
3.039080
  0
VERTEX
  8
0
  6
CONTINUOUS
 10
2.428360
 20
3.039080
  0
VERTEX
  8
0
  6
CONTINUOUS
 10
2.444200
 20
3.061520
  0
VERTEX
  8
0
  6
CONTINUOUS
 10
2.461360
 20
3.079560
  0
VERTEX
  8
0
  6
CONTINUOUS
 10
2.489080
 20
3.099800
  0
VERTEX
  8
0
  6
CONTINUOUS
 10
2.519000
 20
3.112120
  0
VERTEX
  8
0
  6
CONTINUOUS
 10
2.539240
 20
3.116520
  0
VERTEX
  8
0
  6
CONTINUOUS
 10
2.560360
 20
3.117840
  0
VERTEX
  8
0
  6
CONTINUOUS
 10
2.581480
 20
3.116520
  0
VERTEX
  8
0
  6
CONTINUOUS
 10
2.602160
 20
3.112560
  0
VERTEX
  8
0
  6
CONTINUOUS
 10
2.622840
 20
3.106840
  0
VERTEX
  8
0
  6
CONTINUOUS
 10
2.662440
 20
3.089240
  0
VERTEX
  8
0
  6
CONTINUOUS
 10
2.698080
 20
3.065480
  0
VERTEX
  8
0
  6
CONTINUOUS
 10
2.728880
 20
3.037320
  0
VERTEX
  8
0
  6
CONTINUOUS
 10
2.755720
 20
3.011360
  0
VERTEX
  8
0
  6
CONTINUOUS
 10
2.782120
 20
2.992000
  0
VERTEX
  8
0
  6
CONTINUOUS
 10
2.808080
 20
2.977920
  0
VERTEX
  8
0
  6
CONTINUOUS
 10
2.847680
 20
2.964720
  0
VERTEX
  8
0
  6
CONTINUOUS
 10
2.889920
 20
2.957240
  0
VERTEX
  8
0
  6
CONTINUOUS
 10
2.952400
 20
2.951080
  0
VERTEX
  8
0
  6
CONTINUOUS
 10
2.968680
 20
2.894320
  0
VERTEX
  8
0
  6
CONTINUOUS
 10
3.054920
 20
2.894320
  0
VERTEX
  8
0
  6
CONTINUOUS
 10
3.074280
 20
2.820840
  0
VERTEX
  8
0
  6
CONTINUOUS
 10
3.306600
 20
2.820840
  0
VERTEX
  8
0
  6
CONTINUOUS
 10
3.351040
 20
2.883320
  0
VERTEX
  8
0
  6
CONTINUOUS
 10
3.405160
 20
2.877160
  0
VERTEX
  8
0
  6
CONTINUOUS
 10
3.454440
 20
2.876280
  0
VERTEX
  8
0
  6
CONTINUOUS
 10
3.500640
 20
2.880240
  0
VERTEX
  8
0
  6
CONTINUOUS
 10
3.545080
 20
2.888160
  0
VERTEX
  8
0
  6
CONTINUOUS
 10
3.588640
 20
2.900040
  0
VERTEX
  8
0
  6
CONTINUOUS
 10
3.655520
 20
2.924680
  0
VERTEX
  8
0
  6
CONTINUOUS
 10
3.727680
 20
2.956360
  0
VERTEX
  8
0
  6
CONTINUOUS
 10
3.838560
 20
3.010920
  0
VERTEX
  8
0
  6
CONTINUOUS
 10
3.925240
 20
3.046560
  0
VERTEX
  8
0
  6
CONTINUOUS
 10
3.985520
 20
3.066360
  0
VERTEX
  8
0
  6
CONTINUOUS
 10
4.048440
 20
3.082640
  0
VERTEX
  8
0
  6
CONTINUOUS
 10
4.081440
 20
3.089240
  0
VERTEX
  8
0
  6
CONTINUOUS
 10
4.149200
 20
3.098040
  0
VERTEX
  8
0
  6
CONTINUOUS
 10
4.184400
 20
3.100240
  0
VERTEX
  8
0
  6
CONTINUOUS
 10
4.220920
 20
3.101120
  0
VERTEX
  8
0
  6
CONTINUOUS
 10
4.219160
 20
3.101120
  0
VERTEX
  8
0
  6
CONTINUOUS
 10
4.255680
 20
3.100240
  0
VERTEX
  8
0
  6
CONTINUOUS
 10
4.290880
 20
3.098040
  0
VERTEX
  8
0
  6
CONTINUOUS
 10
4.359080
 20
3.089240
  0
VERTEX
  8
0
  6
CONTINUOUS
 10
4.423760
 20
3.075160
  0
VERTEX
  8
0
  6
CONTINUOUS
 10
4.485360
 20
3.057120
  0
VERTEX
  8
0
  6
CONTINUOUS
 10
4.544320
 20
3.035120
  0
VERTEX
  8
0
  6
CONTINUOUS
 10
4.601960
 20
3.010920
  0
VERTEX
  8
0
  6
CONTINUOUS
 10
4.737480
 20
2.944920
  0
VERTEX
  8
0
  6
CONTINUOUS
 10
4.829440
 20
2.907080
  0
VERTEX
  8
0
  6
CONTINUOUS
 10
4.873000
 20
2.893440
  0
VERTEX
  8
0
  6
CONTINUOUS
 10
4.917000
 20
2.883320
  0
VERTEX
  8
0
  6
CONTINUOUS
 10
4.962320
 20
2.877160
  0
VERTEX
  8
0
  6
CONTINUOUS
 10
5.009840
 20
2.875840
  0
VERTEX
  8
0
  6
CONTINUOUS
 10
5.034920
 20
2.876720
  0
VERTEX
  8
0
  6
CONTINUOUS
 10
5.089040
 20
2.882880
  0
VERTEX
  8
0
  6
CONTINUOUS
 10
5.133480
 20
2.820840
  0
VERTEX
  8
0
  6
CONTINUOUS
 10
5.365800
 20
2.820840
  0
VERTEX
  8
0
  6
CONTINUOUS
 10
5.385160
 20
2.893880
  0
VERTEX
  8
0
  6
CONTINUOUS
 10
5.471400
 20
2.893880
  0
VERTEX
  8
0
  6
CONTINUOUS
 10
5.487680
 20
2.950640
  0
VERTEX
  8
0
  6
CONTINUOUS
 10
5.550160
 20
2.956800
  0
VERTEX
  8
0
  6
CONTINUOUS
 10
5.592400
 20
2.964280
  0
VERTEX
  8
0
  6
CONTINUOUS
 10
5.632000
 20
2.977480
  0
VERTEX
  8
0
  6
CONTINUOUS
 10
5.657960
 20
2.991560
  0
VERTEX
  8
0
  6
CONTINUOUS
 10
5.684360
 20
3.010920
  0
VERTEX
  8
0
  6
CONTINUOUS
 10
5.725720
 20
3.051400
  0
VERTEX
  8
0
  6
CONTINUOUS
 10
5.759160
 20
3.077360
  0
VERTEX
  8
0
  6
CONTINUOUS
 10
5.777640
 20
3.088800
  0
VERTEX
  8
0
  6
CONTINUOUS
 10
5.817240
 20
3.106400
  0
VERTEX
  8
0
  6
CONTINUOUS
 10
5.837920
 20
3.112560
  0
VERTEX
  8
0
  6
CONTINUOUS
 10
5.859040
 20
3.116080
  0
VERTEX
  8
0
  6
CONTINUOUS
 10
5.879720
 20
3.117400
  0
VERTEX
  8
0
  6
CONTINUOUS
 10
5.900840
 20
3.116080
  0
VERTEX
  8
0
  6
CONTINUOUS
 10
5.931200
 20
3.108600
  0
VERTEX
  8
0
  6
CONTINUOUS
 10
5.960240
 20
3.093640
  0
VERTEX
  8
0
  6
CONTINUOUS
 10
5.987520
 20
3.070760
  0
VERTEX
  8
0
  6
CONTINUOUS
 10
6.011720
 20
3.038640
  0
VERTEX
  8
0
  6
CONTINUOUS
 10
6.050000
 20
3.038640
  0
VERTEX
  8
0
  6
CONTINUOUS
 10
6.066720
 20
3.196160
  0
VERTEX
  8
0
  6
CONTINUOUS
 10
6.784800
 20
3.196160
  0
VERTEX
  8
0
  6
CONTINUOUS
 10
6.784800
 20
2.444200
  0
VERTEX
  8
0
  6
CONTINUOUS
 10
1.655280
 20
2.444200
  0
SEQEND
  8
0
  0
TEXT
  8
0
 10
3.879040
 20
6.685800
 40
0.138165
  1
BA  1310
 41
1.000000
  7
SN0
 71
     0
 72
     5
 11
4.562426
 21
6.685800
  0
TEXT
  8
0
 10
3.769480
 20
6.484280
 40
0.138165
  1
3/4" x 5-1/8"
 41
1.000000
  7
SN0
 71
     0
 72
     5
 11
4.671487
 21
6.484280
  0
SOLID
  8
0
 62
    15
 10
4.218720
 20
4.756400
 11
4.219600
 21
5.504840
 12
4.290440
 22
4.753320
 13
4.291320
 23
5.501760
  0
POLYLINE
  8
0
  6
CONTINUOUS
 66
     1
 40
0.000000
 41
0.000000
  0
VERTEX
  8
0
  6
CONTINUOUS
 10
4.218720
 20
4.756400
  0
VERTEX
  8
0
  6
CONTINUOUS
 10
4.219600
 20
5.504840
  0
VERTEX
  8
0
  6
CONTINUOUS
 10
4.291320
 20
5.501760
  0
VERTEX
  8
0
  6
CONTINUOUS
 10
4.290440
 20
4.753320
  0
VERTEX
  8
0
  6
CONTINUOUS
 10
4.218720
 20
4.756400
  0
SEQEND
  8
0
  0
SOLID
  8
0
 62
    15
 10
2.372920
 20
4.851880
 11
2.373800
 21
5.600320
 12
2.389640
 22
4.694360
 13
2.390520
 23
5.442800
  0
POLYLINE
  8
0
  6
CONTINUOUS
 66
     1
 40
0.000000
 41
0.000000
  0
VERTEX
  8
0
  6
CONTINUOUS
 10
2.372920
 20
4.851880
  0
VERTEX
  8
0
  6
CONTINUOUS
 10
2.373800
 20
5.600320
  0
VERTEX
  8
0
  6
CONTINUOUS
 10
2.390520
 20
5.442800
  0
VERTEX
  8
0
  6
CONTINUOUS
 10
2.389640
 20
4.694360
  0
VERTEX
  8
0
  6
CONTINUOUS
 10
2.372920
 20
4.851880
  0
SEQEND
  8
0
  0
SOLID
  8
0
 62
    15
 10
2.389640
 20
4.694360
 11
2.390520
 21
5.442800
 12
2.427920
 22
4.694360
 13
2.428800
 23
5.442800
  0
POLYLINE
  8
0
  6
CONTINUOUS
 66
     1
 40
0.000000
 41
0.000000
  0
VERTEX
  8
0
  6
CONTINUOUS
 10
2.389640
 20
4.694360
  0
VERTEX
  8
0
  6
CONTINUOUS
 10
2.390520
 20
5.442800
  0
VERTEX
  8
0
  6
CONTINUOUS
 10
2.428800
 20
5.442800
  0
VERTEX
  8
0
  6
CONTINUOUS
 10
2.427920
 20
4.694360
  0
VERTEX
  8
0
  6
CONTINUOUS
 10
2.389640
 20
4.694360
  0
SEQEND
  8
0
  0
SOLID
  8
0
 62
    15
 10
2.427920
 20
4.694360
 11
2.428800
 21
5.442800
 12
2.443760
 22
4.716800
 13
2.444640
 23
5.465240
  0
POLYLINE
  8
0
  6
CONTINUOUS
 66
     1
 40
0.000000
 41
0.000000
  0
VERTEX
  8
0
  6
CONTINUOUS
 10
2.427920
 20
4.694360
  0
VERTEX
  8
0
  6
CONTINUOUS
 10
2.428800
 20
5.442800
  0
VERTEX
  8
0
  6
CONTINUOUS
 10
2.444640
 20
5.465240
  0
VERTEX
  8
0
  6
CONTINUOUS
 10
2.443760
 20
4.716800
  0
VERTEX
  8
0
  6
CONTINUOUS
 10
2.427920
 20
4.694360
  0
SEQEND
  8
0
  0
SOLID
  8
0
 62
    15
 10
2.443760
 20
4.716800
 11
2.444640
 21
5.465240
 12
2.460920
 22
4.734840
 13
2.461800
 23
5.483280
  0
POLYLINE
  8
0
  6
CONTINUOUS
 66
     1
 40
0.000000
 41
0.000000
  0
VERTEX
  8
0
  6
CONTINUOUS
 10
2.443760
 20
4.716800
  0
VERTEX
  8
0
  6
CONTINUOUS
 10
2.444640
 20
5.465240
  0
VERTEX
  8
0
  6
CONTINUOUS
 10
2.461800
 20
5.483280
  0
VERTEX
  8
0
  6
CONTINUOUS
 10
2.460920
 20
4.734840
  0
VERTEX
  8
0
  6
CONTINUOUS
 10
2.443760
 20
4.716800
  0
SEQEND
  8
0
  0
SOLID
  8
0
 62
    15
 10
2.460920
 20
4.734840
 11
2.461800
 21
5.483280
 12
2.479400
 22
4.749360
 13
2.479840
 23
5.497800
  0
POLYLINE
  8
0
  6
CONTINUOUS
 66
     1
 40
0.000000
 41
0.000000
  0
VERTEX
  8
0
  6
CONTINUOUS
 10
2.460920
 20
4.734840
  0
VERTEX
  8
0
  6
CONTINUOUS
 10
2.461800
 20
5.483280
  0
VERTEX
  8
0
  6
CONTINUOUS
 10
2.479840
 20
5.497800
  0
VERTEX
  8
0
  6
CONTINUOUS
 10
2.479400
 20
4.749360
  0
VERTEX
  8
0
  6
CONTINUOUS
 10
2.460920
 20
4.734840
  0
SEQEND
  8
0
  0
SOLID
  8
0
 62
    15
 10
2.479400
 20
4.749360
 11
2.479840
 21
5.497800
 12
2.498760
 22
4.760360
 13
2.499200
 23
5.508360
  0
POLYLINE
  8
0
  6
CONTINUOUS
 66
     1
 40
0.000000
 41
0.000000
  0
VERTEX
  8
0
  6
CONTINUOUS
 10
2.479400
 20
4.749360
  0
VERTEX
  8
0
  6
CONTINUOUS
 10
2.479840
 20
5.497800
  0
VERTEX
  8
0
  6
CONTINUOUS
 10
2.499200
 20
5.508360
  0
VERTEX
  8
0
  6
CONTINUOUS
 10
2.498760
 20
4.760360
  0
VERTEX
  8
0
  6
CONTINUOUS
 10
2.479400
 20
4.749360
  0
SEQEND
  8
0
  0
SOLID
  8
0
 62
    15
 10
2.498760
 20
4.760360
 11
2.499200
 21
5.508360
 12
2.539240
 22
4.771800
 13
2.539680
 23
5.520240
  0
POLYLINE
  8
0
  6
CONTINUOUS
 66
     1
 40
0.000000
 41
0.000000
  0
VERTEX
  8
0
  6
CONTINUOUS
 10
2.498760
 20
4.760360
  0
VERTEX
  8
0
  6
CONTINUOUS
 10
2.499200
 20
5.508360
  0
VERTEX
  8
0
  6
CONTINUOUS
 10
2.539680
 20
5.520240
  0
VERTEX
  8
0
  6
CONTINUOUS
 10
2.539240
 20
4.771800
  0
VERTEX
  8
0
  6
CONTINUOUS
 10
2.498760
 20
4.760360
  0
SEQEND
  8
0
  0
SOLID
  8
0
 62
    15
 10
2.539240
 20
4.771800
 11
2.539680
 21
5.520240
 12
2.581040
 22
4.771800
 13
2.581480
 23
5.520240
  0
POLYLINE
  8
0
  6
CONTINUOUS
 66
     1
 40
0.000000
 41
0.000000
  0
VERTEX
  8
0
  6
CONTINUOUS
 10
2.539240
 20
4.771800
  0
VERTEX
  8
0
  6
CONTINUOUS
 10
2.539680
 20
5.520240
  0
VERTEX
  8
0
  6
CONTINUOUS
 10
2.581480
 20
5.520240
  0
VERTEX
  8
0
  6
CONTINUOUS
 10
2.581040
 20
4.771800
  0
VERTEX
  8
0
  6
CONTINUOUS
 10
2.539240
 20
4.771800
  0
SEQEND
  8
0
  0
SOLID
  8
0
 62
    15
 10
2.581040
 20
4.771800
 11
2.581480
 21
5.520240
 12
2.622400
 22
4.762120
 13
2.623280
 23
5.510560
  0
POLYLINE
  8
0
  6
CONTINUOUS
 66
     1
 40
0.000000
 41
0.000000
  0
VERTEX
  8
0
  6
CONTINUOUS
 10
2.581040
 20
4.771800
  0
VERTEX
  8
0
  6
CONTINUOUS
 10
2.581480
 20
5.520240
  0
VERTEX
  8
0
  6
CONTINUOUS
 10
2.623280
 20
5.510560
  0
VERTEX
  8
0
  6
CONTINUOUS
 10
2.622400
 20
4.762120
  0
VERTEX
  8
0
  6
CONTINUOUS
 10
2.581040
 20
4.771800
  0
SEQEND
  8
0
  0
SOLID
  8
0
 62
    15
 10
2.622400
 20
4.762120
 11
2.623280
 21
5.510560
 12
2.662000
 22
4.744520
 13
2.662440
 23
5.492960
  0
POLYLINE
  8
0
  6
CONTINUOUS
 66
     1
 40
0.000000
 41
0.000000
  0
VERTEX
  8
0
  6
CONTINUOUS
 10
2.622400
 20
4.762120
  0
VERTEX
  8
0
  6
CONTINUOUS
 10
2.623280
 20
5.510560
  0
VERTEX
  8
0
  6
CONTINUOUS
 10
2.662440
 20
5.492960
  0
VERTEX
  8
0
  6
CONTINUOUS
 10
2.662000
 20
4.744520
  0
VERTEX
  8
0
  6
CONTINUOUS
 10
2.622400
 20
4.762120
  0
SEQEND
  8
0
  0
SOLID
  8
0
 62
    15
 10
2.662000
 20
4.744520
 11
2.662440
 21
5.492960
 12
2.697640
 22
4.720760
 13
2.698520
 23
5.469200
  0
POLYLINE
  8
0
  6
CONTINUOUS
 66
     1
 40
0.000000
 41
0.000000
  0
VERTEX
  8
0
  6
CONTINUOUS
 10
2.662000
 20
4.744520
  0
VERTEX
  8
0
  6
CONTINUOUS
 10
2.662440
 20
5.492960
  0
VERTEX
  8
0
  6
CONTINUOUS
 10
2.698520
 20
5.469200
  0
VERTEX
  8
0
  6
CONTINUOUS
 10
2.697640
 20
4.720760
  0
VERTEX
  8
0
  6
CONTINUOUS
 10
2.662000
 20
4.744520
  0
SEQEND
  8
0
  0
SOLID
  8
0
 62
    15
 10
2.697640
 20
4.720760
 11
2.698520
 21
5.469200
 12
2.728440
 22
4.692600
 13
2.729320
 23
5.441040
  0
POLYLINE
  8
0
  6
CONTINUOUS
 66
     1
 40
0.000000
 41
0.000000
  0
VERTEX
  8
0
  6
CONTINUOUS
 10
2.697640
 20
4.720760
  0
VERTEX
  8
0
  6
CONTINUOUS
 10
2.698520
 20
5.469200
  0
VERTEX
  8
0
  6
CONTINUOUS
 10
2.729320
 20
5.441040
  0
VERTEX
  8
0
  6
CONTINUOUS
 10
2.728440
 20
4.692600
  0
VERTEX
  8
0
  6
CONTINUOUS
 10
2.697640
 20
4.720760
  0
SEQEND
  8
0
  0
SOLID
  8
0
 62
    15
 10
2.728440
 20
4.692600
 11
2.729320
 21
5.441040
 12
2.755280
 22
4.666640
 13
2.756160
 23
5.415080
  0
POLYLINE
  8
0
  6
CONTINUOUS
 66
     1
 40
0.000000
 41
0.000000
  0
VERTEX
  8
0
  6
CONTINUOUS
 10
2.728440
 20
4.692600
  0
VERTEX
  8
0
  6
CONTINUOUS
 10
2.729320
 20
5.441040
  0
VERTEX
  8
0
  6
CONTINUOUS
 10
2.756160
 20
5.415080
  0
VERTEX
  8
0
  6
CONTINUOUS
 10
2.755280
 20
4.666640
  0
VERTEX
  8
0
  6
CONTINUOUS
 10
2.728440
 20
4.692600
  0
SEQEND
  8
0
  0
SOLID
  8
0
 62
    15
 10
2.755280
 20
4.666640
 11
2.756160
 21
5.415080
 12
2.781680
 22
4.647280
 13
2.782120
 23
5.395720
  0
POLYLINE
  8
0
  6
CONTINUOUS
 66
     1
 40
0.000000
 41
0.000000
  0
VERTEX
  8
0
  6
CONTINUOUS
 10
2.755280
 20
4.666640
  0
VERTEX
  8
0
  6
CONTINUOUS
 10
2.756160
 20
5.415080
  0
VERTEX
  8
0
  6
CONTINUOUS
 10
2.782120
 20
5.395720
  0
VERTEX
  8
0
  6
CONTINUOUS
 10
2.781680
 20
4.647280
  0
VERTEX
  8
0
  6
CONTINUOUS
 10
2.755280
 20
4.666640
  0
SEQEND
  8
0
  0
SOLID
  8
0
 62
    15
 10
2.781680
 20
4.647280
 11
2.782120
 21
5.395720
 12
2.807640
 22
4.633200
 13
2.808520
 23
5.381640
  0
POLYLINE
  8
0
  6
CONTINUOUS
 66
     1
 40
0.000000
 41
0.000000
  0
VERTEX
  8
0
  6
CONTINUOUS
 10
2.781680
 20
4.647280
  0
VERTEX
  8
0
  6
CONTINUOUS
 10
2.782120
 20
5.395720
  0
VERTEX
  8
0
  6
CONTINUOUS
 10
2.808520
 20
5.381640
  0
VERTEX
  8
0
  6
CONTINUOUS
 10
2.807640
 20
4.633200
  0
VERTEX
  8
0
  6
CONTINUOUS
 10
2.781680
 20
4.647280
  0
SEQEND
  8
0
  0
SOLID
  8
0
 62
    15
 10
2.807640
 20
4.633200
 11
2.808520
 21
5.381640
 12
2.834040
 22
4.623520
 13
2.834480
 23
5.371960
  0
POLYLINE
  8
0
  6
CONTINUOUS
 66
     1
 40
0.000000
 41
0.000000
  0
VERTEX
  8
0
  6
CONTINUOUS
 10
2.807640
 20
4.633200
  0
VERTEX
  8
0
  6
CONTINUOUS
 10
2.808520
 20
5.381640
  0
VERTEX
  8
0
  6
CONTINUOUS
 10
2.834480
 20
5.371960
  0
VERTEX
  8
0
  6
CONTINUOUS
 10
2.834040
 20
4.623520
  0
VERTEX
  8
0
  6
CONTINUOUS
 10
2.807640
 20
4.633200
  0
SEQEND
  8
0
  0
SOLID
  8
0
 62
    15
 10
2.834040
 20
4.623520
 11
2.834480
 21
5.371960
 12
2.889480
 22
4.612960
 13
2.889920
 23
5.360960
  0
POLYLINE
  8
0
  6
CONTINUOUS
 66
     1
 40
0.000000
 41
0.000000
  0
VERTEX
  8
0
  6
CONTINUOUS
 10
2.834040
 20
4.623520
  0
VERTEX
  8
0
  6
CONTINUOUS
 10
2.834480
 20
5.371960
  0
VERTEX
  8
0
  6
CONTINUOUS
 10
2.889920
 20
5.360960
  0
VERTEX
  8
0
  6
CONTINUOUS
 10
2.889480
 20
4.612960
  0
VERTEX
  8
0
  6
CONTINUOUS
 10
2.834040
 20
4.623520
  0
SEQEND
  8
0
  0
SOLID
  8
0
 62
    15
 10
2.889480
 20
4.612960
 11
2.889920
 21
5.360960
 12
2.951960
 22
4.606360
 13
2.952840
 23
5.354800
  0
POLYLINE
  8
0
  6
CONTINUOUS
 66
     1
 40
0.000000
 41
0.000000
  0
VERTEX
  8
0
  6
CONTINUOUS
 10
2.889480
 20
4.612960
  0
VERTEX
  8
0
  6
CONTINUOUS
 10
2.889920
 20
5.360960
  0
VERTEX
  8
0
  6
CONTINUOUS
 10
2.952840
 20
5.354800
  0
VERTEX
  8
0
  6
CONTINUOUS
 10
2.951960
 20
4.606360
  0
VERTEX
  8
0
  6
CONTINUOUS
 10
2.889480
 20
4.612960
  0
SEQEND
  8
0
  0
SOLID
  8
0
 62
    15
 10
2.951960
 20
4.606360
 11
2.952840
 21
5.354800
 12
2.968240
 22
4.549600
 13
2.969120
 23
5.298040
  0
POLYLINE
  8
0
  6
CONTINUOUS
 66
     1
 40
0.000000
 41
0.000000
  0
VERTEX
  8
0
  6
CONTINUOUS
 10
2.951960
 20
4.606360
  0
VERTEX
  8
0
  6
CONTINUOUS
 10
2.952840
 20
5.354800
  0
VERTEX
  8
0
  6
CONTINUOUS
 10
2.969120
 20
5.298040
  0
VERTEX
  8
0
  6
CONTINUOUS
 10
2.968240
 20
4.549600
  0
VERTEX
  8
0
  6
CONTINUOUS
 10
2.951960
 20
4.606360
  0
SEQEND
  8
0
  0
SOLID
  8
0
 62
    15
 10
2.968240
 20
4.549600
 11
2.969120
 21
5.298040
 12
3.054480
 22
4.549600
 13
3.055360
 23
5.298040
  0
POLYLINE
  8
0
  6
CONTINUOUS
 66
     1
 40
0.000000
 41
0.000000
  0
VERTEX
  8
0
  6
CONTINUOUS
 10
2.968240
 20
4.549600
  0
VERTEX
  8
0
  6
CONTINUOUS
 10
2.969120
 20
5.298040
  0
VERTEX
  8
0
  6
CONTINUOUS
 10
3.055360
 20
5.298040
  0
VERTEX
  8
0
  6
CONTINUOUS
 10
3.054480
 20
4.549600
  0
VERTEX
  8
0
  6
CONTINUOUS
 10
2.968240
 20
4.549600
  0
SEQEND
  8
0
  0
SOLID
  8
0
 62
    15
 10
3.054480
 20
4.549600
 11
3.055360
 21
5.298040
 12
3.074280
 22
4.476560
 13
3.074720
 23
5.225000
  0
POLYLINE
  8
0
  6
CONTINUOUS
 66
     1
 40
0.000000
 41
0.000000
  0
VERTEX
  8
0
  6
CONTINUOUS
 10
3.054480
 20
4.549600
  0
VERTEX
  8
0
  6
CONTINUOUS
 10
3.055360
 20
5.298040
  0
VERTEX
  8
0
  6
CONTINUOUS
 10
3.074720
 20
5.225000
  0
VERTEX
  8
0
  6
CONTINUOUS
 10
3.074280
 20
4.476560
  0
VERTEX
  8
0
  6
CONTINUOUS
 10
3.054480
 20
4.549600
  0
SEQEND
  8
0
  0
SOLID
  8
0
 62
    15
 10
3.074280
 20
4.476560
 11
3.074720
 21
5.225000
 12
3.306160
 22
4.476560
 13
3.307040
 23
5.225000
  0
POLYLINE
  8
0
  6
CONTINUOUS
 66
     1
 40
0.000000
 41
0.000000
  0
VERTEX
  8
0
  6
CONTINUOUS
 10
3.074280
 20
4.476560
  0
VERTEX
  8
0
  6
CONTINUOUS
 10
3.074720
 20
5.225000
  0
VERTEX
  8
0
  6
CONTINUOUS
 10
3.307040
 20
5.225000
  0
VERTEX
  8
0
  6
CONTINUOUS
 10
3.306160
 20
4.476560
  0
VERTEX
  8
0
  6
CONTINUOUS
 10
3.074280
 20
4.476560
  0
SEQEND
  8
0
  0
SOLID
  8
0
 62
    15
 10
3.306160
 20
4.476560
 11
3.307040
 21
5.225000
 12
3.350600
 22
4.538600
 13
3.351480
 23
5.287040
  0
POLYLINE
  8
0
  6
CONTINUOUS
 66
     1
 40
0.000000
 41
0.000000
  0
VERTEX
  8
0
  6
CONTINUOUS
 10
3.306160
 20
4.476560
  0
VERTEX
  8
0
  6
CONTINUOUS
 10
3.307040
 20
5.225000
  0
VERTEX
  8
0
  6
CONTINUOUS
 10
3.351480
 20
5.287040
  0
VERTEX
  8
0
  6
CONTINUOUS
 10
3.350600
 20
4.538600
  0
VERTEX
  8
0
  6
CONTINUOUS
 10
3.306160
 20
4.476560
  0
SEQEND
  8
0
  0
SOLID
  8
0
 62
    15
 10
3.350600
 20
4.538600
 11
3.351480
 21
5.287040
 12
3.404720
 22
4.532880
 13
3.405160
 23
5.280880
  0
POLYLINE
  8
0
  6
CONTINUOUS
 66
     1
 40
0.000000
 41
0.000000
  0
VERTEX
  8
0
  6
CONTINUOUS
 10
3.350600
 20
4.538600
  0
VERTEX
  8
0
  6
CONTINUOUS
 10
3.351480
 20
5.287040
  0
VERTEX
  8
0
  6
CONTINUOUS
 10
3.405160
 20
5.280880
  0
VERTEX
  8
0
  6
CONTINUOUS
 10
3.404720
 20
4.532880
  0
VERTEX
  8
0
  6
CONTINUOUS
 10
3.350600
 20
4.538600
  0
SEQEND
  8
0
  0
SOLID
  8
0
 62
    15
 10
3.404720
 20
4.532880
 11
3.405160
 21
5.280880
 12
3.454000
 22
4.532000
 13
3.454880
 23
5.280000
  0
POLYLINE
  8
0
  6
CONTINUOUS
 66
     1
 40
0.000000
 41
0.000000
  0
VERTEX
  8
0
  6
CONTINUOUS
 10
3.404720
 20
4.532880
  0
VERTEX
  8
0
  6
CONTINUOUS
 10
3.405160
 20
5.280880
  0
VERTEX
  8
0
  6
CONTINUOUS
 10
3.454880
 20
5.280000
  0
VERTEX
  8
0
  6
CONTINUOUS
 10
3.454000
 20
4.532000
  0
VERTEX
  8
0
  6
CONTINUOUS
 10
3.404720
 20
4.532880
  0
SEQEND
  8
0
  0
SOLID
  8
0
 62
    15
 10
3.454000
 20
4.532000
 11
3.454880
 21
5.280000
 12
3.500200
 22
4.535520
 13
3.501080
 23
5.283960
  0
POLYLINE
  8
0
  6
CONTINUOUS
 66
     1
 40
0.000000
 41
0.000000
  0
VERTEX
  8
0
  6
CONTINUOUS
 10
3.454000
 20
4.532000
  0
VERTEX
  8
0
  6
CONTINUOUS
 10
3.454880
 20
5.280000
  0
VERTEX
  8
0
  6
CONTINUOUS
 10
3.501080
 20
5.283960
  0
VERTEX
  8
0
  6
CONTINUOUS
 10
3.500200
 20
4.535520
  0
VERTEX
  8
0
  6
CONTINUOUS
 10
3.454000
 20
4.532000
  0
SEQEND
  8
0
  0
SOLID
  8
0
 62
    15
 10
3.500200
 20
4.535520
 11
3.501080
 21
5.283960
 12
3.544640
 22
4.543440
 13
3.545520
 23
5.291880
  0
POLYLINE
  8
0
  6
CONTINUOUS
 66
     1
 40
0.000000
 41
0.000000
  0
VERTEX
  8
0
  6
CONTINUOUS
 10
3.500200
 20
4.535520
  0
VERTEX
  8
0
  6
CONTINUOUS
 10
3.501080
 20
5.283960
  0
VERTEX
  8
0
  6
CONTINUOUS
 10
3.545520
 20
5.291880
  0
VERTEX
  8
0
  6
CONTINUOUS
 10
3.544640
 20
4.543440
  0
VERTEX
  8
0
  6
CONTINUOUS
 10
3.500200
 20
4.535520
  0
SEQEND
  8
0
  0
SOLID
  8
0
 62
    15
 10
3.544640
 20
4.543440
 11
3.545520
 21
5.291880
 12
3.588200
 22
4.555760
 13
3.589080
 23
5.303760
  0
POLYLINE
  8
0
  6
CONTINUOUS
 66
     1
 40
0.000000
 41
0.000000
  0
VERTEX
  8
0
  6
CONTINUOUS
 10
3.544640
 20
4.543440
  0
VERTEX
  8
0
  6
CONTINUOUS
 10
3.545520
 20
5.291880
  0
VERTEX
  8
0
  6
CONTINUOUS
 10
3.589080
 20
5.303760
  0
VERTEX
  8
0
  6
CONTINUOUS
 10
3.588200
 20
4.555760
  0
VERTEX
  8
0
  6
CONTINUOUS
 10
3.544640
 20
4.543440
  0
SEQEND
  8
0
  0
SOLID
  8
0
 62
    15
 10
3.588200
 20
4.555760
 11
3.589080
 21
5.303760
 12
3.632640
 22
4.571160
 13
3.633080
 23
5.319600
  0
POLYLINE
  8
0
  6
CONTINUOUS
 66
     1
 40
0.000000
 41
0.000000
  0
VERTEX
  8
0
  6
CONTINUOUS
 10
3.588200
 20
4.555760
  0
VERTEX
  8
0
  6
CONTINUOUS
 10
3.589080
 20
5.303760
  0
VERTEX
  8
0
  6
CONTINUOUS
 10
3.633080
 20
5.319600
  0
VERTEX
  8
0
  6
CONTINUOUS
 10
3.632640
 20
4.571160
  0
VERTEX
  8
0
  6
CONTINUOUS
 10
3.588200
 20
4.555760
  0
SEQEND
  8
0
  0
SOLID
  8
0
 62
    15
 10
3.632640
 20
4.571160
 11
3.633080
 21
5.319600
 12
3.678400
 22
4.590080
 13
3.679280
 23
5.338520
  0
POLYLINE
  8
0
  6
CONTINUOUS
 66
     1
 40
0.000000
 41
0.000000
  0
VERTEX
  8
0
  6
CONTINUOUS
 10
3.632640
 20
4.571160
  0
VERTEX
  8
0
  6
CONTINUOUS
 10
3.633080
 20
5.319600
  0
VERTEX
  8
0
  6
CONTINUOUS
 10
3.679280
 20
5.338520
  0
VERTEX
  8
0
  6
CONTINUOUS
 10
3.678400
 20
4.590080
  0
VERTEX
  8
0
  6
CONTINUOUS
 10
3.632640
 20
4.571160
  0
SEQEND
  8
0
  0
SOLID
  8
0
 62
    15
 10
3.678400
 20
4.590080
 11
3.679280
 21
5.338520
 12
3.727680
 22
4.612080
 13
3.728120
 23
5.360080
  0
POLYLINE
  8
0
  6
CONTINUOUS
 66
     1
 40
0.000000
 41
0.000000
  0
VERTEX
  8
0
  6
CONTINUOUS
 10
3.678400
 20
4.590080
  0
VERTEX
  8
0
  6
CONTINUOUS
 10
3.679280
 20
5.338520
  0
VERTEX
  8
0
  6
CONTINUOUS
 10
3.728120
 20
5.360080
  0
VERTEX
  8
0
  6
CONTINUOUS
 10
3.727680
 20
4.612080
  0
VERTEX
  8
0
  6
CONTINUOUS
 10
3.678400
 20
4.590080
  0
SEQEND
  8
0
  0
SOLID
  8
0
 62
    15
 10
3.727680
 20
4.612080
 11
3.728120
 21
5.360080
 12
3.838120
 22
4.666200
 13
3.838560
 23
5.414640
  0
POLYLINE
  8
0
  6
CONTINUOUS
 66
     1
 40
0.000000
 41
0.000000
  0
VERTEX
  8
0
  6
CONTINUOUS
 10
3.727680
 20
4.612080
  0
VERTEX
  8
0
  6
CONTINUOUS
 10
3.728120
 20
5.360080
  0
VERTEX
  8
0
  6
CONTINUOUS
 10
3.838560
 20
5.414640
  0
VERTEX
  8
0
  6
CONTINUOUS
 10
3.838120
 20
4.666200
  0
VERTEX
  8
0
  6
CONTINUOUS
 10
3.727680
 20
4.612080
  0
SEQEND
  8
0
  0
SOLID
  8
0
 62
    15
 10
3.838120
 20
4.666200
 11
3.838560
 21
5.414640
 12
3.954280
 22
4.712400
 13
3.955160
 23
5.460840
  0
POLYLINE
  8
0
  6
CONTINUOUS
 66
     1
 40
0.000000
 41
0.000000
  0
VERTEX
  8
0
  6
CONTINUOUS
 10
3.838120
 20
4.666200
  0
VERTEX
  8
0
  6
CONTINUOUS
 10
3.838560
 20
5.414640
  0
VERTEX
  8
0
  6
CONTINUOUS
 10
3.955160
 20
5.460840
  0
VERTEX
  8
0
  6
CONTINUOUS
 10
3.954280
 20
4.712400
  0
VERTEX
  8
0
  6
CONTINUOUS
 10
3.838120
 20
4.666200
  0
SEQEND
  8
0
  0
SOLID
  8
0
 62
    15
 10
3.954280
 20
4.712400
 11
3.955160
 21
5.460840
 12
4.016320
 22
4.730880
 13
4.016760
 23
5.478880
  0
POLYLINE
  8
0
  6
CONTINUOUS
 66
     1
 40
0.000000
 41
0.000000
  0
VERTEX
  8
0
  6
CONTINUOUS
 10
3.954280
 20
4.712400
  0
VERTEX
  8
0
  6
CONTINUOUS
 10
3.955160
 20
5.460840
  0
VERTEX
  8
0
  6
CONTINUOUS
 10
4.016760
 20
5.478880
  0
VERTEX
  8
0
  6
CONTINUOUS
 10
4.016320
 20
4.730880
  0
VERTEX
  8
0
  6
CONTINUOUS
 10
3.954280
 20
4.712400
  0
SEQEND
  8
0
  0
SOLID
  8
0
 62
    15
 10
4.016320
 20
4.730880
 11
4.016760
 21
5.478880
 12
4.081000
 22
4.744960
 13
4.081440
 23
5.492960
  0
POLYLINE
  8
0
  6
CONTINUOUS
 66
     1
 40
0.000000
 41
0.000000
  0
VERTEX
  8
0
  6
CONTINUOUS
 10
4.016320
 20
4.730880
  0
VERTEX
  8
0
  6
CONTINUOUS
 10
4.016760
 20
5.478880
  0
VERTEX
  8
0
  6
CONTINUOUS
 10
4.081440
 20
5.492960
  0
VERTEX
  8
0
  6
CONTINUOUS
 10
4.081000
 20
4.744960
  0
VERTEX
  8
0
  6
CONTINUOUS
 10
4.016320
 20
4.730880
  0
SEQEND
  8
0
  0
SOLID
  8
0
 62
    15
 10
4.081000
 20
4.744960
 11
4.081440
 21
5.492960
 12
4.148760
 22
4.753760
 13
4.149640
 23
5.501760
  0
POLYLINE
  8
0
  6
CONTINUOUS
 66
     1
 40
0.000000
 41
0.000000
  0
VERTEX
  8
0
  6
CONTINUOUS
 10
4.081000
 20
4.744960
  0
VERTEX
  8
0
  6
CONTINUOUS
 10
4.081440
 20
5.492960
  0
VERTEX
  8
0
  6
CONTINUOUS
 10
4.149640
 20
5.501760
  0
VERTEX
  8
0
  6
CONTINUOUS
 10
4.148760
 20
4.753760
  0
VERTEX
  8
0
  6
CONTINUOUS
 10
4.081000
 20
4.744960
  0
SEQEND
  8
0
  0
SOLID
  8
0
 62
    15
 10
4.148760
 20
4.753760
 11
4.149640
 21
5.501760
 12
4.220480
 22
4.756840
 13
4.221360
 23
5.504840
  0
POLYLINE
  8
0
  6
CONTINUOUS
 66
     1
 40
0.000000
 41
0.000000
  0
VERTEX
  8
0
  6
CONTINUOUS
 10
4.148760
 20
4.753760
  0
VERTEX
  8
0
  6
CONTINUOUS
 10
4.149640
 20
5.501760
  0
VERTEX
  8
0
  6
CONTINUOUS
 10
4.221360
 20
5.504840
  0
VERTEX
  8
0
  6
CONTINUOUS
 10
4.220480
 20
4.756840
  0
VERTEX
  8
0
  6
CONTINUOUS
 10
4.148760
 20
4.753760
  0
SEQEND
  8
0
  0
SOLID
  8
0
 62
    15
 10
1.654840
 20
4.851880
 11
1.655720
 21
5.600320
 12
2.372920
 22
4.851880
 13
2.373800
 23
5.600320
  0
POLYLINE
  8
0
  6
CONTINUOUS
 66
     1
 40
0.000000
 41
0.000000
  0
VERTEX
  8
0
  6
CONTINUOUS
 10
1.654840
 20
4.851880
  0
VERTEX
  8
0
  6
CONTINUOUS
 10
1.655720
 20
5.600320
  0
VERTEX
  8
0
  6
CONTINUOUS
 10
2.373800
 20
5.600320
  0
VERTEX
  8
0
  6
CONTINUOUS
 10
2.372920
 20
4.851880
  0
VERTEX
  8
0
  6
CONTINUOUS
 10
1.654840
 20
4.851880
  0
SEQEND
  8
0
  0
SOLID
  8
0
 62
    15
 10
4.290440
 20
4.753320
 11
4.291320
 21
5.501760
 12
4.358640
 22
4.744520
 13
4.359080
 23
5.492520
  0
POLYLINE
  8
0
  6
CONTINUOUS
 66
     1
 40
0.000000
 41
0.000000
  0
VERTEX
  8
0
  6
CONTINUOUS
 10
4.290440
 20
4.753320
  0
VERTEX
  8
0
  6
CONTINUOUS
 10
4.291320
 20
5.501760
  0
VERTEX
  8
0
  6
CONTINUOUS
 10
4.359080
 20
5.492520
  0
VERTEX
  8
0
  6
CONTINUOUS
 10
4.358640
 20
4.744520
  0
VERTEX
  8
0
  6
CONTINUOUS
 10
4.290440
 20
4.753320
  0
SEQEND
  8
0
  0
SOLID
  8
0
 62
    15
 10
4.358640
 20
4.744520
 11
4.359080
 21
5.492520
 12
4.423320
 22
4.730440
 13
4.423760
 23
5.478880
  0
POLYLINE
  8
0
  6
CONTINUOUS
 66
     1
 40
0.000000
 41
0.000000
  0
VERTEX
  8
0
  6
CONTINUOUS
 10
4.358640
 20
4.744520
  0
VERTEX
  8
0
  6
CONTINUOUS
 10
4.359080
 20
5.492520
  0
VERTEX
  8
0
  6
CONTINUOUS
 10
4.423760
 20
5.478880
  0
VERTEX
  8
0
  6
CONTINUOUS
 10
4.423320
 20
4.730440
  0
VERTEX
  8
0
  6
CONTINUOUS
 10
4.358640
 20
4.744520
  0
SEQEND
  8
0
  0
SOLID
  8
0
 62
    15
 10
4.423320
 20
4.730440
 11
4.423760
 21
5.478880
 12
4.484920
 22
4.712400
 13
4.485800
 23
5.460400
  0
POLYLINE
  8
0
  6
CONTINUOUS
 66
     1
 40
0.000000
 41
0.000000
  0
VERTEX
  8
0
  6
CONTINUOUS
 10
4.423320
 20
4.730440
  0
VERTEX
  8
0
  6
CONTINUOUS
 10
4.423760
 20
5.478880
  0
VERTEX
  8
0
  6
CONTINUOUS
 10
4.485800
 20
5.460400
  0
VERTEX
  8
0
  6
CONTINUOUS
 10
4.484920
 20
4.712400
  0
VERTEX
  8
0
  6
CONTINUOUS
 10
4.423320
 20
4.730440
  0
SEQEND
  8
0
  0
SOLID
  8
0
 62
    15
 10
4.484920
 20
4.712400
 11
4.485800
 21
5.460400
 12
4.601520
 22
4.666200
 13
4.601960
 23
5.414200
  0
POLYLINE
  8
0
  6
CONTINUOUS
 66
     1
 40
0.000000
 41
0.000000
  0
VERTEX
  8
0
  6
CONTINUOUS
 10
4.484920
 20
4.712400
  0
VERTEX
  8
0
  6
CONTINUOUS
 10
4.485800
 20
5.460400
  0
VERTEX
  8
0
  6
CONTINUOUS
 10
4.601960
 20
5.414200
  0
VERTEX
  8
0
  6
CONTINUOUS
 10
4.601520
 20
4.666200
  0
VERTEX
  8
0
  6
CONTINUOUS
 10
4.484920
 20
4.712400
  0
SEQEND
  8
0
  0
SOLID
  8
0
 62
    15
 10
4.601520
 20
4.666200
 11
4.601960
 21
5.414200
 12
4.711960
 22
4.611640
 13
4.712400
 23
5.360080
  0
POLYLINE
  8
0
  6
CONTINUOUS
 66
     1
 40
0.000000
 41
0.000000
  0
VERTEX
  8
0
  6
CONTINUOUS
 10
4.601520
 20
4.666200
  0
VERTEX
  8
0
  6
CONTINUOUS
 10
4.601960
 20
5.414200
  0
VERTEX
  8
0
  6
CONTINUOUS
 10
4.712400
 20
5.360080
  0
VERTEX
  8
0
  6
CONTINUOUS
 10
4.711960
 20
4.611640
  0
VERTEX
  8
0
  6
CONTINUOUS
 10
4.601520
 20
4.666200
  0
SEQEND
  8
0
  0
SOLID
  8
0
 62
    15
 10
4.711960
 20
4.611640
 11
4.712400
 21
5.360080
 12
4.760800
 22
4.589640
 13
4.761680
 23
5.338080
  0
POLYLINE
  8
0
  6
CONTINUOUS
 66
     1
 40
0.000000
 41
0.000000
  0
VERTEX
  8
0
  6
CONTINUOUS
 10
4.711960
 20
4.611640
  0
VERTEX
  8
0
  6
CONTINUOUS
 10
4.712400
 20
5.360080
  0
VERTEX
  8
0
  6
CONTINUOUS
 10
4.761680
 20
5.338080
  0
VERTEX
  8
0
  6
CONTINUOUS
 10
4.760800
 20
4.589640
  0
VERTEX
  8
0
  6
CONTINUOUS
 10
4.711960
 20
4.611640
  0
SEQEND
  8
0
  0
SOLID
  8
0
 62
    15
 10
4.760800
 20
4.589640
 11
4.761680
 21
5.338080
 12
4.807000
 22
4.571160
 13
4.807440
 23
5.319160
  0
POLYLINE
  8
0
  6
CONTINUOUS
 66
     1
 40
0.000000
 41
0.000000
  0
VERTEX
  8
0
  6
CONTINUOUS
 10
4.760800
 20
4.589640
  0
VERTEX
  8
0
  6
CONTINUOUS
 10
4.761680
 20
5.338080
  0
VERTEX
  8
0
  6
CONTINUOUS
 10
4.807440
 20
5.319160
  0
VERTEX
  8
0
  6
CONTINUOUS
 10
4.807000
 20
4.571160
  0
VERTEX
  8
0
  6
CONTINUOUS
 10
4.760800
 20
4.589640
  0
SEQEND
  8
0
  0
SOLID
  8
0
 62
    15
 10
4.807000
 20
4.571160
 11
4.807440
 21
5.319160
 12
4.851000
 22
4.555320
 13
4.851880
 23
5.303760
  0
POLYLINE
  8
0
  6
CONTINUOUS
 66
     1
 40
0.000000
 41
0.000000
  0
VERTEX
  8
0
  6
CONTINUOUS
 10
4.807000
 20
4.571160
  0
VERTEX
  8
0
  6
CONTINUOUS
 10
4.807440
 20
5.319160
  0
VERTEX
  8
0
  6
CONTINUOUS
 10
4.851880
 20
5.303760
  0
VERTEX
  8
0
  6
CONTINUOUS
 10
4.851000
 20
4.555320
  0
VERTEX
  8
0
  6
CONTINUOUS
 10
4.807000
 20
4.571160
  0
SEQEND
  8
0
  0
SOLID
  8
0
 62
    15
 10
4.851000
 20
4.555320
 11
4.851880
 21
5.303760
 12
4.894560
 22
4.543440
 13
4.895440
 23
5.291440
  0
POLYLINE
  8
0
  6
CONTINUOUS
 66
     1
 40
0.000000
 41
0.000000
  0
VERTEX
  8
0
  6
CONTINUOUS
 10
4.851000
 20
4.555320
  0
VERTEX
  8
0
  6
CONTINUOUS
 10
4.851880
 20
5.303760
  0
VERTEX
  8
0
  6
CONTINUOUS
 10
4.895440
 20
5.291440
  0
VERTEX
  8
0
  6
CONTINUOUS
 10
4.894560
 20
4.543440
  0
VERTEX
  8
0
  6
CONTINUOUS
 10
4.851000
 20
4.555320
  0
SEQEND
  8
0
  0
SOLID
  8
0
 62
    15
 10
4.894560
 20
4.543440
 11
4.895440
 21
5.291440
 12
4.939000
 22
4.535080
 13
4.939880
 23
5.283520
  0
POLYLINE
  8
0
  6
CONTINUOUS
 66
     1
 40
0.000000
 41
0.000000
  0
VERTEX
  8
0
  6
CONTINUOUS
 10
4.894560
 20
4.543440
  0
VERTEX
  8
0
  6
CONTINUOUS
 10
4.895440
 20
5.291440
  0
VERTEX
  8
0
  6
CONTINUOUS
 10
4.939880
 20
5.283520
  0
VERTEX
  8
0
  6
CONTINUOUS
 10
4.939000
 20
4.535080
  0
VERTEX
  8
0
  6
CONTINUOUS
 10
4.894560
 20
4.543440
  0
SEQEND
  8
0
  0
SOLID
  8
0
 62
    15
 10
4.939000
 20
4.535080
 11
4.939880
 21
5.283520
 12
4.985200
 22
4.531560
 13
4.986080
 23
5.280000
  0
POLYLINE
  8
0
  6
CONTINUOUS
 66
     1
 40
0.000000
 41
0.000000
  0
VERTEX
  8
0
  6
CONTINUOUS
 10
4.939000
 20
4.535080
  0
VERTEX
  8
0
  6
CONTINUOUS
 10
4.939880
 20
5.283520
  0
VERTEX
  8
0
  6
CONTINUOUS
 10
4.986080
 20
5.280000
  0
VERTEX
  8
0
  6
CONTINUOUS
 10
4.985200
 20
4.531560
  0
VERTEX
  8
0
  6
CONTINUOUS
 10
4.939000
 20
4.535080
  0
SEQEND
  8
0
  0
SOLID
  8
0
 62
    15
 10
4.985200
 20
4.531560
 11
4.986080
 21
5.280000
 12
5.034920
 22
4.532440
 13
5.035360
 23
5.280880
  0
POLYLINE
  8
0
  6
CONTINUOUS
 66
     1
 40
0.000000
 41
0.000000
  0
VERTEX
  8
0
  6
CONTINUOUS
 10
4.985200
 20
4.531560
  0
VERTEX
  8
0
  6
CONTINUOUS
 10
4.986080
 20
5.280000
  0
VERTEX
  8
0
  6
CONTINUOUS
 10
5.035360
 20
5.280880
  0
VERTEX
  8
0
  6
CONTINUOUS
 10
5.034920
 20
4.532440
  0
VERTEX
  8
0
  6
CONTINUOUS
 10
4.985200
 20
4.531560
  0
SEQEND
  8
0
  0
SOLID
  8
0
 62
    15
 10
5.034920
 20
4.532440
 11
5.035360
 21
5.280880
 12
5.088600
 22
4.538600
 13
5.089480
 23
5.286600
  0
POLYLINE
  8
0
  6
CONTINUOUS
 66
     1
 40
0.000000
 41
0.000000
  0
VERTEX
  8
0
  6
CONTINUOUS
 10
5.034920
 20
4.532440
  0
VERTEX
  8
0
  6
CONTINUOUS
 10
5.035360
 20
5.280880
  0
VERTEX
  8
0
  6
CONTINUOUS
 10
5.089480
 20
5.286600
  0
VERTEX
  8
0
  6
CONTINUOUS
 10
5.088600
 20
4.538600
  0
VERTEX
  8
0
  6
CONTINUOUS
 10
5.034920
 20
4.532440
  0
SEQEND
  8
0
  0
SOLID
  8
0
 62
    15
 10
5.088600
 20
4.538600
 11
5.089480
 21
5.286600
 12
5.133040
 22
4.476120
 13
5.133920
 23
5.224560
  0
POLYLINE
  8
0
  6
CONTINUOUS
 66
     1
 40
0.000000
 41
0.000000
  0
VERTEX
  8
0
  6
CONTINUOUS
 10
5.088600
 20
4.538600
  0
VERTEX
  8
0
  6
CONTINUOUS
 10
5.089480
 20
5.286600
  0
VERTEX
  8
0
  6
CONTINUOUS
 10
5.133920
 20
5.224560
  0
VERTEX
  8
0
  6
CONTINUOUS
 10
5.133040
 20
4.476120
  0
VERTEX
  8
0
  6
CONTINUOUS
 10
5.088600
 20
4.538600
  0
SEQEND
  8
0
  0
SOLID
  8
0
 62
    15
 10
5.133040
 20
4.476120
 11
5.133920
 21
5.224560
 12
5.365360
 22
4.476120
 13
5.365800
 23
5.224560
  0
POLYLINE
  8
0
  6
CONTINUOUS
 66
     1
 40
0.000000
 41
0.000000
  0
VERTEX
  8
0
  6
CONTINUOUS
 10
5.133040
 20
4.476120
  0
VERTEX
  8
0
  6
CONTINUOUS
 10
5.133920
 20
5.224560
  0
VERTEX
  8
0
  6
CONTINUOUS
 10
5.365800
 20
5.224560
  0
VERTEX
  8
0
  6
CONTINUOUS
 10
5.365360
 20
4.476120
  0
VERTEX
  8
0
  6
CONTINUOUS
 10
5.133040
 20
4.476120
  0
SEQEND
  8
0
  0
SOLID
  8
0
 62
    15
 10
5.365360
 20
4.476120
 11
5.365800
 21
5.224560
 12
5.384720
 22
4.549600
 13
5.385600
 23
5.297600
  0
POLYLINE
  8
0
  6
CONTINUOUS
 66
     1
 40
0.000000
 41
0.000000
  0
VERTEX
  8
0
  6
CONTINUOUS
 10
5.365360
 20
4.476120
  0
VERTEX
  8
0
  6
CONTINUOUS
 10
5.365800
 20
5.224560
  0
VERTEX
  8
0
  6
CONTINUOUS
 10
5.385600
 20
5.297600
  0
VERTEX
  8
0
  6
CONTINUOUS
 10
5.384720
 20
4.549600
  0
VERTEX
  8
0
  6
CONTINUOUS
 10
5.365360
 20
4.476120
  0
SEQEND
  8
0
  0
SOLID
  8
0
 62
    15
 10
5.384720
 20
4.549600
 11
5.385600
 21
5.297600
 12
5.470960
 22
4.549600
 13
5.471840
 23
5.297600
  0
POLYLINE
  8
0
  6
CONTINUOUS
 66
     1
 40
0.000000
 41
0.000000
  0
VERTEX
  8
0
  6
CONTINUOUS
 10
5.384720
 20
4.549600
  0
VERTEX
  8
0
  6
CONTINUOUS
 10
5.385600
 20
5.297600
  0
VERTEX
  8
0
  6
CONTINUOUS
 10
5.471840
 20
5.297600
  0
VERTEX
  8
0
  6
CONTINUOUS
 10
5.470960
 20
4.549600
  0
VERTEX
  8
0
  6
CONTINUOUS
 10
5.384720
 20
4.549600
  0
SEQEND
  8
0
  0
SOLID
  8
0
 62
    15
 10
5.470960
 20
4.549600
 11
5.471840
 21
5.297600
 12
5.487240
 22
4.606360
 13
5.488120
 23
5.354360
  0
POLYLINE
  8
0
  6
CONTINUOUS
 66
     1
 40
0.000000
 41
0.000000
  0
VERTEX
  8
0
  6
CONTINUOUS
 10
5.470960
 20
4.549600
  0
VERTEX
  8
0
  6
CONTINUOUS
 10
5.471840
 20
5.297600
  0
VERTEX
  8
0
  6
CONTINUOUS
 10
5.488120
 20
5.354360
  0
VERTEX
  8
0
  6
CONTINUOUS
 10
5.487240
 20
4.606360
  0
VERTEX
  8
0
  6
CONTINUOUS
 10
5.470960
 20
4.549600
  0
SEQEND
  8
0
  0
SOLID
  8
0
 62
    15
 10
5.487240
 20
4.606360
 11
5.488120
 21
5.354360
 12
5.549720
 22
4.612520
 13
5.550600
 23
5.360960
  0
POLYLINE
  8
0
  6
CONTINUOUS
 66
     1
 40
0.000000
 41
0.000000
  0
VERTEX
  8
0
  6
CONTINUOUS
 10
5.487240
 20
4.606360
  0
VERTEX
  8
0
  6
CONTINUOUS
 10
5.488120
 20
5.354360
  0
VERTEX
  8
0
  6
CONTINUOUS
 10
5.550600
 20
5.360960
  0
VERTEX
  8
0
  6
CONTINUOUS
 10
5.549720
 20
4.612520
  0
VERTEX
  8
0
  6
CONTINUOUS
 10
5.487240
 20
4.606360
  0
SEQEND
  8
0
  0
SOLID
  8
0
 62
    15
 10
5.549720
 20
4.612520
 11
5.550600
 21
5.360960
 12
5.605160
 22
4.623080
 13
5.606040
 23
5.371520
  0
POLYLINE
  8
0
  6
CONTINUOUS
 66
     1
 40
0.000000
 41
0.000000
  0
VERTEX
  8
0
  6
CONTINUOUS
 10
5.549720
 20
4.612520
  0
VERTEX
  8
0
  6
CONTINUOUS
 10
5.550600
 20
5.360960
  0
VERTEX
  8
0
  6
CONTINUOUS
 10
5.606040
 20
5.371520
  0
VERTEX
  8
0
  6
CONTINUOUS
 10
5.605160
 20
4.623080
  0
VERTEX
  8
0
  6
CONTINUOUS
 10
5.549720
 20
4.612520
  0
SEQEND
  8
0
  0
SOLID
  8
0
 62
    15
 10
5.605160
 20
4.623080
 11
5.606040
 21
5.371520
 12
5.631560
 22
4.633200
 13
5.632440
 23
5.381200
  0
POLYLINE
  8
0
  6
CONTINUOUS
 66
     1
 40
0.000000
 41
0.000000
  0
VERTEX
  8
0
  6
CONTINUOUS
 10
5.605160
 20
4.623080
  0
VERTEX
  8
0
  6
CONTINUOUS
 10
5.606040
 20
5.371520
  0
VERTEX
  8
0
  6
CONTINUOUS
 10
5.632440
 20
5.381200
  0
VERTEX
  8
0
  6
CONTINUOUS
 10
5.631560
 20
4.633200
  0
VERTEX
  8
0
  6
CONTINUOUS
 10
5.605160
 20
4.623080
  0
SEQEND
  8
0
  0
SOLID
  8
0
 62
    15
 10
5.631560
 20
4.633200
 11
5.632440
 21
5.381200
 12
5.657520
 22
4.646840
 13
5.658400
 23
5.395280
  0
POLYLINE
  8
0
  6
CONTINUOUS
 66
     1
 40
0.000000
 41
0.000000
  0
VERTEX
  8
0
  6
CONTINUOUS
 10
5.631560
 20
4.633200
  0
VERTEX
  8
0
  6
CONTINUOUS
 10
5.632440
 20
5.381200
  0
VERTEX
  8
0
  6
CONTINUOUS
 10
5.658400
 20
5.395280
  0
VERTEX
  8
0
  6
CONTINUOUS
 10
5.657520
 20
4.646840
  0
VERTEX
  8
0
  6
CONTINUOUS
 10
5.631560
 20
4.633200
  0
SEQEND
  8
0
  0
SOLID
  8
0
 62
    15
 10
5.657520
 20
4.646840
 11
5.658400
 21
5.395280
 12
5.683920
 22
4.666640
 13
5.684800
 23
5.414640
  0
POLYLINE
  8
0
  6
CONTINUOUS
 66
     1
 40
0.000000
 41
0.000000
  0
VERTEX
  8
0
  6
CONTINUOUS
 10
5.657520
 20
4.646840
  0
VERTEX
  8
0
  6
CONTINUOUS
 10
5.658400
 20
5.395280
  0
VERTEX
  8
0
  6
CONTINUOUS
 10
5.684800
 20
5.414640
  0
VERTEX
  8
0
  6
CONTINUOUS
 10
5.683920
 20
4.666640
  0
VERTEX
  8
0
  6
CONTINUOUS
 10
5.657520
 20
4.646840
  0
SEQEND
  8
0
  0
SOLID
  8
0
 62
    15
 10
5.683920
 20
4.666640
 11
5.684800
 21
5.414640
 12
5.710760
 22
4.692160
 13
5.711640
 23
5.440600
  0
POLYLINE
  8
0
  6
CONTINUOUS
 66
     1
 40
0.000000
 41
0.000000
  0
VERTEX
  8
0
  6
CONTINUOUS
 10
5.683920
 20
4.666640
  0
VERTEX
  8
0
  6
CONTINUOUS
 10
5.684800
 20
5.414640
  0
VERTEX
  8
0
  6
CONTINUOUS
 10
5.711640
 20
5.440600
  0
VERTEX
  8
0
  6
CONTINUOUS
 10
5.710760
 20
4.692160
  0
VERTEX
  8
0
  6
CONTINUOUS
 10
5.683920
 20
4.666640
  0
SEQEND
  8
0
  0
SOLID
  8
0
 62
    15
 10
5.710760
 20
4.692160
 11
5.711640
 21
5.440600
 12
5.741560
 22
4.720320
 13
5.742440
 23
5.468760
  0
POLYLINE
  8
0
  6
CONTINUOUS
 66
     1
 40
0.000000
 41
0.000000
  0
VERTEX
  8
0
  6
CONTINUOUS
 10
5.710760
 20
4.692160
  0
VERTEX
  8
0
  6
CONTINUOUS
 10
5.711640
 20
5.440600
  0
VERTEX
  8
0
  6
CONTINUOUS
 10
5.742440
 20
5.468760
  0
VERTEX
  8
0
  6
CONTINUOUS
 10
5.741560
 20
4.720320
  0
VERTEX
  8
0
  6
CONTINUOUS
 10
5.710760
 20
4.692160
  0
SEQEND
  8
0
  0
SOLID
  8
0
 62
    15
 10
5.741560
 20
4.720320
 11
5.742440
 21
5.468760
 12
5.777200
 22
4.744080
 13
5.778080
 23
5.492520
  0
POLYLINE
  8
0
  6
CONTINUOUS
 66
     1
 40
0.000000
 41
0.000000
  0
VERTEX
  8
0
  6
CONTINUOUS
 10
5.741560
 20
4.720320
  0
VERTEX
  8
0
  6
CONTINUOUS
 10
5.742440
 20
5.468760
  0
VERTEX
  8
0
  6
CONTINUOUS
 10
5.778080
 20
5.492520
  0
VERTEX
  8
0
  6
CONTINUOUS
 10
5.777200
 20
4.744080
  0
VERTEX
  8
0
  6
CONTINUOUS
 10
5.741560
 20
4.720320
  0
SEQEND
  8
0
  0
SOLID
  8
0
 62
    15
 10
5.777200
 20
4.744080
 11
5.778080
 21
5.492520
 12
5.816800
 22
4.762120
 13
5.817680
 23
5.510120
  0
POLYLINE
  8
0
  6
CONTINUOUS
 66
     1
 40
0.000000
 41
0.000000
  0
VERTEX
  8
0
  6
CONTINUOUS
 10
5.777200
 20
4.744080
  0
VERTEX
  8
0
  6
CONTINUOUS
 10
5.778080
 20
5.492520
  0
VERTEX
  8
0
  6
CONTINUOUS
 10
5.817680
 20
5.510120
  0
VERTEX
  8
0
  6
CONTINUOUS
 10
5.816800
 20
4.762120
  0
VERTEX
  8
0
  6
CONTINUOUS
 10
5.777200
 20
4.744080
  0
SEQEND
  8
0
  0
SOLID
  8
0
 62
    15
 10
5.816800
 20
4.762120
 11
5.817680
 21
5.510120
 12
5.858160
 22
4.771800
 13
5.859040
 23
5.519800
  0
POLYLINE
  8
0
  6
CONTINUOUS
 66
     1
 40
0.000000
 41
0.000000
  0
VERTEX
  8
0
  6
CONTINUOUS
 10
5.816800
 20
4.762120
  0
VERTEX
  8
0
  6
CONTINUOUS
 10
5.817680
 20
5.510120
  0
VERTEX
  8
0
  6
CONTINUOUS
 10
5.859040
 20
5.519800
  0
VERTEX
  8
0
  6
CONTINUOUS
 10
5.858160
 20
4.771800
  0
VERTEX
  8
0
  6
CONTINUOUS
 10
5.816800
 20
4.762120
  0
SEQEND
  8
0
  0
SOLID
  8
0
 62
    15
 10
5.858160
 20
4.771800
 11
5.859040
 21
5.519800
 12
5.899960
 22
4.771800
 13
5.900840
 23
5.519800
  0
POLYLINE
  8
0
  6
CONTINUOUS
 66
     1
 40
0.000000
 41
0.000000
  0
VERTEX
  8
0
  6
CONTINUOUS
 10
5.858160
 20
4.771800
  0
VERTEX
  8
0
  6
CONTINUOUS
 10
5.859040
 20
5.519800
  0
VERTEX
  8
0
  6
CONTINUOUS
 10
5.900840
 20
5.519800
  0
VERTEX
  8
0
  6
CONTINUOUS
 10
5.899960
 20
4.771800
  0
VERTEX
  8
0
  6
CONTINUOUS
 10
5.858160
 20
4.771800
  0
SEQEND
  8
0
  0
SOLID
  8
0
 62
    15
 10
5.899960
 20
4.771800
 11
5.900840
 21
5.519800
 12
5.940440
 22
4.759920
 13
5.941320
 23
5.508360
  0
POLYLINE
  8
0
  6
CONTINUOUS
 66
     1
 40
0.000000
 41
0.000000
  0
VERTEX
  8
0
  6
CONTINUOUS
 10
5.899960
 20
4.771800
  0
VERTEX
  8
0
  6
CONTINUOUS
 10
5.900840
 20
5.519800
  0
VERTEX
  8
0
  6
CONTINUOUS
 10
5.941320
 20
5.508360
  0
VERTEX
  8
0
  6
CONTINUOUS
 10
5.940440
 20
4.759920
  0
VERTEX
  8
0
  6
CONTINUOUS
 10
5.899960
 20
4.771800
  0
SEQEND
  8
0
  0
SOLID
  8
0
 62
    15
 10
5.940440
 20
4.759920
 11
5.941320
 21
5.508360
 12
5.959800
 22
4.749360
 13
5.960680
 23
5.497360
  0
POLYLINE
  8
0
  6
CONTINUOUS
 66
     1
 40
0.000000
 41
0.000000
  0
VERTEX
  8
0
  6
CONTINUOUS
 10
5.940440
 20
4.759920
  0
VERTEX
  8
0
  6
CONTINUOUS
 10
5.941320
 20
5.508360
  0
VERTEX
  8
0
  6
CONTINUOUS
 10
5.960680
 20
5.497360
  0
VERTEX
  8
0
  6
CONTINUOUS
 10
5.959800
 20
4.749360
  0
VERTEX
  8
0
  6
CONTINUOUS
 10
5.940440
 20
4.759920
  0
SEQEND
  8
0
  0
SOLID
  8
0
 62
    15
 10
5.959800
 20
4.749360
 11
5.960680
 21
5.497360
 12
5.978280
 22
4.734840
 13
5.978720
 23
5.482840
  0
POLYLINE
  8
0
  6
CONTINUOUS
 66
     1
 40
0.000000
 41
0.000000
  0
VERTEX
  8
0
  6
CONTINUOUS
 10
5.959800
 20
4.749360
  0
VERTEX
  8
0
  6
CONTINUOUS
 10
5.960680
 20
5.497360
  0
VERTEX
  8
0
  6
CONTINUOUS
 10
5.978720
 20
5.482840
  0
VERTEX
  8
0
  6
CONTINUOUS
 10
5.978280
 20
4.734840
  0
VERTEX
  8
0
  6
CONTINUOUS
 10
5.959800
 20
4.749360
  0
SEQEND
  8
0
  0
SOLID
  8
0
 62
    15
 10
5.978280
 20
4.734840
 11
5.978720
 21
5.482840
 12
5.995440
 22
4.716360
 13
5.996320
 23
5.464800
  0
POLYLINE
  8
0
  6
CONTINUOUS
 66
     1
 40
0.000000
 41
0.000000
  0
VERTEX
  8
0
  6
CONTINUOUS
 10
5.978280
 20
4.734840
  0
VERTEX
  8
0
  6
CONTINUOUS
 10
5.978720
 20
5.482840
  0
VERTEX
  8
0
  6
CONTINUOUS
 10
5.996320
 20
5.464800
  0
VERTEX
  8
0
  6
CONTINUOUS
 10
5.995440
 20
4.716360
  0
VERTEX
  8
0
  6
CONTINUOUS
 10
5.978280
 20
4.734840
  0
SEQEND
  8
0
  0
SOLID
  8
0
 62
    15
 10
5.995440
 20
4.716360
 11
5.996320
 21
5.464800
 12
6.011280
 22
4.694360
 13
6.012160
 23
5.442360
  0
POLYLINE
  8
0
  6
CONTINUOUS
 66
     1
 40
0.000000
 41
0.000000
  0
VERTEX
  8
0
  6
CONTINUOUS
 10
5.995440
 20
4.716360
  0
VERTEX
  8
0
  6
CONTINUOUS
 10
5.996320
 20
5.464800
  0
VERTEX
  8
0
  6
CONTINUOUS
 10
6.012160
 20
5.442360
  0
VERTEX
  8
0
  6
CONTINUOUS
 10
6.011280
 20
4.694360
  0
VERTEX
  8
0
  6
CONTINUOUS
 10
5.995440
 20
4.716360
  0
SEQEND
  8
0
  0
SOLID
  8
0
 62
    15
 10
6.011280
 20
4.694360
 11
6.012160
 21
5.442360
 12
6.049560
 22
4.694360
 13
6.050440
 23
5.442360
  0
POLYLINE
  8
0
  6
CONTINUOUS
 66
     1
 40
0.000000
 41
0.000000
  0
VERTEX
  8
0
  6
CONTINUOUS
 10
6.011280
 20
4.694360
  0
VERTEX
  8
0
  6
CONTINUOUS
 10
6.012160
 20
5.442360
  0
VERTEX
  8
0
  6
CONTINUOUS
 10
6.050440
 20
5.442360
  0
VERTEX
  8
0
  6
CONTINUOUS
 10
6.049560
 20
4.694360
  0
VERTEX
  8
0
  6
CONTINUOUS
 10
6.011280
 20
4.694360
  0
SEQEND
  8
0
  0
SOLID
  8
0
 62
    15
 10
6.049560
 20
4.694360
 11
6.050440
 21
5.442360
 12
6.066280
 22
4.851880
 13
6.067160
 23
5.599880
  0
POLYLINE
  8
0
  6
CONTINUOUS
 66
     1
 40
0.000000
 41
0.000000
  0
VERTEX
  8
0
  6
CONTINUOUS
 10
6.049560
 20
4.694360
  0
VERTEX
  8
0
  6
CONTINUOUS
 10
6.050440
 20
5.442360
  0
VERTEX
  8
0
  6
CONTINUOUS
 10
6.067160
 20
5.599880
  0
VERTEX
  8
0
  6
CONTINUOUS
 10
6.066280
 20
4.851880
  0
VERTEX
  8
0
  6
CONTINUOUS
 10
6.049560
 20
4.694360
  0
SEQEND
  8
0
  0
SOLID
  8
0
 62
    15
 10
6.784360
 20
4.851880
 11
6.785240
 21
5.599880
 12
6.784360
 22
4.099480
 13
6.785240
 23
4.847920
  0
POLYLINE
  8
0
  6
CONTINUOUS
 66
     1
 40
0.000000
 41
0.000000
  0
VERTEX
  8
0
  6
CONTINUOUS
 10
6.784360
 20
4.851880
  0
VERTEX
  8
0
  6
CONTINUOUS
 10
6.785240
 20
5.599880
  0
VERTEX
  8
0
  6
CONTINUOUS
 10
6.785240
 20
4.847920
  0
VERTEX
  8
0
  6
CONTINUOUS
 10
6.784360
 20
4.099480
  0
VERTEX
  8
0
  6
CONTINUOUS
 10
6.784360
 20
4.851880
  0
SEQEND
  8
0
  0
SOLID
  8
0
 62
    15
 10
6.066280
 20
4.851880
 11
6.067160
 21
5.599880
 12
6.784360
 22
4.851880
 13
6.785240
 23
5.599880
  0
POLYLINE
  8
0
  6
CONTINUOUS
 66
     1
 40
0.000000
 41
0.000000
  0
VERTEX
  8
0
  6
CONTINUOUS
 10
6.066280
 20
4.851880
  0
VERTEX
  8
0
  6
CONTINUOUS
 10
6.067160
 20
5.599880
  0
VERTEX
  8
0
  6
CONTINUOUS
 10
6.785240
 20
5.599880
  0
VERTEX
  8
0
  6
CONTINUOUS
 10
6.784360
 20
4.851880
  0
VERTEX
  8
0
  6
CONTINUOUS
 10
6.066280
 20
4.851880
  0
SEQEND
  8
0
  0
POLYLINE
  8
0
  6
CONTINUOUS
 66
     1
 40
0.000000
 41
0.000000
  0
VERTEX
  8
0
  6
CONTINUOUS
 10
1.654840
 20
4.099480
  0
VERTEX
  8
0
  6
CONTINUOUS
 10
1.654840
 20
4.851880
  0
VERTEX
  8
0
  6
CONTINUOUS
 10
2.372920
 20
4.851880
  0
VERTEX
  8
0
  6
CONTINUOUS
 10
2.389640
 20
4.694360
  0
VERTEX
  8
0
  6
CONTINUOUS
 10
2.427920
 20
4.694360
  0
VERTEX
  8
0
  6
CONTINUOUS
 10
2.443760
 20
4.716800
  0
VERTEX
  8
0
  6
CONTINUOUS
 10
2.460920
 20
4.734840
  0
VERTEX
  8
0
  6
CONTINUOUS
 10
2.479400
 20
4.749360
  0
VERTEX
  8
0
  6
CONTINUOUS
 10
2.498760
 20
4.760360
  0
VERTEX
  8
0
  6
CONTINUOUS
 10
2.539240
 20
4.771800
  0
VERTEX
  8
0
  6
CONTINUOUS
 10
2.581040
 20
4.771800
  0
VERTEX
  8
0
  6
CONTINUOUS
 10
2.622400
 20
4.762120
  0
VERTEX
  8
0
  6
CONTINUOUS
 10
2.662000
 20
4.744520
  0
VERTEX
  8
0
  6
CONTINUOUS
 10
2.697640
 20
4.720760
  0
VERTEX
  8
0
  6
CONTINUOUS
 10
2.755280
 20
4.666640
  0
VERTEX
  8
0
  6
CONTINUOUS
 10
2.781680
 20
4.647280
  0
VERTEX
  8
0
  6
CONTINUOUS
 10
2.807640
 20
4.633200
  0
VERTEX
  8
0
  6
CONTINUOUS
 10
2.834040
 20
4.623520
  0
VERTEX
  8
0
  6
CONTINUOUS
 10
2.889480
 20
4.612960
  0
VERTEX
  8
0
  6
CONTINUOUS
 10
2.951960
 20
4.606360
  0
VERTEX
  8
0
  6
CONTINUOUS
 10
2.968240
 20
4.549600
  0
VERTEX
  8
0
  6
CONTINUOUS
 10
3.054480
 20
4.549600
  0
VERTEX
  8
0
  6
CONTINUOUS
 10
3.074280
 20
4.476560
  0
VERTEX
  8
0
  6
CONTINUOUS
 10
3.306160
 20
4.476560
  0
VERTEX
  8
0
  6
CONTINUOUS
 10
3.350600
 20
4.538600
  0
VERTEX
  8
0
  6
CONTINUOUS
 10
3.404720
 20
4.532880
  0
VERTEX
  8
0
  6
CONTINUOUS
 10
3.454000
 20
4.532000
  0
VERTEX
  8
0
  6
CONTINUOUS
 10
3.500200
 20
4.535520
  0
VERTEX
  8
0
  6
CONTINUOUS
 10
3.544640
 20
4.543440
  0
VERTEX
  8
0
  6
CONTINUOUS
 10
3.588200
 20
4.555760
  0
VERTEX
  8
0
  6
CONTINUOUS
 10
3.632640
 20
4.571160
  0
VERTEX
  8
0
  6
CONTINUOUS
 10
3.727680
 20
4.612080
  0
VERTEX
  8
0
  6
CONTINUOUS
 10
3.838120
 20
4.666200
  0
VERTEX
  8
0
  6
CONTINUOUS
 10
3.954280
 20
4.712400
  0
VERTEX
  8
0
  6
CONTINUOUS
 10
4.016320
 20
4.730880
  0
VERTEX
  8
0
  6
CONTINUOUS
 10
4.081000
 20
4.744960
  0
VERTEX
  8
0
  6
CONTINUOUS
 10
4.148760
 20
4.753760
  0
VERTEX
  8
0
  6
CONTINUOUS
 10
4.220480
 20
4.756840
  0
VERTEX
  8
0
  6
CONTINUOUS
 10
4.218720
 20
4.756400
  0
VERTEX
  8
0
  6
CONTINUOUS
 10
4.290440
 20
4.753320
  0
VERTEX
  8
0
  6
CONTINUOUS
 10
4.358640
 20
4.744520
  0
VERTEX
  8
0
  6
CONTINUOUS
 10
4.423320
 20
4.730440
  0
VERTEX
  8
0
  6
CONTINUOUS
 10
4.484920
 20
4.712400
  0
VERTEX
  8
0
  6
CONTINUOUS
 10
4.601520
 20
4.666200
  0
VERTEX
  8
0
  6
CONTINUOUS
 10
4.711960
 20
4.611640
  0
VERTEX
  8
0
  6
CONTINUOUS
 10
4.760800
 20
4.589640
  0
VERTEX
  8
0
  6
CONTINUOUS
 10
4.851000
 20
4.555320
  0
VERTEX
  8
0
  6
CONTINUOUS
 10
4.894560
 20
4.543440
  0
VERTEX
  8
0
  6
CONTINUOUS
 10
4.939000
 20
4.535080
  0
VERTEX
  8
0
  6
CONTINUOUS
 10
4.985200
 20
4.531560
  0
VERTEX
  8
0
  6
CONTINUOUS
 10
5.034920
 20
4.532440
  0
VERTEX
  8
0
  6
CONTINUOUS
 10
5.088600
 20
4.538600
  0
VERTEX
  8
0
  6
CONTINUOUS
 10
5.133040
 20
4.476120
  0
VERTEX
  8
0
  6
CONTINUOUS
 10
5.365360
 20
4.476120
  0
VERTEX
  8
0
  6
CONTINUOUS
 10
5.384720
 20
4.549600
  0
VERTEX
  8
0
  6
CONTINUOUS
 10
5.470960
 20
4.549600
  0
VERTEX
  8
0
  6
CONTINUOUS
 10
5.487240
 20
4.606360
  0
VERTEX
  8
0
  6
CONTINUOUS
 10
5.549720
 20
4.612520
  0
VERTEX
  8
0
  6
CONTINUOUS
 10
5.605160
 20
4.623080
  0
VERTEX
  8
0
  6
CONTINUOUS
 10
5.631560
 20
4.633200
  0
VERTEX
  8
0
  6
CONTINUOUS
 10
5.657520
 20
4.646840
  0
VERTEX
  8
0
  6
CONTINUOUS
 10
5.683920
 20
4.666640
  0
VERTEX
  8
0
  6
CONTINUOUS
 10
5.741560
 20
4.720320
  0
VERTEX
  8
0
  6
CONTINUOUS
 10
5.777200
 20
4.744080
  0
VERTEX
  8
0
  6
CONTINUOUS
 10
5.816800
 20
4.762120
  0
VERTEX
  8
0
  6
CONTINUOUS
 10
5.858160
 20
4.771800
  0
VERTEX
  8
0
  6
CONTINUOUS
 10
5.899960
 20
4.771800
  0
VERTEX
  8
0
  6
CONTINUOUS
 10
5.940440
 20
4.759920
  0
VERTEX
  8
0
  6
CONTINUOUS
 10
5.959800
 20
4.749360
  0
VERTEX
  8
0
  6
CONTINUOUS
 10
5.978280
 20
4.734840
  0
VERTEX
  8
0
  6
CONTINUOUS
 10
5.995440
 20
4.716360
  0
VERTEX
  8
0
  6
CONTINUOUS
 10
6.011280
 20
4.694360
  0
VERTEX
  8
0
  6
CONTINUOUS
 10
6.049560
 20
4.694360
  0
VERTEX
  8
0
  6
CONTINUOUS
 10
6.066280
 20
4.851880
  0
VERTEX
  8
0
  6
CONTINUOUS
 10
6.784360
 20
4.851880
  0
VERTEX
  8
0
  6
CONTINUOUS
 10
6.784360
 20
4.099480
  0
VERTEX
  8
0
  6
CONTINUOUS
 10
1.654840
 20
4.099480
  0
SEQEND
  8
0
  0
TEXT
  8
0
 10
3.879040
 20
3.814360
 40
0.138165
  1
BA  1310
 41
1.000000
  7
SN0
 71
     0
 72
     5
 11
4.562426
 21
3.814360
  0
TEXT
  8
0
 10
3.769480
 20
3.613280
 40
0.138165
  1
3/4" x 5-1/8"
 41
1.000000
  7
SN0
 71
     0
 72
     5
 11
4.671487
 21
3.613280
  0
TEXT
  8
0
 10
6.042080
 20
4.405280
 40
0.138165
  1
Rosette
 41
1.000000
  7
SN0
 71
     0
 72
     5
 11
6.614354
 21
4.405280
  0
TEXT
  8
0
 10
5.986640
 20
4.203760
 40
0.138165
  1
BA  1311
 41
1.000000
  7
SN0
 71
     0
 72
     5
 11
6.670026
 21
4.203760
  0
ENDSEC
  0
EOF
