  0
SECTION
  2
HEADER
  9
$ACADVER
  1
AC1006
  9
$EXTMIN
 10
2.035440
 20
2.438480
  9
$EXTMAX
 10
6.113360
 20
7.954760
  9
$LTSCALE
 40
0.044000
  9
$PDMODE
 70
    35
  9
$PDSIZE
 40
0.035200
  0
ENDSEC
  0
SECTION
  2
TABLES
  0
TABLE
  2
LTYPE
 70
     9
  0
LTYPE
  2
CONTINUOUS
 70
    64
  3
Solid line
 72
    65
 73
     0
 40
0.000000
  0
LTYPE
  2
DASHED
 70
    64
  3
__ __ __ __ __ __ __ __ __ __ __ __ __ __ __
 72
    65
 73
     2
 40
0.000330
 49
0.000220
 49
-0.000110
  0
LTYPE
  2
HIDDEN
 70
    64
  3
 _ _ _ _ _ _ _ _ _ _ _ _ _ _ _ _ _ _ _ _ _ _
 72
    65
 73
     2
 40
0.000165
 49
0.000110
 49
-0.000055
  0
LTYPE
  2
CENTER
 70
    64
  3
____ _ ____ _ ____ _ ____ _ ____ _ ____ _ ____
 72
    65
 73
     4
 40
0.000880
 49
0.000550
 49
-0.000110
 49
0.000110
 49
-0.000110
  0
LTYPE
  2
PHANTOM
 70
    64
  3
_____ _ _ _____ _ _ _____ _ _ _____ _ _ ____
 72
    65
 73
     6
 40
0.001100
 49
0.000550
 49
-0.000110
 49
0.000110
 49
-0.000110
 49
0.000110
 49
-0.000110
  0
LTYPE
  2
DOT
 70
    64
  3
...............................................
 72
    65
 73
     2
 40
0.000110
 49
0.000000
 49
-0.000110
  0
LTYPE
  2
DASHDOT
 70
    64
  3
__ . __ . __ . __ . __ . __ . __ . __ . __ . __
 72
    65
 73
     4
 40
0.000440
 49
0.000220
 49
-0.000110
 49
0.000000
 49
-0.000110
  0
LTYPE
  2
BORDER
 70
    64
  3
__ __ . __ __ . __ __ . __ __ . __ __ . __ __
 72
    65
 73
     6
 40
0.000770
 49
0.000220
 49
-0.000110
 49
0.000220
 49
-0.000110
 49
0.000000
 49
-0.000110
  0
LTYPE
  2
DIVIDE
 70
    64
  3
__ . . __ . . __ . . __ . . __ . . __ . . __
 72
    65
 73
     6
 40
0.000550
 49
0.000220
 49
-0.000110
 49
0.000000
 49
-0.000110
 49
0.000000
 49
-0.000110
  0
LTYPE
  2
DOTDOT
 70
    64
  3
 . .  . .  . .  . .  . .  . . 
 72
    65
 73
     5
 40
0.000242
 49
-0.000110
 49
0.000000
 49
-0.000110
 49
0.000000
 49
-0.000110
  0
ENDTAB
  0
TABLE
  2
STYLE
 70
     2
  0
STYLE
 70
     0
  2
SN0
 40
0.000000
 41
0.000440
 50
0.000000
 71
     0
 42
0.000000
  3
ROMAND
  0
STYLE
 70
    68
  2
SV0
 40
0.000000
 41
0.000440
 50
0.000000
 71
     0
 42
0.000000
  3
ROMAND
  0
ENDTAB
  0
TABLE
  2
LAYER
 70
     3
  0
LAYER
  2
FOREGROUND
 70
    64
 62
     7
  6
CONTINUOUS
  0
LAYER
  2
BACKGROUND
 70
    65
 62
    -7
  6
CONTINUOUS
  0
LAYER
  2
0
 70
    64
 62
     7
  6
CONTINUOUS
  0
ENDTAB
  0
ENDSEC
  0
SECTION
  2
ENTITIES
  0
POLYLINE
  8
FOREGROUND
  6
CONTINUOUS
 66
     1
 40
0.000000
 41
0.000000
  0
VERTEX
  8
FOREGROUND
  6
CONTINUOUS
 10
0.000000
 20
10.393240
  0
VERTEX
  8
FOREGROUND
  6
CONTINUOUS
 10
8.499920
 20
10.393240
  0
VERTEX
  8
FOREGROUND
  6
CONTINUOUS
 10
8.499920
 20
-0.606760
  0
VERTEX
  8
FOREGROUND
  6
CONTINUOUS
 10
0.000000
 20
-0.606760
  0
VERTEX
  8
FOREGROUND
  6
CONTINUOUS
 10
0.000000
 20
10.393240
  0
SEQEND
  8
0
  0
POLYLINE
  8
FOREGROUND
  6
CONTINUOUS
 66
     1
 40
0.000000
 41
0.000000
  0
VERTEX
  8
FOREGROUND
  6
CONTINUOUS
 10
0.000000
 20
10.393240
  0
VERTEX
  8
FOREGROUND
  6
CONTINUOUS
 10
8.499920
 20
10.393240
  0
VERTEX
  8
FOREGROUND
  6
CONTINUOUS
 10
8.499920
 20
-0.606760
  0
VERTEX
  8
FOREGROUND
  6
CONTINUOUS
 10
0.000000
 20
-0.606760
  0
VERTEX
  8
FOREGROUND
  6
CONTINUOUS
 10
0.000000
 20
10.393240
  0
SEQEND
  8
0
  0
POLYLINE
  8
0
  6
CONTINUOUS
 66
     1
 40
0.014080
 41
0.014080
  0
VERTEX
  8
0
  6
CONTINUOUS
 10
5.138760
 20
7.836400
  0
VERTEX
  8
0
  6
CONTINUOUS
 10
5.020400
 20
7.836400
  0
VERTEX
  8
0
  6
CONTINUOUS
 10
4.506480
 20
7.836400
  0
VERTEX
  8
0
  6
CONTINUOUS
 10
3.018840
 20
7.836400
  0
VERTEX
  8
0
  6
CONTINUOUS
 10
2.907960
 20
7.947280
  0
VERTEX
  8
0
  6
CONTINUOUS
 10
2.043360
 20
7.947280
  0
VERTEX
  8
0
  6
CONTINUOUS
 10
2.043360
 20
7.197080
  0
VERTEX
  8
0
  6
CONTINUOUS
 10
6.106320
 20
7.197080
  0
VERTEX
  8
0
  6
CONTINUOUS
 10
6.106320
 20
7.947280
  0
VERTEX
  8
0
  6
CONTINUOUS
 10
5.249200
 20
7.947280
  0
VERTEX
  8
0
  6
CONTINUOUS
 10
5.138760
 20
7.836400
  0
SEQEND
  8
0
  0
POLYLINE
  8
0
  6
CONTINUOUS
 66
     1
 40
0.000000
 41
0.000000
  0
VERTEX
  8
0
  6
CONTINUOUS
 10
5.138760
 20
3.077800
  0
VERTEX
  8
0
  6
CONTINUOUS
 10
5.020400
 20
3.077800
  0
VERTEX
  8
0
  6
CONTINUOUS
 10
4.506480
 20
3.077800
  0
VERTEX
  8
0
  6
CONTINUOUS
 10
3.018840
 20
3.077800
  0
VERTEX
  8
0
  6
CONTINUOUS
 10
2.907960
 20
3.188680
  0
VERTEX
  8
0
  6
CONTINUOUS
 10
2.043360
 20
3.188680
  0
VERTEX
  8
0
  6
CONTINUOUS
 10
2.043360
 20
2.438480
  0
VERTEX
  8
0
  6
CONTINUOUS
 10
6.106320
 20
2.438480
  0
VERTEX
  8
0
  6
CONTINUOUS
 10
6.106320
 20
3.188680
  0
VERTEX
  8
0
  6
CONTINUOUS
 10
5.249200
 20
3.188680
  0
VERTEX
  8
0
  6
CONTINUOUS
 10
5.138760
 20
3.077800
  0
SEQEND
  8
0
  0
SOLID
  8
0
 62
    15
 10
6.104560
 20
5.366240
 11
6.107640
 21
6.116000
 12
6.104560
 22
4.616040
 13
6.107640
 23
5.366240
  0
POLYLINE
  8
0
  6
CONTINUOUS
 66
     1
 40
0.000000
 41
0.000000
  0
VERTEX
  8
0
  6
CONTINUOUS
 10
6.104560
 20
5.366240
  0
VERTEX
  8
0
  6
CONTINUOUS
 10
6.107640
 20
6.116000
  0
VERTEX
  8
0
  6
CONTINUOUS
 10
6.107640
 20
5.366240
  0
VERTEX
  8
0
  6
CONTINUOUS
 10
6.104560
 20
4.616040
  0
VERTEX
  8
0
  6
CONTINUOUS
 10
6.104560
 20
5.366240
  0
SEQEND
  8
0
  0
SOLID
  8
0
 62
    15
 10
5.247440
 20
5.366240
 11
5.250960
 21
6.116000
 12
6.104560
 22
5.366240
 13
6.107640
 23
6.116000
  0
POLYLINE
  8
0
  6
CONTINUOUS
 66
     1
 40
0.000000
 41
0.000000
  0
VERTEX
  8
0
  6
CONTINUOUS
 10
5.247440
 20
5.366240
  0
VERTEX
  8
0
  6
CONTINUOUS
 10
5.250960
 20
6.116000
  0
VERTEX
  8
0
  6
CONTINUOUS
 10
6.107640
 20
6.116000
  0
VERTEX
  8
0
  6
CONTINUOUS
 10
6.104560
 20
5.366240
  0
VERTEX
  8
0
  6
CONTINUOUS
 10
5.247440
 20
5.366240
  0
SEQEND
  8
0
  0
SOLID
  8
0
 62
    15
 10
2.041600
 20
5.366240
 11
2.044680
 21
6.116000
 12
2.906200
 22
5.366240
 13
2.909280
 23
6.116000
  0
POLYLINE
  8
0
  6
CONTINUOUS
 66
     1
 40
0.000000
 41
0.000000
  0
VERTEX
  8
0
  6
CONTINUOUS
 10
2.041600
 20
5.366240
  0
VERTEX
  8
0
  6
CONTINUOUS
 10
2.044680
 20
6.116000
  0
VERTEX
  8
0
  6
CONTINUOUS
 10
2.909280
 20
6.116000
  0
VERTEX
  8
0
  6
CONTINUOUS
 10
2.906200
 20
5.366240
  0
VERTEX
  8
0
  6
CONTINUOUS
 10
2.041600
 20
5.366240
  0
SEQEND
  8
0
  0
SOLID
  8
0
 62
    15
 10
2.906200
 20
5.366240
 11
2.909280
 21
6.116000
 12
3.017080
 22
5.255360
 13
3.020160
 23
6.005120
  0
POLYLINE
  8
0
  6
CONTINUOUS
 66
     1
 40
0.000000
 41
0.000000
  0
VERTEX
  8
0
  6
CONTINUOUS
 10
2.906200
 20
5.366240
  0
VERTEX
  8
0
  6
CONTINUOUS
 10
2.909280
 20
6.116000
  0
VERTEX
  8
0
  6
CONTINUOUS
 10
3.020160
 20
6.005120
  0
VERTEX
  8
0
  6
CONTINUOUS
 10
3.017080
 20
5.255360
  0
VERTEX
  8
0
  6
CONTINUOUS
 10
2.906200
 20
5.366240
  0
SEQEND
  8
0
  0
SOLID
  8
0
 62
    15
 10
3.017080
 20
5.255360
 11
3.020160
 21
6.005120
 12
5.137000
 22
5.255360
 13
5.140080
 23
6.005120
  0
POLYLINE
  8
0
  6
CONTINUOUS
 66
     1
 40
0.000000
 41
0.000000
  0
VERTEX
  8
0
  6
CONTINUOUS
 10
3.017080
 20
5.255360
  0
VERTEX
  8
0
  6
CONTINUOUS
 10
3.020160
 20
6.005120
  0
VERTEX
  8
0
  6
CONTINUOUS
 10
5.140080
 20
6.005120
  0
VERTEX
  8
0
  6
CONTINUOUS
 10
5.137000
 20
5.255360
  0
VERTEX
  8
0
  6
CONTINUOUS
 10
3.017080
 20
5.255360
  0
SEQEND
  8
0
  0
SOLID
  8
0
 62
    15
 10
5.137000
 20
5.255360
 11
5.140080
 21
6.005560
 12
5.247440
 22
5.366240
 13
5.250960
 23
6.116000
  0
POLYLINE
  8
0
  6
CONTINUOUS
 66
     1
 40
0.000000
 41
0.000000
  0
VERTEX
  8
0
  6
CONTINUOUS
 10
5.137000
 20
5.255360
  0
VERTEX
  8
0
  6
CONTINUOUS
 10
5.140080
 20
6.005560
  0
VERTEX
  8
0
  6
CONTINUOUS
 10
5.250960
 20
6.116000
  0
VERTEX
  8
0
  6
CONTINUOUS
 10
5.247440
 20
5.366240
  0
VERTEX
  8
0
  6
CONTINUOUS
 10
5.137000
 20
5.255360
  0
SEQEND
  8
0
  0
POLYLINE
  8
0
  6
CONTINUOUS
 66
     1
 40
0.000000
 41
0.000000
  0
VERTEX
  8
0
  6
CONTINUOUS
 10
5.137000
 20
5.255360
  0
VERTEX
  8
0
  6
CONTINUOUS
 10
5.247440
 20
5.366240
  0
VERTEX
  8
0
  6
CONTINUOUS
 10
6.104560
 20
5.366240
  0
VERTEX
  8
0
  6
CONTINUOUS
 10
6.104560
 20
4.616040
  0
VERTEX
  8
0
  6
CONTINUOUS
 10
2.041600
 20
4.616040
  0
VERTEX
  8
0
  6
CONTINUOUS
 10
2.041600
 20
5.366240
  0
VERTEX
  8
0
  6
CONTINUOUS
 10
2.906200
 20
5.366240
  0
VERTEX
  8
0
  6
CONTINUOUS
 10
3.017080
 20
5.255360
  0
VERTEX
  8
0
  6
CONTINUOUS
 10
5.137000
 20
5.255360
  0
SEQEND
  8
0
  0
TEXT
  8
0
 10
3.732960
 20
4.345000
 40
0.138050
  1
BA  1308
 41
1.000000
  7
SN0
 71
     0
 72
     5
 11
4.415048
 21
4.345000
  0
TEXT
  8
0
 10
3.577200
 20
4.143480
 40
0.138050
  1
3/4" x 4-1/16"
 41
1.000000
  7
SN0
 71
     0
 72
     5
 11
4.570130
 21
4.143480
  0
TEXT
  8
0
 10
3.732960
 20
7.481320
 40
0.138050
  1
BA  1308
 41
1.000000
  7
SN0
 71
     0
 72
     5
 11
4.415048
 21
7.481320
  0
TEXT
  8
0
 10
3.577200
 20
7.279800
 40
0.138050
  1
3/4" x 4-1/16"
 41
1.000000
  7
SN0
 71
     0
 72
     5
 11
4.570130
 21
7.279800
  0
ENDSEC
  0
EOF
