  0
SECTION
  2
HEADER
  9
$ACADVER
  1
AC1006
  9
$EXTMIN
 10
3.166240
 20
1.405800
  9
$EXTMAX
 10
5.818560
 20
8.103480
  9
$LTSCALE
 40
0.044000
  9
$PDMODE
 70
    35
  9
$PDSIZE
 40
0.035200
  0
ENDSEC
  0
SECTION
  2
TABLES
  0
TABLE
  2
LTYPE
 70
     9
  0
LTYPE
  2
CONTINUOUS
 70
    64
  3
Solid line
 72
    65
 73
     0
 40
0.000000
  0
LTYPE
  2
DASHED
 70
    64
  3
__ __ __ __ __ __ __ __ __ __ __ __ __ __ __
 72
    65
 73
     2
 40
0.000330
 49
0.000220
 49
-0.000110
  0
LTYPE
  2
HIDDEN
 70
    64
  3
 _ _ _ _ _ _ _ _ _ _ _ _ _ _ _ _ _ _ _ _ _ _
 72
    65
 73
     2
 40
0.000165
 49
0.000110
 49
-0.000055
  0
LTYPE
  2
CENTER
 70
    64
  3
____ _ ____ _ ____ _ ____ _ ____ _ ____ _ ____
 72
    65
 73
     4
 40
0.000880
 49
0.000550
 49
-0.000110
 49
0.000110
 49
-0.000110
  0
LTYPE
  2
PHANTOM
 70
    64
  3
_____ _ _ _____ _ _ _____ _ _ _____ _ _ ____
 72
    65
 73
     6
 40
0.001100
 49
0.000550
 49
-0.000110
 49
0.000110
 49
-0.000110
 49
0.000110
 49
-0.000110
  0
LTYPE
  2
DOT
 70
    64
  3
...............................................
 72
    65
 73
     2
 40
0.000110
 49
0.000000
 49
-0.000110
  0
LTYPE
  2
DASHDOT
 70
    64
  3
__ . __ . __ . __ . __ . __ . __ . __ . __ . __
 72
    65
 73
     4
 40
0.000440
 49
0.000220
 49
-0.000110
 49
0.000000
 49
-0.000110
  0
LTYPE
  2
BORDER
 70
    64
  3
__ __ . __ __ . __ __ . __ __ . __ __ . __ __
 72
    65
 73
     6
 40
0.000770
 49
0.000220
 49
-0.000110
 49
0.000220
 49
-0.000110
 49
0.000000
 49
-0.000110
  0
LTYPE
  2
DIVIDE
 70
    64
  3
__ . . __ . . __ . . __ . . __ . . __ . . __
 72
    65
 73
     6
 40
0.000550
 49
0.000220
 49
-0.000110
 49
0.000000
 49
-0.000110
 49
0.000000
 49
-0.000110
  0
LTYPE
  2
DOTDOT
 70
    64
  3
 . .  . .  . .  . .  . .  . . 
 72
    65
 73
     5
 40
0.000242
 49
-0.000110
 49
0.000000
 49
-0.000110
 49
0.000000
 49
-0.000110
  0
ENDTAB
  0
TABLE
  2
STYLE
 70
     2
  0
STYLE
 70
     0
  2
SN0
 40
0.000000
 41
0.000440
 50
0.000000
 71
     0
 42
0.000000
  3
ROMAND
  0
STYLE
 70
    68
  2
SV0
 40
0.000000
 41
0.000440
 50
0.000000
 71
     0
 42
0.000000
  3
ROMAND
  0
ENDTAB
  0
TABLE
  2
LAYER
 70
     3
  0
LAYER
  2
FOREGROUND
 70
    64
 62
     7
  6
CONTINUOUS
  0
LAYER
  2
BACKGROUND
 70
    65
 62
    -7
  6
CONTINUOUS
  0
LAYER
  2
0
 70
    64
 62
     7
  6
CONTINUOUS
  0
ENDTAB
  0
ENDSEC
  0
SECTION
  2
ENTITIES
  0
POLYLINE
  8
FOREGROUND
  6
CONTINUOUS
 66
     1
 40
0.000000
 41
0.000000
  0
VERTEX
  8
FOREGROUND
  6
CONTINUOUS
 10
0.000000
 20
9.509280
  0
VERTEX
  8
FOREGROUND
  6
CONTINUOUS
 10
8.499920
 20
9.509280
  0
VERTEX
  8
FOREGROUND
  6
CONTINUOUS
 10
8.499920
 20
-1.490720
  0
VERTEX
  8
FOREGROUND
  6
CONTINUOUS
 10
0.000000
 20
-1.490720
  0
VERTEX
  8
FOREGROUND
  6
CONTINUOUS
 10
0.000000
 20
9.509280
  0
SEQEND
  8
0
  0
POLYLINE
  8
FOREGROUND
  6
CONTINUOUS
 66
     1
 40
0.000000
 41
0.000000
  0
VERTEX
  8
FOREGROUND
  6
CONTINUOUS
 10
0.000000
 20
9.509280
  0
VERTEX
  8
FOREGROUND
  6
CONTINUOUS
 10
8.499920
 20
9.509280
  0
VERTEX
  8
FOREGROUND
  6
CONTINUOUS
 10
8.499920
 20
-1.490720
  0
VERTEX
  8
FOREGROUND
  6
CONTINUOUS
 10
0.000000
 20
-1.490720
  0
VERTEX
  8
FOREGROUND
  6
CONTINUOUS
 10
0.000000
 20
9.509280
  0
SEQEND
  8
0
  0
POLYLINE
  8
0
  6
CONTINUOUS
 66
     1
 40
0.014080
 41
0.014080
  0
VERTEX
  8
0
  6
CONTINUOUS
 10
3.582920
 20
7.465040
  0
VERTEX
  8
0
  6
CONTINUOUS
 10
3.176800
 20
7.816600
  0
VERTEX
  8
0
  6
CONTINUOUS
 10
3.429800
 20
8.092480
  0
VERTEX
  8
0
  6
CONTINUOUS
 10
3.463680
 20
8.060800
  0
VERTEX
  8
0
  6
CONTINUOUS
 10
3.502400
 20
8.034400
  0
VERTEX
  8
0
  6
CONTINUOUS
 10
3.544640
 20
8.012840
  0
VERTEX
  8
0
  6
CONTINUOUS
 10
3.590400
 20
7.995240
  0
VERTEX
  8
0
  6
CONTINUOUS
 10
3.638360
 20
7.982040
  0
VERTEX
  8
0
  6
CONTINUOUS
 10
3.688520
 20
7.972800
  0
VERTEX
  8
0
  6
CONTINUOUS
 10
3.740000
 20
7.966640
  0
VERTEX
  8
0
  6
CONTINUOUS
 10
3.791920
 20
7.963560
  0
VERTEX
  8
0
  6
CONTINUOUS
 10
3.843840
 20
7.963120
  0
VERTEX
  8
0
  6
CONTINUOUS
 10
3.895320
 20
7.964880
  0
VERTEX
  8
0
  6
CONTINUOUS
 10
3.970120
 20
7.971040
  0
VERTEX
  8
0
  6
CONTINUOUS
 10
4.061640
 20
7.984240
  0
VERTEX
  8
0
  6
CONTINUOUS
 10
4.121480
 20
7.996120
  0
VERTEX
  8
0
  6
CONTINUOUS
 10
4.190120
 20
8.013280
  0
VERTEX
  8
0
  6
CONTINUOUS
 10
4.309360
 20
8.048920
  0
VERTEX
  8
0
  6
CONTINUOUS
 10
4.400440
 20
8.071360
  0
VERTEX
  8
0
  6
CONTINUOUS
 10
4.471720
 20
8.083240
  0
VERTEX
  8
0
  6
CONTINUOUS
 10
4.520560
 20
8.087200
  0
VERTEX
  8
0
  6
CONTINUOUS
 10
4.569840
 20
8.087640
  0
VERTEX
  8
0
  6
CONTINUOUS
 10
4.619120
 20
8.083680
  0
VERTEX
  8
0
  6
CONTINUOUS
 10
4.643760
 20
8.079720
  0
VERTEX
  8
0
  6
CONTINUOUS
 10
4.692160
 20
8.066960
  0
VERTEX
  8
0
  6
CONTINUOUS
 10
4.739680
 20
8.048480
  0
VERTEX
  8
0
  6
CONTINUOUS
 10
4.786320
 20
8.022080
  0
VERTEX
  8
0
  6
CONTINUOUS
 10
4.808760
 20
8.006240
  0
VERTEX
  8
0
  6
CONTINUOUS
 10
4.830760
 20
7.988200
  0
VERTEX
  8
0
  6
CONTINUOUS
 10
4.852320
 20
7.967960
  0
VERTEX
  8
0
  6
CONTINUOUS
 10
4.873440
 20
7.945520
  0
VERTEX
  8
0
  6
CONTINUOUS
 10
5.026560
 20
8.092040
  0
VERTEX
  8
0
  6
CONTINUOUS
 10
5.136120
 20
7.964440
  0
VERTEX
  8
0
  6
CONTINUOUS
 10
5.170440
 20
7.998760
  0
VERTEX
  8
0
  6
CONTINUOUS
 10
5.202560
 20
8.022960
  0
VERTEX
  8
0
  6
CONTINUOUS
 10
5.217960
 20
8.031320
  0
VERTEX
  8
0
  6
CONTINUOUS
 10
5.233360
 20
8.037480
  0
VERTEX
  8
0
  6
CONTINUOUS
 10
5.248320
 20
8.041440
  0
VERTEX
  8
0
  6
CONTINUOUS
 10
5.263280
 20
8.043640
  0
VERTEX
  8
0
  6
CONTINUOUS
 10
5.278240
 20
8.043640
  0
VERTEX
  8
0
  6
CONTINUOUS
 10
5.293200
 20
8.042320
  0
VERTEX
  8
0
  6
CONTINUOUS
 10
5.324440
 20
8.034400
  0
VERTEX
  8
0
  6
CONTINUOUS
 10
5.357000
 20
8.021640
  0
VERTEX
  8
0
  6
CONTINUOUS
 10
5.477560
 20
7.960480
  0
VERTEX
  8
0
  6
CONTINUOUS
 10
5.510560
 20
7.948600
  0
VERTEX
  8
0
  6
CONTINUOUS
 10
5.526840
 20
7.944640
  0
VERTEX
  8
0
  6
CONTINUOUS
 10
5.559400
 20
7.941560
  0
VERTEX
  8
0
  6
CONTINUOUS
 10
5.576120
 20
7.942440
  0
VERTEX
  8
0
  6
CONTINUOUS
 10
5.593280
 20
7.945960
  0
VERTEX
  8
0
  6
CONTINUOUS
 10
5.619240
 20
7.954760
  0
VERTEX
  8
0
  6
CONTINUOUS
 10
5.655760
 20
7.975440
  0
VERTEX
  8
0
  6
CONTINUOUS
 10
5.665440
 20
7.982480
  0
VERTEX
  8
0
  6
CONTINUOUS
 10
5.808440
 20
7.850480
  0
VERTEX
  8
0
  6
CONTINUOUS
 10
5.461720
 20
7.465040
  0
VERTEX
  8
0
  6
CONTINUOUS
 10
3.582920
 20
7.465040
  0
SEQEND
  8
0
  0
POLYLINE
  8
0
  6
CONTINUOUS
 66
     1
 40
0.000000
 41
0.000000
  0
VERTEX
  8
0
  6
CONTINUOUS
 10
3.582920
 20
1.405800
  0
VERTEX
  8
0
  6
CONTINUOUS
 10
3.176360
 20
1.757800
  0
VERTEX
  8
0
  6
CONTINUOUS
 10
3.429800
 20
2.033680
  0
VERTEX
  8
0
  6
CONTINUOUS
 10
3.463680
 20
2.002000
  0
VERTEX
  8
0
  6
CONTINUOUS
 10
3.502400
 20
1.975600
  0
VERTEX
  8
0
  6
CONTINUOUS
 10
3.544640
 20
1.953600
  0
VERTEX
  8
0
  6
CONTINUOUS
 10
3.589960
 20
1.936440
  0
VERTEX
  8
0
  6
CONTINUOUS
 10
3.638360
 20
1.923240
  0
VERTEX
  8
0
  6
CONTINUOUS
 10
3.688080
 20
1.913560
  0
VERTEX
  8
0
  6
CONTINUOUS
 10
3.765520
 20
1.905640
  0
VERTEX
  8
0
  6
CONTINUOUS
 10
3.791920
 20
1.904320
  0
VERTEX
  8
0
  6
CONTINUOUS
 10
3.843840
 20
1.903880
  0
VERTEX
  8
0
  6
CONTINUOUS
 10
3.895320
 20
1.905640
  0
VERTEX
  8
0
  6
CONTINUOUS
 10
3.970120
 20
1.912240
  0
VERTEX
  8
0
  6
CONTINUOUS
 10
4.040080
 20
1.921480
  0
VERTEX
  8
0
  6
CONTINUOUS
 10
4.121480
 20
1.936880
  0
VERTEX
  8
0
  6
CONTINUOUS
 10
4.208160
 20
1.959760
  0
VERTEX
  8
0
  6
CONTINUOUS
 10
4.309360
 20
1.989680
  0
VERTEX
  8
0
  6
CONTINUOUS
 10
4.354240
 20
2.001560
  0
VERTEX
  8
0
  6
CONTINUOUS
 10
4.423760
 20
2.016960
  0
VERTEX
  8
0
  6
CONTINUOUS
 10
4.471720
 20
2.024000
  0
VERTEX
  8
0
  6
CONTINUOUS
 10
4.520560
 20
2.028400
  0
VERTEX
  8
0
  6
CONTINUOUS
 10
4.569840
 20
2.028840
  0
VERTEX
  8
0
  6
CONTINUOUS
 10
4.619120
 20
2.024440
  0
VERTEX
  8
0
  6
CONTINUOUS
 10
4.643760
 20
2.020480
  0
VERTEX
  8
0
  6
CONTINUOUS
 10
4.692160
 20
2.008160
  0
VERTEX
  8
0
  6
CONTINUOUS
 10
4.739680
 20
1.989240
  0
VERTEX
  8
0
  6
CONTINUOUS
 10
4.786320
 20
1.962840
  0
VERTEX
  8
0
  6
CONTINUOUS
 10
4.808760
 20
1.947000
  0
VERTEX
  8
0
  6
CONTINUOUS
 10
4.830760
 20
1.928960
  0
VERTEX
  8
0
  6
CONTINUOUS
 10
4.852320
 20
1.908720
  0
VERTEX
  8
0
  6
CONTINUOUS
 10
4.873440
 20
1.886280
  0
VERTEX
  8
0
  6
CONTINUOUS
 10
5.026560
 20
2.032800
  0
VERTEX
  8
0
  6
CONTINUOUS
 10
5.135680
 20
1.905640
  0
VERTEX
  8
0
  6
CONTINUOUS
 10
5.170000
 20
1.939960
  0
VERTEX
  8
0
  6
CONTINUOUS
 10
5.202120
 20
1.964160
  0
VERTEX
  8
0
  6
CONTINUOUS
 10
5.232920
 20
1.978680
  0
VERTEX
  8
0
  6
CONTINUOUS
 10
5.247880
 20
1.982640
  0
VERTEX
  8
0
  6
CONTINUOUS
 10
5.263280
 20
1.984840
  0
VERTEX
  8
0
  6
CONTINUOUS
 10
5.278240
 20
1.984840
  0
VERTEX
  8
0
  6
CONTINUOUS
 10
5.293200
 20
1.983520
  0
VERTEX
  8
0
  6
CONTINUOUS
 10
5.308600
 20
1.980440
  0
VERTEX
  8
0
  6
CONTINUOUS
 10
5.340280
 20
1.969880
  0
VERTEX
  8
0
  6
CONTINUOUS
 10
5.391760
 20
1.945240
  0
VERTEX
  8
0
  6
CONTINUOUS
 10
5.461280
 20
1.909160
  0
VERTEX
  8
0
  6
CONTINUOUS
 10
5.493840
 20
1.895080
  0
VERTEX
  8
0
  6
CONTINUOUS
 10
5.526400
 20
1.885840
  0
VERTEX
  8
0
  6
CONTINUOUS
 10
5.542680
 20
1.883200
  0
VERTEX
  8
0
  6
CONTINUOUS
 10
5.558960
 20
1.882760
  0
VERTEX
  8
0
  6
CONTINUOUS
 10
5.575680
 20
1.883640
  0
VERTEX
  8
0
  6
CONTINUOUS
 10
5.592840
 20
1.886720
  0
VERTEX
  8
0
  6
CONTINUOUS
 10
5.627600
 20
1.899920
  0
VERTEX
  8
0
  6
CONTINUOUS
 10
5.655320
 20
1.916640
  0
VERTEX
  8
0
  6
CONTINUOUS
 10
5.665000
 20
1.923680
  0
VERTEX
  8
0
  6
CONTINUOUS
 10
5.808440
 20
1.791680
  0
VERTEX
  8
0
  6
CONTINUOUS
 10
5.461720
 20
1.405800
  0
VERTEX
  8
0
  6
CONTINUOUS
 10
3.582920
 20
1.405800
  0
SEQEND
  8
0
  0
POLYLINE
  8
0
  6
CONTINUOUS
 66
     1
 40
0.000000
 41
0.000000
  0
VERTEX
  8
0
  6
CONTINUOUS
 10
5.401880
 20
2.321880
  0
VERTEX
  8
0
  6
CONTINUOUS
 10
5.808440
 20
2.673440
  0
VERTEX
  8
0
  6
CONTINUOUS
 10
5.555000
 20
2.949320
  0
VERTEX
  8
0
  6
CONTINUOUS
 10
5.521120
 20
2.917640
  0
VERTEX
  8
0
  6
CONTINUOUS
 10
5.482400
 20
2.891240
  0
VERTEX
  8
0
  6
CONTINUOUS
 10
5.440160
 20
2.869680
  0
VERTEX
  8
0
  6
CONTINUOUS
 10
5.394840
 20
2.852080
  0
VERTEX
  8
0
  6
CONTINUOUS
 10
5.346440
 20
2.838880
  0
VERTEX
  8
0
  6
CONTINUOUS
 10
5.296720
 20
2.829640
  0
VERTEX
  8
0
  6
CONTINUOUS
 10
5.219280
 20
2.821280
  0
VERTEX
  8
0
  6
CONTINUOUS
 10
5.140960
 20
2.819960
  0
VERTEX
  8
0
  6
CONTINUOUS
 10
5.089480
 20
2.821720
  0
VERTEX
  8
0
  6
CONTINUOUS
 10
5.014680
 20
2.827880
  0
VERTEX
  8
0
  6
CONTINUOUS
 10
4.923160
 20
2.841080
  0
VERTEX
  8
0
  6
CONTINUOUS
 10
4.863320
 20
2.852960
  0
VERTEX
  8
0
  6
CONTINUOUS
 10
4.794680
 20
2.870120
  0
VERTEX
  8
0
  6
CONTINUOUS
 10
4.675440
 20
2.905760
  0
VERTEX
  8
0
  6
CONTINUOUS
 10
4.584360
 20
2.928200
  0
VERTEX
  8
0
  6
CONTINUOUS
 10
4.513080
 20
2.940080
  0
VERTEX
  8
0
  6
CONTINUOUS
 10
4.464240
 20
2.944040
  0
VERTEX
  8
0
  6
CONTINUOUS
 10
4.414960
 20
2.944480
  0
VERTEX
  8
0
  6
CONTINUOUS
 10
4.365680
 20
2.940520
  0
VERTEX
  8
0
  6
CONTINUOUS
 10
4.341040
 20
2.936560
  0
VERTEX
  8
0
  6
CONTINUOUS
 10
4.292640
 20
2.923800
  0
VERTEX
  8
0
  6
CONTINUOUS
 10
4.245120
 20
2.905320
  0
VERTEX
  8
0
  6
CONTINUOUS
 10
4.198480
 20
2.878920
  0
VERTEX
  8
0
  6
CONTINUOUS
 10
4.176040
 20
2.863080
  0
VERTEX
  8
0
  6
CONTINUOUS
 10
4.154040
 20
2.845040
  0
VERTEX
  8
0
  6
CONTINUOUS
 10
4.111360
 20
2.802360
  0
VERTEX
  8
0
  6
CONTINUOUS
 10
3.958240
 20
2.948880
  0
VERTEX
  8
0
  6
CONTINUOUS
 10
3.849120
 20
2.821280
  0
VERTEX
  8
0
  6
CONTINUOUS
 10
3.814800
 20
2.855600
  0
VERTEX
  8
0
  6
CONTINUOUS
 10
3.782680
 20
2.879800
  0
VERTEX
  8
0
  6
CONTINUOUS
 10
3.751880
 20
2.894320
  0
VERTEX
  8
0
  6
CONTINUOUS
 10
3.736920
 20
2.898280
  0
VERTEX
  8
0
  6
CONTINUOUS
 10
3.721960
 20
2.900480
  0
VERTEX
  8
0
  6
CONTINUOUS
 10
3.706560
 20
2.900480
  0
VERTEX
  8
0
  6
CONTINUOUS
 10
3.691600
 20
2.899160
  0
VERTEX
  8
0
  6
CONTINUOUS
 10
3.676200
 20
2.896080
  0
VERTEX
  8
0
  6
CONTINUOUS
 10
3.644520
 20
2.885520
  0
VERTEX
  8
0
  6
CONTINUOUS
 10
3.593040
 20
2.860880
  0
VERTEX
  8
0
  6
CONTINUOUS
 10
3.523960
 20
2.824800
  0
VERTEX
  8
0
  6
CONTINUOUS
 10
3.490960
 20
2.810720
  0
VERTEX
  8
0
  6
CONTINUOUS
 10
3.458400
 20
2.801480
  0
VERTEX
  8
0
  6
CONTINUOUS
 10
3.425840
 20
2.798400
  0
VERTEX
  8
0
  6
CONTINUOUS
 10
3.409120
 20
2.799280
  0
VERTEX
  8
0
  6
CONTINUOUS
 10
3.391960
 20
2.802800
  0
VERTEX
  8
0
  6
CONTINUOUS
 10
3.366000
 20
2.811600
  0
VERTEX
  8
0
  6
CONTINUOUS
 10
3.329480
 20
2.832280
  0
VERTEX
  8
0
  6
CONTINUOUS
 10
3.319800
 20
2.839320
  0
VERTEX
  8
0
  6
CONTINUOUS
 10
3.176360
 20
2.707320
  0
VERTEX
  8
0
  6
CONTINUOUS
 10
3.523080
 20
2.321880
  0
VERTEX
  8
0
  6
CONTINUOUS
 10
5.402320
 20
2.321880
  0
SEQEND
  8
0
  0
SOLID
  8
0
 62
    15
 10
4.079680
 20
5.140520
 11
4.709760
 21
4.770480
 12
4.023360
 22
5.136560
 13
4.653880
 23
4.766960
  0
POLYLINE
  8
0
  6
CONTINUOUS
 66
     1
 40
0.000000
 41
0.000000
  0
VERTEX
  8
0
  6
CONTINUOUS
 10
4.079680
 20
5.140520
  0
VERTEX
  8
0
  6
CONTINUOUS
 10
4.709760
 20
4.770480
  0
VERTEX
  8
0
  6
CONTINUOUS
 10
4.653880
 20
4.766960
  0
VERTEX
  8
0
  6
CONTINUOUS
 10
4.023360
 20
5.136560
  0
VERTEX
  8
0
  6
CONTINUOUS
 10
4.079680
 20
5.140520
  0
SEQEND
  8
0
  0
SOLID
  8
0
 62
    15
 10
5.149320
 20
5.976960
 11
5.779400
 21
5.607360
 12
5.056480
 22
5.973440
 13
5.686560
 23
5.603400
  0
POLYLINE
  8
0
  6
CONTINUOUS
 66
     1
 40
0.000000
 41
0.000000
  0
VERTEX
  8
0
  6
CONTINUOUS
 10
5.149320
 20
5.976960
  0
VERTEX
  8
0
  6
CONTINUOUS
 10
5.779400
 20
5.607360
  0
VERTEX
  8
0
  6
CONTINUOUS
 10
5.686560
 20
5.603400
  0
VERTEX
  8
0
  6
CONTINUOUS
 10
5.056480
 20
5.973440
  0
VERTEX
  8
0
  6
CONTINUOUS
 10
5.149320
 20
5.976960
  0
SEQEND
  8
0
  0
SOLID
  8
0
 62
    15
 10
5.056480
 20
5.973440
 11
5.686560
 21
5.603400
 12
4.964520
 22
5.945280
 13
5.594600
 23
5.575240
  0
POLYLINE
  8
0
  6
CONTINUOUS
 66
     1
 40
0.000000
 41
0.000000
  0
VERTEX
  8
0
  6
CONTINUOUS
 10
5.056480
 20
5.973440
  0
VERTEX
  8
0
  6
CONTINUOUS
 10
5.686560
 20
5.603400
  0
VERTEX
  8
0
  6
CONTINUOUS
 10
5.594600
 20
5.575240
  0
VERTEX
  8
0
  6
CONTINUOUS
 10
4.964520
 20
5.945280
  0
VERTEX
  8
0
  6
CONTINUOUS
 10
5.056480
 20
5.973440
  0
SEQEND
  8
0
  0
SOLID
  8
0
 62
    15
 10
4.964520
 20
5.945280
 11
5.594600
 21
5.575240
 12
4.875640
 22
5.897760
 13
5.505720
 23
5.528160
  0
POLYLINE
  8
0
  6
CONTINUOUS
 66
     1
 40
0.000000
 41
0.000000
  0
VERTEX
  8
0
  6
CONTINUOUS
 10
4.964520
 20
5.945280
  0
VERTEX
  8
0
  6
CONTINUOUS
 10
5.594600
 20
5.575240
  0
VERTEX
  8
0
  6
CONTINUOUS
 10
5.505720
 20
5.528160
  0
VERTEX
  8
0
  6
CONTINUOUS
 10
4.875640
 20
5.897760
  0
VERTEX
  8
0
  6
CONTINUOUS
 10
4.964520
 20
5.945280
  0
SEQEND
  8
0
  0
SOLID
  8
0
 62
    15
 10
4.875640
 20
5.897760
 11
5.505720
 21
5.528160
 12
4.791600
 22
5.837040
 13
5.421680
 23
5.467000
  0
POLYLINE
  8
0
  6
CONTINUOUS
 66
     1
 40
0.000000
 41
0.000000
  0
VERTEX
  8
0
  6
CONTINUOUS
 10
4.875640
 20
5.897760
  0
VERTEX
  8
0
  6
CONTINUOUS
 10
5.505720
 20
5.528160
  0
VERTEX
  8
0
  6
CONTINUOUS
 10
5.421680
 20
5.467000
  0
VERTEX
  8
0
  6
CONTINUOUS
 10
4.791600
 20
5.837040
  0
VERTEX
  8
0
  6
CONTINUOUS
 10
4.875640
 20
5.897760
  0
SEQEND
  8
0
  0
SOLID
  8
0
 62
    15
 10
4.791600
 20
5.837040
 11
5.421680
 21
5.467000
 12
4.714160
 22
5.767960
 13
5.344240
 23
5.397920
  0
POLYLINE
  8
0
  6
CONTINUOUS
 66
     1
 40
0.000000
 41
0.000000
  0
VERTEX
  8
0
  6
CONTINUOUS
 10
4.791600
 20
5.837040
  0
VERTEX
  8
0
  6
CONTINUOUS
 10
5.421680
 20
5.467000
  0
VERTEX
  8
0
  6
CONTINUOUS
 10
5.344240
 20
5.397920
  0
VERTEX
  8
0
  6
CONTINUOUS
 10
4.714160
 20
5.767960
  0
VERTEX
  8
0
  6
CONTINUOUS
 10
4.791600
 20
5.837040
  0
SEQEND
  8
0
  0
SOLID
  8
0
 62
    15
 10
4.714160
 20
5.767960
 11
5.344240
 21
5.397920
 12
4.645520
 22
5.696240
 13
5.276040
 23
5.326640
  0
POLYLINE
  8
0
  6
CONTINUOUS
 66
     1
 40
0.000000
 41
0.000000
  0
VERTEX
  8
0
  6
CONTINUOUS
 10
4.714160
 20
5.767960
  0
VERTEX
  8
0
  6
CONTINUOUS
 10
5.344240
 20
5.397920
  0
VERTEX
  8
0
  6
CONTINUOUS
 10
5.276040
 20
5.326640
  0
VERTEX
  8
0
  6
CONTINUOUS
 10
4.645520
 20
5.696240
  0
VERTEX
  8
0
  6
CONTINUOUS
 10
4.714160
 20
5.767960
  0
SEQEND
  8
0
  0
SOLID
  8
0
 62
    15
 10
4.645520
 20
5.696240
 11
5.276040
 21
5.326640
 12
4.587880
 22
5.627600
 13
5.218400
 23
5.257560
  0
POLYLINE
  8
0
  6
CONTINUOUS
 66
     1
 40
0.000000
 41
0.000000
  0
VERTEX
  8
0
  6
CONTINUOUS
 10
4.645520
 20
5.696240
  0
VERTEX
  8
0
  6
CONTINUOUS
 10
5.276040
 20
5.326640
  0
VERTEX
  8
0
  6
CONTINUOUS
 10
5.218400
 20
5.257560
  0
VERTEX
  8
0
  6
CONTINUOUS
 10
4.587880
 20
5.627600
  0
VERTEX
  8
0
  6
CONTINUOUS
 10
4.645520
 20
5.696240
  0
SEQEND
  8
0
  0
SOLID
  8
0
 62
    15
 10
4.587880
 20
5.627600
 11
5.218400
 21
5.257560
 12
4.543000
 22
5.566880
 13
5.173520
 23
5.197280
  0
POLYLINE
  8
0
  6
CONTINUOUS
 66
     1
 40
0.000000
 41
0.000000
  0
VERTEX
  8
0
  6
CONTINUOUS
 10
4.587880
 20
5.627600
  0
VERTEX
  8
0
  6
CONTINUOUS
 10
5.218400
 20
5.257560
  0
VERTEX
  8
0
  6
CONTINUOUS
 10
5.173520
 20
5.197280
  0
VERTEX
  8
0
  6
CONTINUOUS
 10
4.543000
 20
5.566880
  0
VERTEX
  8
0
  6
CONTINUOUS
 10
4.587880
 20
5.627600
  0
SEQEND
  8
0
  0
SOLID
  8
0
 62
    15
 10
4.543000
 20
5.566880
 11
5.173520
 21
5.197280
 12
4.502960
 22
5.505280
 13
5.133040
 23
5.135240
  0
POLYLINE
  8
0
  6
CONTINUOUS
 66
     1
 40
0.000000
 41
0.000000
  0
VERTEX
  8
0
  6
CONTINUOUS
 10
4.543000
 20
5.566880
  0
VERTEX
  8
0
  6
CONTINUOUS
 10
5.173520
 20
5.197280
  0
VERTEX
  8
0
  6
CONTINUOUS
 10
5.133040
 20
5.135240
  0
VERTEX
  8
0
  6
CONTINUOUS
 10
4.502960
 20
5.505280
  0
VERTEX
  8
0
  6
CONTINUOUS
 10
4.543000
 20
5.566880
  0
SEQEND
  8
0
  0
SOLID
  8
0
 62
    15
 10
4.502960
 20
5.505280
 11
5.133040
 21
5.135240
 12
4.480520
 22
5.470080
 13
5.111040
 23
5.100040
  0
POLYLINE
  8
0
  6
CONTINUOUS
 66
     1
 40
0.000000
 41
0.000000
  0
VERTEX
  8
0
  6
CONTINUOUS
 10
4.502960
 20
5.505280
  0
VERTEX
  8
0
  6
CONTINUOUS
 10
5.133040
 20
5.135240
  0
VERTEX
  8
0
  6
CONTINUOUS
 10
5.111040
 20
5.100040
  0
VERTEX
  8
0
  6
CONTINUOUS
 10
4.480520
 20
5.470080
  0
VERTEX
  8
0
  6
CONTINUOUS
 10
4.502960
 20
5.505280
  0
SEQEND
  8
0
  0
SOLID
  8
0
 62
    15
 10
4.480520
 20
5.470080
 11
5.111040
 21
5.100040
 12
4.456760
 22
5.432680
 13
5.086840
 23
5.063080
  0
POLYLINE
  8
0
  6
CONTINUOUS
 66
     1
 40
0.000000
 41
0.000000
  0
VERTEX
  8
0
  6
CONTINUOUS
 10
4.480520
 20
5.470080
  0
VERTEX
  8
0
  6
CONTINUOUS
 10
5.111040
 20
5.100040
  0
VERTEX
  8
0
  6
CONTINUOUS
 10
5.086840
 20
5.063080
  0
VERTEX
  8
0
  6
CONTINUOUS
 10
4.456760
 20
5.432680
  0
VERTEX
  8
0
  6
CONTINUOUS
 10
4.480520
 20
5.470080
  0
SEQEND
  8
0
  0
SOLID
  8
0
 62
    15
 10
4.456760
 20
5.432680
 11
5.086840
 21
5.063080
 12
4.403080
 22
5.356560
 13
5.033160
 23
4.986520
  0
POLYLINE
  8
0
  6
CONTINUOUS
 66
     1
 40
0.000000
 41
0.000000
  0
VERTEX
  8
0
  6
CONTINUOUS
 10
4.456760
 20
5.432680
  0
VERTEX
  8
0
  6
CONTINUOUS
 10
5.086840
 20
5.063080
  0
VERTEX
  8
0
  6
CONTINUOUS
 10
5.033160
 20
4.986520
  0
VERTEX
  8
0
  6
CONTINUOUS
 10
4.403080
 20
5.356560
  0
VERTEX
  8
0
  6
CONTINUOUS
 10
4.456760
 20
5.432680
  0
SEQEND
  8
0
  0
SOLID
  8
0
 62
    15
 10
4.403080
 20
5.356560
 11
5.033160
 21
4.986520
 12
4.340160
 22
5.282640
 13
4.970240
 23
4.912600
  0
POLYLINE
  8
0
  6
CONTINUOUS
 66
     1
 40
0.000000
 41
0.000000
  0
VERTEX
  8
0
  6
CONTINUOUS
 10
4.403080
 20
5.356560
  0
VERTEX
  8
0
  6
CONTINUOUS
 10
5.033160
 20
4.986520
  0
VERTEX
  8
0
  6
CONTINUOUS
 10
4.970240
 20
4.912600
  0
VERTEX
  8
0
  6
CONTINUOUS
 10
4.340160
 20
5.282640
  0
VERTEX
  8
0
  6
CONTINUOUS
 10
4.403080
 20
5.356560
  0
SEQEND
  8
0
  0
SOLID
  8
0
 62
    15
 10
4.340160
 20
5.282640
 11
4.970240
 21
4.912600
 12
4.266240
 22
5.217520
 13
4.896320
 23
4.847920
  0
POLYLINE
  8
0
  6
CONTINUOUS
 66
     1
 40
0.000000
 41
0.000000
  0
VERTEX
  8
0
  6
CONTINUOUS
 10
4.340160
 20
5.282640
  0
VERTEX
  8
0
  6
CONTINUOUS
 10
4.970240
 20
4.912600
  0
VERTEX
  8
0
  6
CONTINUOUS
 10
4.896320
 20
4.847920
  0
VERTEX
  8
0
  6
CONTINUOUS
 10
4.266240
 20
5.217520
  0
VERTEX
  8
0
  6
CONTINUOUS
 10
4.340160
 20
5.282640
  0
SEQEND
  8
0
  0
SOLID
  8
0
 62
    15
 10
4.266240
 20
5.217520
 11
4.896320
 21
4.847920
 12
4.180000
 22
5.168240
 13
4.810080
 23
4.798200
  0
POLYLINE
  8
0
  6
CONTINUOUS
 66
     1
 40
0.000000
 41
0.000000
  0
VERTEX
  8
0
  6
CONTINUOUS
 10
4.266240
 20
5.217520
  0
VERTEX
  8
0
  6
CONTINUOUS
 10
4.896320
 20
4.847920
  0
VERTEX
  8
0
  6
CONTINUOUS
 10
4.810080
 20
4.798200
  0
VERTEX
  8
0
  6
CONTINUOUS
 10
4.180000
 20
5.168240
  0
VERTEX
  8
0
  6
CONTINUOUS
 10
4.266240
 20
5.217520
  0
SEQEND
  8
0
  0
SOLID
  8
0
 62
    15
 10
4.180000
 20
5.168240
 11
4.810080
 21
4.798200
 12
4.079680
 22
5.140520
 13
4.709760
 23
4.770480
  0
POLYLINE
  8
0
  6
CONTINUOUS
 66
     1
 40
0.000000
 41
0.000000
  0
VERTEX
  8
0
  6
CONTINUOUS
 10
4.180000
 20
5.168240
  0
VERTEX
  8
0
  6
CONTINUOUS
 10
4.810080
 20
4.798200
  0
VERTEX
  8
0
  6
CONTINUOUS
 10
4.709760
 20
4.770480
  0
VERTEX
  8
0
  6
CONTINUOUS
 10
4.079680
 20
5.140520
  0
VERTEX
  8
0
  6
CONTINUOUS
 10
4.180000
 20
5.168240
  0
SEQEND
  8
0
  0
POLYLINE
  8
0
  6
CONTINUOUS
 66
     1
 40
0.000000
 41
0.000000
  0
VERTEX
  8
0
  6
CONTINUOUS
 10
4.622200
 20
6.350080
  0
VERTEX
  8
0
  6
CONTINUOUS
 10
5.252280
 20
5.980480
  0
VERTEX
  8
0
  6
CONTINUOUS
 10
4.622200
 20
6.350080
  0
SEQEND
  8
0
  0
SOLID
  8
0
 62
    15
 10
4.023360
 20
5.136560
 11
4.653880
 21
4.766960
 12
3.963520
 22
5.140960
 13
4.593600
 23
4.771360
  0
POLYLINE
  8
0
  6
CONTINUOUS
 66
     1
 40
0.000000
 41
0.000000
  0
VERTEX
  8
0
  6
CONTINUOUS
 10
4.023360
 20
5.136560
  0
VERTEX
  8
0
  6
CONTINUOUS
 10
4.653880
 20
4.766960
  0
VERTEX
  8
0
  6
CONTINUOUS
 10
4.593600
 20
4.771360
  0
VERTEX
  8
0
  6
CONTINUOUS
 10
3.963520
 20
5.140960
  0
VERTEX
  8
0
  6
CONTINUOUS
 10
4.023360
 20
5.136560
  0
SEQEND
  8
0
  0
SOLID
  8
0
 62
    15
 10
3.963520
 20
5.140960
 11
4.593600
 21
4.771360
 12
3.943720
 22
4.929760
 13
4.573800
 23
4.560160
  0
POLYLINE
  8
0
  6
CONTINUOUS
 66
     1
 40
0.000000
 41
0.000000
  0
VERTEX
  8
0
  6
CONTINUOUS
 10
3.963520
 20
5.140960
  0
VERTEX
  8
0
  6
CONTINUOUS
 10
4.593600
 20
4.771360
  0
VERTEX
  8
0
  6
CONTINUOUS
 10
4.573800
 20
4.560160
  0
VERTEX
  8
0
  6
CONTINUOUS
 10
3.943720
 20
4.929760
  0
VERTEX
  8
0
  6
CONTINUOUS
 10
3.963520
 20
5.140960
  0
SEQEND
  8
0
  0
SOLID
  8
0
 62
    15
 10
3.943720
 20
4.929760
 11
4.573800
 21
4.560160
 12
3.777840
 22
4.954400
 13
4.407920
 23
4.584360
  0
POLYLINE
  8
0
  6
CONTINUOUS
 66
     1
 40
0.000000
 41
0.000000
  0
VERTEX
  8
0
  6
CONTINUOUS
 10
3.943720
 20
4.929760
  0
VERTEX
  8
0
  6
CONTINUOUS
 10
4.573800
 20
4.560160
  0
VERTEX
  8
0
  6
CONTINUOUS
 10
4.407920
 20
4.584360
  0
VERTEX
  8
0
  6
CONTINUOUS
 10
3.777840
 20
4.954400
  0
VERTEX
  8
0
  6
CONTINUOUS
 10
3.943720
 20
4.929760
  0
SEQEND
  8
0
  0
SOLID
  8
0
 62
    15
 10
3.777840
 20
4.954400
 11
4.407920
 21
4.584360
 12
3.774320
 22
4.905560
 13
4.404400
 23
4.535960
  0
POLYLINE
  8
0
  6
CONTINUOUS
 66
     1
 40
0.000000
 41
0.000000
  0
VERTEX
  8
0
  6
CONTINUOUS
 10
3.777840
 20
4.954400
  0
VERTEX
  8
0
  6
CONTINUOUS
 10
4.407920
 20
4.584360
  0
VERTEX
  8
0
  6
CONTINUOUS
 10
4.404400
 20
4.535960
  0
VERTEX
  8
0
  6
CONTINUOUS
 10
3.774320
 20
4.905560
  0
VERTEX
  8
0
  6
CONTINUOUS
 10
3.777840
 20
4.954400
  0
SEQEND
  8
0
  0
SOLID
  8
0
 62
    15
 10
3.774320
 20
4.905560
 11
4.404400
 21
4.535960
 12
3.765960
 22
4.866400
 13
4.396040
 23
4.496800
  0
POLYLINE
  8
0
  6
CONTINUOUS
 66
     1
 40
0.000000
 41
0.000000
  0
VERTEX
  8
0
  6
CONTINUOUS
 10
3.774320
 20
4.905560
  0
VERTEX
  8
0
  6
CONTINUOUS
 10
4.404400
 20
4.535960
  0
VERTEX
  8
0
  6
CONTINUOUS
 10
4.396040
 20
4.496800
  0
VERTEX
  8
0
  6
CONTINUOUS
 10
3.765960
 20
4.866400
  0
VERTEX
  8
0
  6
CONTINUOUS
 10
3.774320
 20
4.905560
  0
SEQEND
  8
0
  0
SOLID
  8
0
 62
    15
 10
3.765960
 20
4.866400
 11
4.396040
 21
4.496800
 12
3.752320
 22
4.835600
 13
4.382400
 23
4.465560
  0
POLYLINE
  8
0
  6
CONTINUOUS
 66
     1
 40
0.000000
 41
0.000000
  0
VERTEX
  8
0
  6
CONTINUOUS
 10
3.765960
 20
4.866400
  0
VERTEX
  8
0
  6
CONTINUOUS
 10
4.396040
 20
4.496800
  0
VERTEX
  8
0
  6
CONTINUOUS
 10
4.382400
 20
4.465560
  0
VERTEX
  8
0
  6
CONTINUOUS
 10
3.752320
 20
4.835600
  0
VERTEX
  8
0
  6
CONTINUOUS
 10
3.765960
 20
4.866400
  0
SEQEND
  8
0
  0
SOLID
  8
0
 62
    15
 10
3.752320
 20
4.835600
 11
4.382400
 21
4.465560
 12
3.733400
 22
4.810960
 13
4.363480
 23
4.441360
  0
POLYLINE
  8
0
  6
CONTINUOUS
 66
     1
 40
0.000000
 41
0.000000
  0
VERTEX
  8
0
  6
CONTINUOUS
 10
3.752320
 20
4.835600
  0
VERTEX
  8
0
  6
CONTINUOUS
 10
4.382400
 20
4.465560
  0
VERTEX
  8
0
  6
CONTINUOUS
 10
4.363480
 20
4.441360
  0
VERTEX
  8
0
  6
CONTINUOUS
 10
3.733400
 20
4.810960
  0
VERTEX
  8
0
  6
CONTINUOUS
 10
3.752320
 20
4.835600
  0
SEQEND
  8
0
  0
SOLID
  8
0
 62
    15
 10
3.733400
 20
4.810960
 11
4.363480
 21
4.441360
 12
3.681480
 22
4.777960
 13
4.311560
 23
4.407920
  0
POLYLINE
  8
0
  6
CONTINUOUS
 66
     1
 40
0.000000
 41
0.000000
  0
VERTEX
  8
0
  6
CONTINUOUS
 10
3.733400
 20
4.810960
  0
VERTEX
  8
0
  6
CONTINUOUS
 10
4.363480
 20
4.441360
  0
VERTEX
  8
0
  6
CONTINUOUS
 10
4.311560
 20
4.407920
  0
VERTEX
  8
0
  6
CONTINUOUS
 10
3.681480
 20
4.777960
  0
VERTEX
  8
0
  6
CONTINUOUS
 10
3.733400
 20
4.810960
  0
SEQEND
  8
0
  0
SOLID
  8
0
 62
    15
 10
3.681480
 20
4.777960
 11
4.311560
 21
4.407920
 12
3.610640
 22
4.756400
 13
4.240720
 23
4.386800
  0
POLYLINE
  8
0
  6
CONTINUOUS
 66
     1
 40
0.000000
 41
0.000000
  0
VERTEX
  8
0
  6
CONTINUOUS
 10
3.681480
 20
4.777960
  0
VERTEX
  8
0
  6
CONTINUOUS
 10
4.311560
 20
4.407920
  0
VERTEX
  8
0
  6
CONTINUOUS
 10
4.240720
 20
4.386800
  0
VERTEX
  8
0
  6
CONTINUOUS
 10
3.610640
 20
4.756400
  0
VERTEX
  8
0
  6
CONTINUOUS
 10
3.681480
 20
4.777960
  0
SEQEND
  8
0
  0
SOLID
  8
0
 62
    15
 10
3.610640
 20
4.756400
 11
4.240720
 21
4.386800
 12
3.571480
 22
4.747600
 13
4.201560
 23
4.378000
  0
POLYLINE
  8
0
  6
CONTINUOUS
 66
     1
 40
0.000000
 41
0.000000
  0
VERTEX
  8
0
  6
CONTINUOUS
 10
3.610640
 20
4.756400
  0
VERTEX
  8
0
  6
CONTINUOUS
 10
4.240720
 20
4.386800
  0
VERTEX
  8
0
  6
CONTINUOUS
 10
4.201560
 20
4.378000
  0
VERTEX
  8
0
  6
CONTINUOUS
 10
3.571480
 20
4.747600
  0
VERTEX
  8
0
  6
CONTINUOUS
 10
3.610640
 20
4.756400
  0
SEQEND
  8
0
  0
SOLID
  8
0
 62
    15
 10
3.571480
 20
4.747600
 11
4.201560
 21
4.378000
 12
3.534520
 22
4.738360
 13
4.164600
 23
4.368320
  0
POLYLINE
  8
0
  6
CONTINUOUS
 66
     1
 40
0.000000
 41
0.000000
  0
VERTEX
  8
0
  6
CONTINUOUS
 10
3.571480
 20
4.747600
  0
VERTEX
  8
0
  6
CONTINUOUS
 10
4.201560
 20
4.378000
  0
VERTEX
  8
0
  6
CONTINUOUS
 10
4.164600
 20
4.368320
  0
VERTEX
  8
0
  6
CONTINUOUS
 10
3.534520
 20
4.738360
  0
VERTEX
  8
0
  6
CONTINUOUS
 10
3.571480
 20
4.747600
  0
SEQEND
  8
0
  0
SOLID
  8
0
 62
    15
 10
3.534520
 20
4.738360
 11
4.164600
 21
4.368320
 12
3.469840
 22
4.712840
 13
4.100360
 23
4.343240
  0
POLYLINE
  8
0
  6
CONTINUOUS
 66
     1
 40
0.000000
 41
0.000000
  0
VERTEX
  8
0
  6
CONTINUOUS
 10
3.534520
 20
4.738360
  0
VERTEX
  8
0
  6
CONTINUOUS
 10
4.164600
 20
4.368320
  0
VERTEX
  8
0
  6
CONTINUOUS
 10
4.100360
 20
4.343240
  0
VERTEX
  8
0
  6
CONTINUOUS
 10
3.469840
 20
4.712840
  0
VERTEX
  8
0
  6
CONTINUOUS
 10
3.534520
 20
4.738360
  0
SEQEND
  8
0
  0
SOLID
  8
0
 62
    15
 10
3.469840
 20
4.712840
 11
4.100360
 21
4.343240
 12
3.420560
 22
4.668400
 13
4.050640
 23
4.298800
  0
POLYLINE
  8
0
  6
CONTINUOUS
 66
     1
 40
0.000000
 41
0.000000
  0
VERTEX
  8
0
  6
CONTINUOUS
 10
3.469840
 20
4.712840
  0
VERTEX
  8
0
  6
CONTINUOUS
 10
4.100360
 20
4.343240
  0
VERTEX
  8
0
  6
CONTINUOUS
 10
4.050640
 20
4.298800
  0
VERTEX
  8
0
  6
CONTINUOUS
 10
3.420560
 20
4.668400
  0
VERTEX
  8
0
  6
CONTINUOUS
 10
3.469840
 20
4.712840
  0
SEQEND
  8
0
  0
SOLID
  8
0
 62
    15
 10
3.420560
 20
4.668400
 11
4.050640
 21
4.298800
 12
3.402520
 22
4.635400
 13
4.033040
 23
4.265800
  0
POLYLINE
  8
0
  6
CONTINUOUS
 66
     1
 40
0.000000
 41
0.000000
  0
VERTEX
  8
0
  6
CONTINUOUS
 10
3.420560
 20
4.668400
  0
VERTEX
  8
0
  6
CONTINUOUS
 10
4.050640
 20
4.298800
  0
VERTEX
  8
0
  6
CONTINUOUS
 10
4.033040
 20
4.265800
  0
VERTEX
  8
0
  6
CONTINUOUS
 10
3.402520
 20
4.635400
  0
VERTEX
  8
0
  6
CONTINUOUS
 10
3.420560
 20
4.668400
  0
SEQEND
  8
0
  0
SOLID
  8
0
 62
    15
 10
3.402520
 20
4.635400
 11
4.033040
 21
4.265800
 12
3.390200
 22
4.593600
 13
4.020280
 23
4.223560
  0
POLYLINE
  8
0
  6
CONTINUOUS
 66
     1
 40
0.000000
 41
0.000000
  0
VERTEX
  8
0
  6
CONTINUOUS
 10
3.402520
 20
4.635400
  0
VERTEX
  8
0
  6
CONTINUOUS
 10
4.033040
 20
4.265800
  0
VERTEX
  8
0
  6
CONTINUOUS
 10
4.020280
 20
4.223560
  0
VERTEX
  8
0
  6
CONTINUOUS
 10
3.390200
 20
4.593600
  0
VERTEX
  8
0
  6
CONTINUOUS
 10
3.402520
 20
4.635400
  0
SEQEND
  8
0
  0
SOLID
  8
0
 62
    15
 10
3.390200
 20
4.593600
 11
4.020280
 21
4.223560
 12
3.195280
 22
4.599320
 13
3.825800
 23
4.229280
  0
POLYLINE
  8
0
  6
CONTINUOUS
 66
     1
 40
0.000000
 41
0.000000
  0
VERTEX
  8
0
  6
CONTINUOUS
 10
3.390200
 20
4.593600
  0
VERTEX
  8
0
  6
CONTINUOUS
 10
4.020280
 20
4.223560
  0
VERTEX
  8
0
  6
CONTINUOUS
 10
3.825800
 20
4.229280
  0
VERTEX
  8
0
  6
CONTINUOUS
 10
3.195280
 20
4.599320
  0
VERTEX
  8
0
  6
CONTINUOUS
 10
3.390200
 20
4.593600
  0
SEQEND
  8
0
  0
SOLID
  8
0
 62
    15
 10
5.159440
 20
6.351400
 11
5.789520
 21
5.981360
 12
5.149320
 22
5.976960
 13
5.779400
 23
5.607360
  0
POLYLINE
  8
0
  6
CONTINUOUS
 66
     1
 40
0.000000
 41
0.000000
  0
VERTEX
  8
0
  6
CONTINUOUS
 10
5.159440
 20
6.351400
  0
VERTEX
  8
0
  6
CONTINUOUS
 10
5.789520
 20
5.981360
  0
VERTEX
  8
0
  6
CONTINUOUS
 10
5.779400
 20
5.607360
  0
VERTEX
  8
0
  6
CONTINUOUS
 10
5.149320
 20
5.976960
  0
VERTEX
  8
0
  6
CONTINUOUS
 10
5.159440
 20
6.351400
  0
SEQEND
  8
0
  0
POLYLINE
  8
0
  6
CONTINUOUS
 66
     1
 40
0.000000
 41
0.000000
  0
VERTEX
  8
0
  6
CONTINUOUS
 10
4.622200
 20
6.350080
  0
VERTEX
  8
0
  6
CONTINUOUS
 10
5.159440
 20
6.351400
  0
VERTEX
  8
0
  6
CONTINUOUS
 10
5.149320
 20
5.976960
  0
VERTEX
  8
0
  6
CONTINUOUS
 10
5.056480
 20
5.973440
  0
VERTEX
  8
0
  6
CONTINUOUS
 10
4.964520
 20
5.945280
  0
VERTEX
  8
0
  6
CONTINUOUS
 10
4.875640
 20
5.897760
  0
VERTEX
  8
0
  6
CONTINUOUS
 10
4.791600
 20
5.837040
  0
VERTEX
  8
0
  6
CONTINUOUS
 10
4.714160
 20
5.767960
  0
VERTEX
  8
0
  6
CONTINUOUS
 10
4.645520
 20
5.696240
  0
VERTEX
  8
0
  6
CONTINUOUS
 10
4.587880
 20
5.627600
  0
VERTEX
  8
0
  6
CONTINUOUS
 10
4.543000
 20
5.566880
  0
VERTEX
  8
0
  6
CONTINUOUS
 10
4.502960
 20
5.505280
  0
VERTEX
  8
0
  6
CONTINUOUS
 10
4.480520
 20
5.470080
  0
VERTEX
  8
0
  6
CONTINUOUS
 10
4.456760
 20
5.432680
  0
VERTEX
  8
0
  6
CONTINUOUS
 10
4.403080
 20
5.356560
  0
VERTEX
  8
0
  6
CONTINUOUS
 10
4.340160
 20
5.282640
  0
VERTEX
  8
0
  6
CONTINUOUS
 10
4.266240
 20
5.217520
  0
VERTEX
  8
0
  6
CONTINUOUS
 10
4.180000
 20
5.168240
  0
VERTEX
  8
0
  6
CONTINUOUS
 10
4.079680
 20
5.140520
  0
VERTEX
  8
0
  6
CONTINUOUS
 10
4.023360
 20
5.136560
  0
VERTEX
  8
0
  6
CONTINUOUS
 10
3.963520
 20
5.140960
  0
VERTEX
  8
0
  6
CONTINUOUS
 10
3.943720
 20
4.929760
  0
VERTEX
  8
0
  6
CONTINUOUS
 10
3.777840
 20
4.954400
  0
VERTEX
  8
0
  6
CONTINUOUS
 10
3.774320
 20
4.905560
  0
VERTEX
  8
0
  6
CONTINUOUS
 10
3.765960
 20
4.866400
  0
VERTEX
  8
0
  6
CONTINUOUS
 10
3.752320
 20
4.835600
  0
VERTEX
  8
0
  6
CONTINUOUS
 10
3.733400
 20
4.810960
  0
VERTEX
  8
0
  6
CONTINUOUS
 10
3.681480
 20
4.777960
  0
VERTEX
  8
0
  6
CONTINUOUS
 10
3.610640
 20
4.756400
  0
VERTEX
  8
0
  6
CONTINUOUS
 10
3.571480
 20
4.747600
  0
VERTEX
  8
0
  6
CONTINUOUS
 10
3.534520
 20
4.738360
  0
VERTEX
  8
0
  6
CONTINUOUS
 10
3.469840
 20
4.712840
  0
VERTEX
  8
0
  6
CONTINUOUS
 10
3.420560
 20
4.668400
  0
VERTEX
  8
0
  6
CONTINUOUS
 10
3.402520
 20
4.635400
  0
VERTEX
  8
0
  6
CONTINUOUS
 10
3.390200
 20
4.593600
  0
VERTEX
  8
0
  6
CONTINUOUS
 10
3.195280
 20
4.599320
  0
VERTEX
  8
0
  6
CONTINUOUS
 10
3.204080
 20
5.117640
  0
VERTEX
  8
0
  6
CONTINUOUS
 10
4.622200
 20
6.350080
  0
SEQEND
  8
0
  0
TEXT
  8
0
 10
4.844840
 20
4.427720
 40
0.138145
  1
BA  1306
 41
1.000000
  7
SN0
 71
     0
 72
     5
 11
5.526329
 21
4.427720
  0
TEXT
  8
0
 10
4.734840
 20
4.236320
 40
0.138145
  1
5/8" x 2-5/8"
 41
1.000000
  7
SN0
 71
     0
 72
     5
 11
5.634673
 21
4.236320
  0
TEXT
  8
0
 10
4.151840
 20
7.732560
 40
0.138145
  1
BA  1306
 41
1.000000
  7
SN0
 71
     0
 72
     5
 11
4.833329
 21
7.732560
  0
TEXT
  8
0
 10
4.041840
 20
7.540720
 40
0.138145
  1
5/8" x 2-5/8"
 41
1.000000
  7
SN0
 71
     0
 72
     5
 11
4.941673
 21
7.540720
  0
ENDSEC
  0
EOF
