  0
SECTION
  2
HEADER
  9
$ACADVER
  1
AC1006
  9
$EXTMIN
 10
0.843103
 20
0.417523
  9
$EXTMAX
 10
11.848466
 20
9.876960
  9
$LTSCALE
 40
0.047392
  9
$PDMODE
 70
    35
  9
$PDSIZE
 40
0.037914
  0
ENDSEC
  0
SECTION
  2
TABLES
  0
TABLE
  2
LTYPE
 70
     9
  0
LTYPE
  2
CONTINUOUS
 70
    64
  3
Solid line
 72
    65
 73
     0
 40
0.000000
  0
LTYPE
  2
DASHED
 70
    64
  3
__ __ __ __ __ __ __ __ __ __ __ __ __ __ __
 72
    65
 73
     2
 40
0.000355
 49
0.000237
 49
-0.000118
  0
LTYPE
  2
HIDDEN
 70
    64
  3
 _ _ _ _ _ _ _ _ _ _ _ _ _ _ _ _ _ _ _ _ _ _
 72
    65
 73
     2
 40
0.000178
 49
0.000118
 49
-0.000059
  0
LTYPE
  2
CENTER
 70
    64
  3
____ _ ____ _ ____ _ ____ _ ____ _ ____ _ ____
 72
    65
 73
     4
 40
0.000948
 49
0.000592
 49
-0.000118
 49
0.000118
 49
-0.000118
  0
LTYPE
  2
PHANTOM
 70
    64
  3
_____ _ _ _____ _ _ _____ _ _ _____ _ _ ____
 72
    65
 73
     6
 40
0.001185
 49
0.000592
 49
-0.000118
 49
0.000118
 49
-0.000118
 49
0.000118
 49
-0.000118
  0
LTYPE
  2
DOT
 70
    64
  3
...............................................
 72
    65
 73
     2
 40
0.000118
 49
0.000000
 49
-0.000118
  0
LTYPE
  2
DASHDOT
 70
    64
  3
__ . __ . __ . __ . __ . __ . __ . __ . __ . __
 72
    65
 73
     4
 40
0.000474
 49
0.000237
 49
-0.000118
 49
0.000000
 49
-0.000118
  0
LTYPE
  2
BORDER
 70
    64
  3
__ __ . __ __ . __ __ . __ __ . __ __ . __ __
 72
    65
 73
     6
 40
0.000829
 49
0.000237
 49
-0.000118
 49
0.000237
 49
-0.000118
 49
0.000000
 49
-0.000118
  0
LTYPE
  2
DIVIDE
 70
    64
  3
__ . . __ . . __ . . __ . . __ . . __ . . __
 72
    65
 73
     6
 40
0.000592
 49
0.000237
 49
-0.000118
 49
0.000000
 49
-0.000118
 49
0.000000
 49
-0.000118
  0
LTYPE
  2
DOTDOT
 70
    64
  3
 . .  . .  . .  . .  . .  . . 
 72
    65
 73
     5
 40
0.000261
 49
-0.000118
 49
0.000000
 49
-0.000118
 49
0.000000
 49
-0.000118
  0
ENDTAB
  0
TABLE
  2
STYLE
 70
     2
  0
STYLE
 70
     0
  2
SN0
 40
0.000000
 41
0.000474
 50
0.000000
 71
     0
 42
0.000000
  3
ROMAND
  0
STYLE
 70
    68
  2
SV0
 40
0.000000
 41
0.000474
 50
0.000000
 71
     0
 42
0.000000
  3
ROMAND
  0
ENDTAB
  0
TABLE
  2
LAYER
 70
     3
  0
LAYER
  2
FOREGROUND
 70
    64
 62
     7
  6
CONTINUOUS
  0
LAYER
  2
BACKGROUND
 70
    65
 62
    -7
  6
CONTINUOUS
  0
LAYER
  2
0
 70
    64
 62
     7
  6
CONTINUOUS
  0
ENDTAB
  0
ENDSEC
  0
SECTION
  2
ENTITIES
  0
POLYLINE
  8
FOREGROUND
  6
CONTINUOUS
 66
     1
 40
0.000000
 41
0.000000
  0
VERTEX
  8
FOREGROUND
  6
CONTINUOUS
 10
0.000000
 20
10.294483
  0
VERTEX
  8
FOREGROUND
  6
CONTINUOUS
 10
8.500223
 20
10.294483
  0
VERTEX
  8
FOREGROUND
  6
CONTINUOUS
 10
8.500223
 20
-0.705666
  0
VERTEX
  8
FOREGROUND
  6
CONTINUOUS
 10
0.000000
 20
-0.705666
  0
VERTEX
  8
FOREGROUND
  6
CONTINUOUS
 10
0.000000
 20
10.294483
  0
SEQEND
  8
0
  0
POLYLINE
  8
FOREGROUND
  6
CONTINUOUS
 66
     1
 40
0.000000
 41
0.000000
  0
VERTEX
  8
FOREGROUND
  6
CONTINUOUS
 10
0.000000
 20
10.294483
  0
VERTEX
  8
FOREGROUND
  6
CONTINUOUS
 10
8.500223
 20
10.294483
  0
VERTEX
  8
FOREGROUND
  6
CONTINUOUS
 10
8.500223
 20
-0.705666
  0
VERTEX
  8
FOREGROUND
  6
CONTINUOUS
 10
0.000000
 20
-0.705666
  0
VERTEX
  8
FOREGROUND
  6
CONTINUOUS
 10
0.000000
 20
10.294483
  0
SEQEND
  8
0
  0
POLYLINE
  8
0
  6
CONTINUOUS
 66
     1
 40
0.013744
 41
0.013744
  0
VERTEX
  8
0
  6
CONTINUOUS
 10
0.850686
 20
8.504963
  0
VERTEX
  8
0
  6
CONTINUOUS
 10
1.413229
 20
8.504963
  0
VERTEX
  8
0
  6
CONTINUOUS
 10
1.413229
 20
8.256155
  0
VERTEX
  8
0
  6
CONTINUOUS
 10
1.413229
 20
1.416546
  0
VERTEX
  8
0
  6
CONTINUOUS
 10
1.413229
 20
1.095228
  0
VERTEX
  8
0
  6
CONTINUOUS
 10
1.268683
 20
1.095228
  0
VERTEX
  8
0
  6
CONTINUOUS
 10
1.269157
 20
1.072006
  0
VERTEX
  8
0
  6
CONTINUOUS
 10
1.269157
 20
1.050206
  0
VERTEX
  8
0
  6
CONTINUOUS
 10
1.268209
 20
1.029354
  0
VERTEX
  8
0
  6
CONTINUOUS
 10
1.267261
 20
1.010397
  0
VERTEX
  8
0
  6
CONTINUOUS
 10
1.265839
 20
0.992388
  0
VERTEX
  8
0
  6
CONTINUOUS
 10
1.263470
 20
0.975801
  0
VERTEX
  8
0
  6
CONTINUOUS
 10
1.261100
 20
0.960161
  0
VERTEX
  8
0
  6
CONTINUOUS
 10
1.258257
 20
0.945470
  0
VERTEX
  8
0
  6
CONTINUOUS
 10
1.254939
 20
0.932200
  0
VERTEX
  8
0
  6
CONTINUOUS
 10
1.251148
 20
0.919404
  0
VERTEX
  8
0
  6
CONTINUOUS
 10
1.246883
 20
0.908030
  0
VERTEX
  8
0
  6
CONTINUOUS
 10
1.242617
 20
0.897130
  0
VERTEX
  8
0
  6
CONTINUOUS
 10
1.237878
 20
0.887178
  0
VERTEX
  8
0
  6
CONTINUOUS
 10
1.232665
 20
0.878173
  0
VERTEX
  8
0
  6
CONTINUOUS
 10
1.227452
 20
0.869643
  0
VERTEX
  8
0
  6
CONTINUOUS
 10
1.221765
 20
0.861586
  0
VERTEX
  8
0
  6
CONTINUOUS
 10
1.209917
 20
0.846894
  0
VERTEX
  8
0
  6
CONTINUOUS
 10
1.197121
 20
0.834099
  0
VERTEX
  8
0
  6
CONTINUOUS
 10
1.183377
 20
0.822725
  0
VERTEX
  8
0
  6
CONTINUOUS
 10
1.169634
 20
0.811824
  0
VERTEX
  8
0
  6
CONTINUOUS
 10
1.140725
 20
0.790498
  0
VERTEX
  8
0
  6
CONTINUOUS
 10
1.126033
 20
0.778650
  0
VERTEX
  8
0
  6
CONTINUOUS
 10
1.111816
 20
0.765854
  0
VERTEX
  8
0
  6
CONTINUOUS
 10
1.097598
 20
0.752111
  0
VERTEX
  8
0
  6
CONTINUOUS
 10
1.084328
 20
0.737893
  0
VERTEX
  8
0
  6
CONTINUOUS
 10
1.071532
 20
0.722728
  0
VERTEX
  8
0
  6
CONTINUOUS
 10
1.059684
 20
0.707562
  0
VERTEX
  8
0
  6
CONTINUOUS
 10
1.048310
 20
0.691923
  0
VERTEX
  8
0
  6
CONTINUOUS
 10
1.037884
 20
0.675809
  0
VERTEX
  8
0
  6
CONTINUOUS
 10
1.027932
 20
0.659222
  0
VERTEX
  8
0
  6
CONTINUOUS
 10
1.018927
 20
0.642635
  0
VERTEX
  8
0
  6
CONTINUOUS
 10
1.010871
 20
0.625574
  0
VERTEX
  8
0
  6
CONTINUOUS
 10
1.003762
 20
0.608039
  0
VERTEX
  8
0
  6
CONTINUOUS
 10
0.997601
 20
0.590504
  0
VERTEX
  8
0
  6
CONTINUOUS
 10
0.992862
 20
0.572969
  0
VERTEX
  8
0
  6
CONTINUOUS
 10
0.988596
 20
0.554960
  0
VERTEX
  8
0
  6
CONTINUOUS
 10
0.985753
 20
0.536951
  0
VERTEX
  8
0
  6
CONTINUOUS
 10
0.983857
 20
0.518942
  0
VERTEX
  8
0
  6
CONTINUOUS
 10
0.983383
 20
0.500933
  0
VERTEX
  8
0
  6
CONTINUOUS
 10
0.850686
 20
0.500933
  0
VERTEX
  8
0
  6
CONTINUOUS
 10
0.850686
 20
8.504015
  0
SEQEND
  8
0
  0
POLYLINE
  8
0
  6
CONTINUOUS
 66
     1
 40
0.000000
 41
0.000000
  0
VERTEX
  8
0
  6
CONTINUOUS
 10
11.847518
 20
5.998401
  0
VERTEX
  8
0
  6
CONTINUOUS
 10
8.876516
 20
5.998401
  0
VERTEX
  8
0
  6
CONTINUOUS
 10
8.876516
 20
7.337698
  0
VERTEX
  8
0
  6
CONTINUOUS
 10
9.318209
 20
7.337698
  0
VERTEX
  8
0
  6
CONTINUOUS
 10
9.335744
 20
7.256658
  0
VERTEX
  8
0
  6
CONTINUOUS
 10
9.346644
 20
7.218271
  0
VERTEX
  8
0
  6
CONTINUOUS
 10
9.373657
 20
7.144339
  0
VERTEX
  8
0
  6
CONTINUOUS
 10
9.406832
 20
7.075147
  0
VERTEX
  8
0
  6
CONTINUOUS
 10
9.445693
 20
7.010220
  0
VERTEX
  8
0
  6
CONTINUOUS
 10
9.489768
 20
6.949558
  0
VERTEX
  8
0
  6
CONTINUOUS
 10
9.539055
 20
6.893162
  0
VERTEX
  8
0
  6
CONTINUOUS
 10
9.592608
 20
6.840557
  0
VERTEX
  8
0
  6
CONTINUOUS
 10
9.650427
 20
6.791743
  0
VERTEX
  8
0
  6
CONTINUOUS
 10
9.712510
 20
6.746721
  0
VERTEX
  8
0
  6
CONTINUOUS
 10
9.777911
 20
6.705016
  0
VERTEX
  8
0
  6
CONTINUOUS
 10
9.846155
 20
6.667102
  0
VERTEX
  8
0
  6
CONTINUOUS
 10
9.917717
 20
6.632032
  0
VERTEX
  8
0
  6
CONTINUOUS
 10
9.991649
 20
6.600279
  0
VERTEX
  8
0
  6
CONTINUOUS
 10
10.106337
 20
6.558101
  0
VERTEX
  8
0
  6
CONTINUOUS
 10
10.224817
 20
6.522083
  0
VERTEX
  8
0
  6
CONTINUOUS
 10
10.264626
 20
6.511183
  0
VERTEX
  8
0
  6
CONTINUOUS
 10
10.345667
 20
6.491752
  0
VERTEX
  8
0
  6
CONTINUOUS
 10
10.426707
 20
6.474691
  0
VERTEX
  8
0
  6
CONTINUOUS
 10
10.508221
 20
6.459525
  0
VERTEX
  8
0
  6
CONTINUOUS
 10
10.589735
 20
6.446729
  0
VERTEX
  8
0
  6
CONTINUOUS
 10
10.750394
 20
6.426351
  0
VERTEX
  8
0
  6
CONTINUOUS
 10
10.905840
 20
6.412607
  0
VERTEX
  8
0
  6
CONTINUOUS
 10
11.054177
 20
6.404077
  0
VERTEX
  8
0
  6
CONTINUOUS
 10
11.223840
 20
6.399811
  0
VERTEX
  8
0
  6
CONTINUOUS
 10
11.371703
 20
6.399811
  0
VERTEX
  8
0
  6
CONTINUOUS
 10
11.407721
 20
6.321615
  0
VERTEX
  8
0
  6
CONTINUOUS
 10
11.474543
 20
6.313084
  0
VERTEX
  8
0
  6
CONTINUOUS
 10
11.534731
 20
6.300288
  0
VERTEX
  8
0
  6
CONTINUOUS
 10
11.588284
 20
6.283227
  0
VERTEX
  8
0
  6
CONTINUOUS
 10
11.635202
 20
6.262849
  0
VERTEX
  8
0
  6
CONTINUOUS
 10
11.676907
 20
6.240574
  0
VERTEX
  8
0
  6
CONTINUOUS
 10
11.728564
 20
6.203135
  0
VERTEX
  8
0
  6
CONTINUOUS
 10
11.769321
 20
6.164273
  0
VERTEX
  8
0
  6
CONTINUOUS
 10
11.799652
 20
6.125886
  0
VERTEX
  8
0
  6
CONTINUOUS
 10
11.827614
 20
6.079442
  0
VERTEX
  8
0
  6
CONTINUOUS
 10
11.842305
 20
6.042950
  0
VERTEX
  8
0
  6
CONTINUOUS
 10
11.847992
 20
6.021150
  0
VERTEX
  8
0
  6
CONTINUOUS
 10
11.847518
 20
5.998401
  0
SEQEND
  8
0
  0
POLYLINE
  8
0
  6
CONTINUOUS
 66
     1
 40
0.000000
 41
0.000000
  0
VERTEX
  8
0
  6
CONTINUOUS
 10
11.273128
 20
2.791387
  0
VERTEX
  8
0
  6
CONTINUOUS
 10
11.144695
 20
2.791387
  0
VERTEX
  8
0
  6
CONTINUOUS
 10
11.144695
 20
2.807500
  0
VERTEX
  8
0
  6
CONTINUOUS
 10
11.140430
 20
2.836409
  0
VERTEX
  8
0
  6
CONTINUOUS
 10
11.131899
 20
2.862475
  0
VERTEX
  8
0
  6
CONTINUOUS
 10
11.119104
 20
2.884749
  0
VERTEX
  8
0
  6
CONTINUOUS
 10
11.103464
 20
2.903706
  0
VERTEX
  8
0
  6
CONTINUOUS
 10
11.084508
 20
2.919345
  0
VERTEX
  8
0
  6
CONTINUOUS
 10
11.064129
 20
2.930719
  0
VERTEX
  8
0
  6
CONTINUOUS
 10
11.041381
 20
2.938776
  0
VERTEX
  8
0
  6
CONTINUOUS
 10
11.018159
 20
2.943041
  0
VERTEX
  8
0
  6
CONTINUOUS
 10
10.994463
 20
2.943515
  0
VERTEX
  8
0
  6
CONTINUOUS
 10
10.970767
 20
2.940672
  0
VERTEX
  8
0
  6
CONTINUOUS
 10
10.936645
 20
2.928350
  0
VERTEX
  8
0
  6
CONTINUOUS
 10
10.915318
 20
2.915080
  0
VERTEX
  8
0
  6
CONTINUOUS
 10
10.888305
 20
2.888067
  0
VERTEX
  8
0
  6
CONTINUOUS
 10
10.874087
 20
2.865318
  0
VERTEX
  8
0
  6
CONTINUOUS
 10
10.867926
 20
2.852049
  0
VERTEX
  8
0
  6
CONTINUOUS
 10
10.786412
 20
2.947307
  0
VERTEX
  8
0
  6
CONTINUOUS
 10
10.726698
 20
2.974320
  0
VERTEX
  8
0
  6
CONTINUOUS
 10
10.626227
 20
3.008442
  0
VERTEX
  8
0
  6
CONTINUOUS
 10
10.479786
 20
3.055834
  0
VERTEX
  8
0
  6
CONTINUOUS
 10
10.389267
 20
3.090430
  0
VERTEX
  8
0
  6
CONTINUOUS
 10
10.330501
 20
3.117918
  0
VERTEX
  8
0
  6
CONTINUOUS
 10
10.301592
 20
3.133083
  0
VERTEX
  8
0
  6
CONTINUOUS
 10
10.247091
 20
3.167205
  0
VERTEX
  8
0
  6
CONTINUOUS
 10
10.221500
 20
3.185688
  0
VERTEX
  8
0
  6
CONTINUOUS
 10
10.197330
 20
3.205593
  0
VERTEX
  8
0
  6
CONTINUOUS
 10
10.153255
 20
3.250141
  0
VERTEX
  8
0
  6
CONTINUOUS
 10
10.133825
 20
3.274785
  0
VERTEX
  8
0
  6
CONTINUOUS
 10
10.108707
 20
3.315068
  0
VERTEX
  8
0
  6
CONTINUOUS
 10
10.087854
 20
3.359143
  0
VERTEX
  8
0
  6
CONTINUOUS
 10
10.073163
 20
3.407483
  0
VERTEX
  8
0
  6
CONTINUOUS
 10
10.066528
 20
3.442553
  0
VERTEX
  8
0
  6
CONTINUOUS
 10
10.062737
 20
3.479518
  0
VERTEX
  8
0
  6
CONTINUOUS
 10
10.060841
 20
3.509375
  0
VERTEX
  8
0
  6
CONTINUOUS
 10
10.058945
 20
3.518854
  0
VERTEX
  8
0
  6
CONTINUOUS
 10
10.050415
 20
3.534967
  0
VERTEX
  8
0
  6
CONTINUOUS
 10
10.037145
 20
3.547289
  0
VERTEX
  8
0
  6
CONTINUOUS
 10
10.021506
 20
3.556767
  0
VERTEX
  8
0
  6
CONTINUOUS
 10
10.003023
 20
3.563402
  0
VERTEX
  8
0
  6
CONTINUOUS
 10
9.984066
 20
3.568141
  0
VERTEX
  8
0
  6
CONTINUOUS
 10
9.948048
 20
3.571459
  0
VERTEX
  8
0
  6
CONTINUOUS
 10
9.573178
 20
3.569563
  0
VERTEX
  8
0
  6
CONTINUOUS
 10
9.542847
 20
3.565298
  0
VERTEX
  8
0
  6
CONTINUOUS
 10
9.513938
 20
3.559137
  0
VERTEX
  8
0
  6
CONTINUOUS
 10
9.473181
 20
3.545393
  0
VERTEX
  8
0
  6
CONTINUOUS
 10
9.448063
 20
3.533071
  0
VERTEX
  8
0
  6
CONTINUOUS
 10
9.413467
 20
3.508901
  0
VERTEX
  8
0
  6
CONTINUOUS
 10
9.382662
 20
3.478097
  0
VERTEX
  8
0
  6
CONTINUOUS
 10
9.364179
 20
3.452979
  0
VERTEX
  8
0
  6
CONTINUOUS
 10
9.340009
 20
3.408904
  0
VERTEX
  8
0
  6
CONTINUOUS
 10
9.320105
 20
3.355351
  0
VERTEX
  8
0
  6
CONTINUOUS
 10
9.304465
 20
3.291372
  0
VERTEX
  8
0
  6
CONTINUOUS
 10
9.296882
 20
3.243506
  0
VERTEX
  8
0
  6
CONTINUOUS
 10
9.288826
 20
3.161518
  0
VERTEX
  8
0
  6
CONTINUOUS
 10
9.287404
 20
3.131661
  0
VERTEX
  8
0
  6
CONTINUOUS
 10
9.189303
 20
3.105122
  0
VERTEX
  8
0
  6
CONTINUOUS
 10
9.162289
 20
2.676224
  0
VERTEX
  8
0
  6
CONTINUOUS
 10
11.275023
 20
2.676224
  0
VERTEX
  8
0
  6
CONTINUOUS
 10
11.275023
 20
2.791387
  0
VERTEX
  8
0
  6
CONTINUOUS
 10
11.273128
 20
2.791387
  0
SEQEND
  8
0
  0
POLYLINE
  8
0
  6
CONTINUOUS
 66
     1
 40
0.000000
 41
0.000000
  0
VERTEX
  8
0
  6
CONTINUOUS
 10
9.401145
 20
9.876486
  0
VERTEX
  8
0
  6
CONTINUOUS
 10
9.401145
 20
8.817750
  0
VERTEX
  8
0
  6
CONTINUOUS
 10
11.287345
 20
8.817750
  0
VERTEX
  8
0
  6
CONTINUOUS
 10
11.536627
 20
8.817750
  0
VERTEX
  8
0
  6
CONTINUOUS
 10
11.536627
 20
9.016796
  0
VERTEX
  8
0
  6
CONTINUOUS
 10
11.565062
 20
9.028644
  0
VERTEX
  8
0
  6
CONTINUOUS
 10
11.591128
 20
9.041914
  0
VERTEX
  8
0
  6
CONTINUOUS
 10
11.616245
 20
9.056605
  0
VERTEX
  8
0
  6
CONTINUOUS
 10
11.638994
 20
9.072718
  0
VERTEX
  8
0
  6
CONTINUOUS
 10
11.659846
 20
9.090727
  0
VERTEX
  8
0
  6
CONTINUOUS
 10
11.679277
 20
9.109684
  0
VERTEX
  8
0
  6
CONTINUOUS
 10
11.696812
 20
9.129589
  0
VERTEX
  8
0
  6
CONTINUOUS
 10
11.712451
 20
9.150441
  0
VERTEX
  8
0
  6
CONTINUOUS
 10
11.726195
 20
9.172716
  0
VERTEX
  8
0
  6
CONTINUOUS
 10
11.738043
 20
9.195464
  0
VERTEX
  8
0
  6
CONTINUOUS
 10
11.748469
 20
9.218686
  0
VERTEX
  8
0
  6
CONTINUOUS
 10
11.757000
 20
9.242856
  0
VERTEX
  8
0
  6
CONTINUOUS
 10
11.763634
 20
9.267026
  0
VERTEX
  8
0
  6
CONTINUOUS
 10
11.768374
 20
9.292143
  0
VERTEX
  8
0
  6
CONTINUOUS
 10
11.771217
 20
9.317261
  0
VERTEX
  8
0
  6
CONTINUOUS
 10
11.772165
 20
9.342379
  0
VERTEX
  8
0
  6
CONTINUOUS
 10
11.771217
 20
9.367496
  0
VERTEX
  8
0
  6
CONTINUOUS
 10
11.768848
 20
9.392614
  0
VERTEX
  8
0
  6
CONTINUOUS
 10
11.764108
 20
9.417258
  0
VERTEX
  8
0
  6
CONTINUOUS
 10
11.757947
 20
9.441902
  0
VERTEX
  8
0
  6
CONTINUOUS
 10
11.749891
 20
9.466072
  0
VERTEX
  8
0
  6
CONTINUOUS
 10
11.739938
 20
9.489768
  0
VERTEX
  8
0
  6
CONTINUOUS
 10
11.727617
 20
9.512516
  0
VERTEX
  8
0
  6
CONTINUOUS
 10
11.713873
 20
9.534790
  0
VERTEX
  8
0
  6
CONTINUOUS
 10
11.698707
 20
9.556117
  0
VERTEX
  8
0
  6
CONTINUOUS
 10
11.681172
 20
9.576495
  0
VERTEX
  8
0
  6
CONTINUOUS
 10
11.661742
 20
9.595926
  0
VERTEX
  8
0
  6
CONTINUOUS
 10
11.640415
 20
9.613935
  0
VERTEX
  8
0
  6
CONTINUOUS
 10
11.617193
 20
9.630996
  0
VERTEX
  8
0
  6
CONTINUOUS
 10
11.592075
 20
9.646161
  0
VERTEX
  8
0
  6
CONTINUOUS
 10
11.565536
 20
9.659905
  0
VERTEX
  8
0
  6
CONTINUOUS
 10
11.536627
 20
9.672227
  0
VERTEX
  8
0
  6
CONTINUOUS
 10
11.536627
 20
9.876486
  0
VERTEX
  8
0
  6
CONTINUOUS
 10
11.287345
 20
9.876486
  0
VERTEX
  8
0
  6
CONTINUOUS
 10
9.401145
 20
9.876486
  0
SEQEND
  8
0
  0
SOLID
  8
0
 62
    15
 10
2.685229
 20
8.530554
 11
3.365778
 21
8.530554
 12
2.685229
 22
1.121294
 13
3.365778
 23
1.121294
  0
POLYLINE
  8
0
  6
CONTINUOUS
 66
     1
 40
0.000000
 41
0.000000
  0
VERTEX
  8
0
  6
CONTINUOUS
 10
2.685229
 20
8.530554
  0
VERTEX
  8
0
  6
CONTINUOUS
 10
3.365778
 20
8.530554
  0
VERTEX
  8
0
  6
CONTINUOUS
 10
3.365778
 20
1.121294
  0
VERTEX
  8
0
  6
CONTINUOUS
 10
2.685229
 20
1.121294
  0
VERTEX
  8
0
  6
CONTINUOUS
 10
2.685229
 20
8.530554
  0
SEQEND
  8
0
  0
SOLID
  8
0
 62
    15
 10
2.540683
 20
1.121294
 11
3.221232
 21
1.121294
 12
2.539262
 22
1.035988
 13
3.219810
 23
1.035988
  0
POLYLINE
  8
0
  6
CONTINUOUS
 66
     1
 40
0.000000
 41
0.000000
  0
VERTEX
  8
0
  6
CONTINUOUS
 10
2.540683
 20
1.121294
  0
VERTEX
  8
0
  6
CONTINUOUS
 10
3.221232
 20
1.121294
  0
VERTEX
  8
0
  6
CONTINUOUS
 10
3.219810
 20
1.035988
  0
VERTEX
  8
0
  6
CONTINUOUS
 10
2.539262
 20
1.035988
  0
VERTEX
  8
0
  6
CONTINUOUS
 10
2.540683
 20
1.121294
  0
SEQEND
  8
0
  0
SOLID
  8
0
 62
    15
 10
2.539262
 20
1.035988
 11
3.219810
 21
1.035988
 12
2.530257
 22
0.971535
 13
3.210806
 23
0.971535
  0
POLYLINE
  8
0
  6
CONTINUOUS
 66
     1
 40
0.000000
 41
0.000000
  0
VERTEX
  8
0
  6
CONTINUOUS
 10
2.539262
 20
1.035988
  0
VERTEX
  8
0
  6
CONTINUOUS
 10
3.219810
 20
1.035988
  0
VERTEX
  8
0
  6
CONTINUOUS
 10
3.210806
 20
0.971535
  0
VERTEX
  8
0
  6
CONTINUOUS
 10
2.530257
 20
0.971535
  0
VERTEX
  8
0
  6
CONTINUOUS
 10
2.539262
 20
1.035988
  0
SEQEND
  8
0
  0
SOLID
  8
0
 62
    15
 10
2.530257
 20
0.971535
 11
3.210806
 21
0.971535
 12
2.514618
 22
0.923196
 13
3.195167
 23
0.923196
  0
POLYLINE
  8
0
  6
CONTINUOUS
 66
     1
 40
0.000000
 41
0.000000
  0
VERTEX
  8
0
  6
CONTINUOUS
 10
2.530257
 20
0.971535
  0
VERTEX
  8
0
  6
CONTINUOUS
 10
3.210806
 20
0.971535
  0
VERTEX
  8
0
  6
CONTINUOUS
 10
3.195167
 20
0.923196
  0
VERTEX
  8
0
  6
CONTINUOUS
 10
2.514618
 20
0.923196
  0
VERTEX
  8
0
  6
CONTINUOUS
 10
2.530257
 20
0.971535
  0
SEQEND
  8
0
  0
SOLID
  8
0
 62
    15
 10
2.514618
 20
0.923196
 11
3.195167
 21
0.923196
 12
2.493765
 22
0.887178
 13
3.174314
 23
0.887178
  0
POLYLINE
  8
0
  6
CONTINUOUS
 66
     1
 40
0.000000
 41
0.000000
  0
VERTEX
  8
0
  6
CONTINUOUS
 10
2.514618
 20
0.923196
  0
VERTEX
  8
0
  6
CONTINUOUS
 10
3.195167
 20
0.923196
  0
VERTEX
  8
0
  6
CONTINUOUS
 10
3.174314
 20
0.887178
  0
VERTEX
  8
0
  6
CONTINUOUS
 10
2.493765
 20
0.887178
  0
VERTEX
  8
0
  6
CONTINUOUS
 10
2.514618
 20
0.923196
  0
SEQEND
  8
0
  0
SOLID
  8
0
 62
    15
 10
2.493765
 20
0.887178
 11
3.174314
 21
0.887178
 12
2.384290
 22
0.791920
 13
3.064365
 23
0.791920
  0
POLYLINE
  8
0
  6
CONTINUOUS
 66
     1
 40
0.000000
 41
0.000000
  0
VERTEX
  8
0
  6
CONTINUOUS
 10
2.493765
 20
0.887178
  0
VERTEX
  8
0
  6
CONTINUOUS
 10
3.174314
 20
0.887178
  0
VERTEX
  8
0
  6
CONTINUOUS
 10
3.064365
 20
0.791920
  0
VERTEX
  8
0
  6
CONTINUOUS
 10
2.384290
 20
0.791920
  0
VERTEX
  8
0
  6
CONTINUOUS
 10
2.493765
 20
0.887178
  0
SEQEND
  8
0
  0
SOLID
  8
0
 62
    15
 10
2.384290
 20
0.791920
 11
3.064365
 21
0.791920
 12
2.331685
 22
0.733628
 13
3.012234
 23
0.733628
  0
POLYLINE
  8
0
  6
CONTINUOUS
 66
     1
 40
0.000000
 41
0.000000
  0
VERTEX
  8
0
  6
CONTINUOUS
 10
2.384290
 20
0.791920
  0
VERTEX
  8
0
  6
CONTINUOUS
 10
3.064365
 20
0.791920
  0
VERTEX
  8
0
  6
CONTINUOUS
 10
3.012234
 20
0.733628
  0
VERTEX
  8
0
  6
CONTINUOUS
 10
2.331685
 20
0.733628
  0
VERTEX
  8
0
  6
CONTINUOUS
 10
2.384290
 20
0.791920
  0
SEQEND
  8
0
  0
SOLID
  8
0
 62
    15
 10
2.331685
 20
0.733628
 11
3.012234
 21
0.733628
 12
2.291402
 22
0.668227
 13
2.971476
 23
0.668227
  0
POLYLINE
  8
0
  6
CONTINUOUS
 66
     1
 40
0.000000
 41
0.000000
  0
VERTEX
  8
0
  6
CONTINUOUS
 10
2.331685
 20
0.733628
  0
VERTEX
  8
0
  6
CONTINUOUS
 10
3.012234
 20
0.733628
  0
VERTEX
  8
0
  6
CONTINUOUS
 10
2.971476
 20
0.668227
  0
VERTEX
  8
0
  6
CONTINUOUS
 10
2.291402
 20
0.668227
  0
VERTEX
  8
0
  6
CONTINUOUS
 10
2.331685
 20
0.733628
  0
SEQEND
  8
0
  0
SOLID
  8
0
 62
    15
 10
2.291402
 20
0.668227
 11
2.971476
 21
0.668227
 12
2.264862
 22
0.598561
 13
2.945411
 23
0.598561
  0
POLYLINE
  8
0
  6
CONTINUOUS
 66
     1
 40
0.000000
 41
0.000000
  0
VERTEX
  8
0
  6
CONTINUOUS
 10
2.291402
 20
0.668227
  0
VERTEX
  8
0
  6
CONTINUOUS
 10
2.971476
 20
0.668227
  0
VERTEX
  8
0
  6
CONTINUOUS
 10
2.945411
 20
0.598561
  0
VERTEX
  8
0
  6
CONTINUOUS
 10
2.264862
 20
0.598561
  0
VERTEX
  8
0
  6
CONTINUOUS
 10
2.291402
 20
0.668227
  0
SEQEND
  8
0
  0
SOLID
  8
0
 62
    15
 10
2.264862
 20
0.598561
 11
2.945411
 21
0.598561
 12
2.255384
 22
0.526999
 13
2.935932
 23
0.526999
  0
POLYLINE
  8
0
  6
CONTINUOUS
 66
     1
 40
0.000000
 41
0.000000
  0
VERTEX
  8
0
  6
CONTINUOUS
 10
2.264862
 20
0.598561
  0
VERTEX
  8
0
  6
CONTINUOUS
 10
2.945411
 20
0.598561
  0
VERTEX
  8
0
  6
CONTINUOUS
 10
2.935932
 20
0.526999
  0
VERTEX
  8
0
  6
CONTINUOUS
 10
2.255384
 20
0.526999
  0
VERTEX
  8
0
  6
CONTINUOUS
 10
2.264862
 20
0.598561
  0
SEQEND
  8
0
  0
SOLID
  8
0
 62
    15
 10
2.685229
 20
4.492759
 11
3.365778
 21
4.492759
 12
3.114126
 22
4.465745
 13
3.794675
 23
4.465745
  0
POLYLINE
  8
0
  6
CONTINUOUS
 66
     1
 40
0.000000
 41
0.000000
  0
VERTEX
  8
0
  6
CONTINUOUS
 10
2.685229
 20
4.492759
  0
VERTEX
  8
0
  6
CONTINUOUS
 10
3.365778
 20
4.492759
  0
VERTEX
  8
0
  6
CONTINUOUS
 10
3.794675
 20
4.465745
  0
VERTEX
  8
0
  6
CONTINUOUS
 10
3.114126
 20
4.465745
  0
VERTEX
  8
0
  6
CONTINUOUS
 10
2.685229
 20
4.492759
  0
SEQEND
  8
0
  0
SOLID
  8
0
 62
    15
 10
3.114126
 20
4.465745
 11
3.794675
 21
4.465745
 12
3.141140
 22
4.367644
 13
3.821214
 23
4.367644
  0
POLYLINE
  8
0
  6
CONTINUOUS
 66
     1
 40
0.000000
 41
0.000000
  0
VERTEX
  8
0
  6
CONTINUOUS
 10
3.114126
 20
4.465745
  0
VERTEX
  8
0
  6
CONTINUOUS
 10
3.794675
 20
4.465745
  0
VERTEX
  8
0
  6
CONTINUOUS
 10
3.821214
 20
4.367644
  0
VERTEX
  8
0
  6
CONTINUOUS
 10
3.141140
 20
4.367644
  0
VERTEX
  8
0
  6
CONTINUOUS
 10
3.114126
 20
4.465745
  0
SEQEND
  8
0
  0
SOLID
  8
0
 62
    15
 10
3.141140
 20
4.367644
 11
3.821214
 21
4.367644
 12
3.252511
 22
4.358165
 13
3.933059
 23
4.358165
  0
POLYLINE
  8
0
  6
CONTINUOUS
 66
     1
 40
0.000000
 41
0.000000
  0
VERTEX
  8
0
  6
CONTINUOUS
 10
3.141140
 20
4.367644
  0
VERTEX
  8
0
  6
CONTINUOUS
 10
3.821214
 20
4.367644
  0
VERTEX
  8
0
  6
CONTINUOUS
 10
3.933059
 20
4.358165
  0
VERTEX
  8
0
  6
CONTINUOUS
 10
3.252511
 20
4.358165
  0
VERTEX
  8
0
  6
CONTINUOUS
 10
3.141140
 20
4.367644
  0
SEQEND
  8
0
  0
SOLID
  8
0
 62
    15
 10
3.252511
 20
4.358165
 11
3.933059
 21
4.358165
 12
3.344451
 22
4.340630
 13
4.025000
 23
4.340630
  0
POLYLINE
  8
0
  6
CONTINUOUS
 66
     1
 40
0.000000
 41
0.000000
  0
VERTEX
  8
0
  6
CONTINUOUS
 10
3.252511
 20
4.358165
  0
VERTEX
  8
0
  6
CONTINUOUS
 10
3.933059
 20
4.358165
  0
VERTEX
  8
0
  6
CONTINUOUS
 10
4.025000
 20
4.340630
  0
VERTEX
  8
0
  6
CONTINUOUS
 10
3.344451
 20
4.340630
  0
VERTEX
  8
0
  6
CONTINUOUS
 10
3.252511
 20
4.358165
  0
SEQEND
  8
0
  0
SOLID
  8
0
 62
    15
 10
3.344451
 20
4.340630
 11
4.025000
 21
4.340630
 12
3.417909
 22
4.314565
 13
4.098457
 23
4.314565
  0
POLYLINE
  8
0
  6
CONTINUOUS
 66
     1
 40
0.000000
 41
0.000000
  0
VERTEX
  8
0
  6
CONTINUOUS
 10
3.344451
 20
4.340630
  0
VERTEX
  8
0
  6
CONTINUOUS
 10
4.025000
 20
4.340630
  0
VERTEX
  8
0
  6
CONTINUOUS
 10
4.098457
 20
4.314565
  0
VERTEX
  8
0
  6
CONTINUOUS
 10
3.417909
 20
4.314565
  0
VERTEX
  8
0
  6
CONTINUOUS
 10
3.344451
 20
4.340630
  0
SEQEND
  8
0
  0
SOLID
  8
0
 62
    15
 10
3.417909
 20
4.314565
 11
4.098457
 21
4.314565
 12
3.475253
 22
4.281390
 13
4.155802
 23
4.281390
  0
POLYLINE
  8
0
  6
CONTINUOUS
 66
     1
 40
0.000000
 41
0.000000
  0
VERTEX
  8
0
  6
CONTINUOUS
 10
3.417909
 20
4.314565
  0
VERTEX
  8
0
  6
CONTINUOUS
 10
4.098457
 20
4.314565
  0
VERTEX
  8
0
  6
CONTINUOUS
 10
4.155802
 20
4.281390
  0
VERTEX
  8
0
  6
CONTINUOUS
 10
3.475253
 20
4.281390
  0
VERTEX
  8
0
  6
CONTINUOUS
 10
3.417909
 20
4.314565
  0
SEQEND
  8
0
  0
SOLID
  8
0
 62
    15
 10
3.475253
 20
4.281390
 11
4.155802
 21
4.281390
 12
3.518380
 22
4.241107
 13
4.198928
 23
4.241107
  0
POLYLINE
  8
0
  6
CONTINUOUS
 66
     1
 40
0.000000
 41
0.000000
  0
VERTEX
  8
0
  6
CONTINUOUS
 10
3.475253
 20
4.281390
  0
VERTEX
  8
0
  6
CONTINUOUS
 10
4.155802
 20
4.281390
  0
VERTEX
  8
0
  6
CONTINUOUS
 10
4.198928
 20
4.241107
  0
VERTEX
  8
0
  6
CONTINUOUS
 10
3.518380
 20
4.241107
  0
VERTEX
  8
0
  6
CONTINUOUS
 10
3.475253
 20
4.281390
  0
SEQEND
  8
0
  0
SOLID
  8
0
 62
    15
 10
3.518380
 20
4.241107
 11
4.198928
 21
4.241107
 12
3.548711
 22
4.194189
 13
4.229259
 23
4.194189
  0
POLYLINE
  8
0
  6
CONTINUOUS
 66
     1
 40
0.000000
 41
0.000000
  0
VERTEX
  8
0
  6
CONTINUOUS
 10
3.518380
 20
4.241107
  0
VERTEX
  8
0
  6
CONTINUOUS
 10
4.198928
 20
4.241107
  0
VERTEX
  8
0
  6
CONTINUOUS
 10
4.229259
 20
4.194189
  0
VERTEX
  8
0
  6
CONTINUOUS
 10
3.548711
 20
4.194189
  0
VERTEX
  8
0
  6
CONTINUOUS
 10
3.518380
 20
4.241107
  0
SEQEND
  8
0
  0
SOLID
  8
0
 62
    15
 10
3.548711
 20
4.194189
 11
4.229259
 21
4.194189
 12
3.578568
 22
4.081396
 13
4.259116
 23
4.081396
  0
POLYLINE
  8
0
  6
CONTINUOUS
 66
     1
 40
0.000000
 41
0.000000
  0
VERTEX
  8
0
  6
CONTINUOUS
 10
3.548711
 20
4.194189
  0
VERTEX
  8
0
  6
CONTINUOUS
 10
4.229259
 20
4.194189
  0
VERTEX
  8
0
  6
CONTINUOUS
 10
4.259116
 20
4.081396
  0
VERTEX
  8
0
  6
CONTINUOUS
 10
3.578568
 20
4.081396
  0
VERTEX
  8
0
  6
CONTINUOUS
 10
3.548711
 20
4.194189
  0
SEQEND
  8
0
  0
SOLID
  8
0
 62
    15
 10
3.578568
 20
4.081396
 11
4.259116
 21
4.081396
 12
3.580463
 22
3.707000
 13
4.261012
 23
3.707000
  0
POLYLINE
  8
0
  6
CONTINUOUS
 66
     1
 40
0.000000
 41
0.000000
  0
VERTEX
  8
0
  6
CONTINUOUS
 10
3.578568
 20
4.081396
  0
VERTEX
  8
0
  6
CONTINUOUS
 10
4.259116
 20
4.081396
  0
VERTEX
  8
0
  6
CONTINUOUS
 10
4.261012
 20
3.707000
  0
VERTEX
  8
0
  6
CONTINUOUS
 10
3.580463
 20
3.707000
  0
VERTEX
  8
0
  6
CONTINUOUS
 10
3.578568
 20
4.081396
  0
SEQEND
  8
0
  0
SOLID
  8
0
 62
    15
 10
3.580463
 20
3.707000
 11
4.261012
 21
3.707000
 12
3.565772
 22
3.633542
 13
4.246320
 23
3.633542
  0
POLYLINE
  8
0
  6
CONTINUOUS
 66
     1
 40
0.000000
 41
0.000000
  0
VERTEX
  8
0
  6
CONTINUOUS
 10
3.580463
 20
3.707000
  0
VERTEX
  8
0
  6
CONTINUOUS
 10
4.261012
 20
3.707000
  0
VERTEX
  8
0
  6
CONTINUOUS
 10
4.246320
 20
3.633542
  0
VERTEX
  8
0
  6
CONTINUOUS
 10
3.565772
 20
3.633542
  0
VERTEX
  8
0
  6
CONTINUOUS
 10
3.580463
 20
3.707000
  0
SEQEND
  8
0
  0
SOLID
  8
0
 62
    15
 10
3.565772
 20
3.633542
 11
4.246320
 21
3.633542
 12
3.543971
 22
3.604633
 13
4.224520
 23
3.604633
  0
POLYLINE
  8
0
  6
CONTINUOUS
 66
     1
 40
0.000000
 41
0.000000
  0
VERTEX
  8
0
  6
CONTINUOUS
 10
3.565772
 20
3.633542
  0
VERTEX
  8
0
  6
CONTINUOUS
 10
4.246320
 20
3.633542
  0
VERTEX
  8
0
  6
CONTINUOUS
 10
4.224520
 20
3.604633
  0
VERTEX
  8
0
  6
CONTINUOUS
 10
3.543971
 20
3.604633
  0
VERTEX
  8
0
  6
CONTINUOUS
 10
3.565772
 20
3.633542
  0
SEQEND
  8
0
  0
SOLID
  8
0
 62
    15
 10
3.543971
 20
3.604633
 11
4.224520
 21
3.604633
 12
3.508427
 22
3.592785
 13
4.188502
 23
3.592785
  0
POLYLINE
  8
0
  6
CONTINUOUS
 66
     1
 40
0.000000
 41
0.000000
  0
VERTEX
  8
0
  6
CONTINUOUS
 10
3.543971
 20
3.604633
  0
VERTEX
  8
0
  6
CONTINUOUS
 10
4.224520
 20
3.604633
  0
VERTEX
  8
0
  6
CONTINUOUS
 10
4.188502
 20
3.592785
  0
VERTEX
  8
0
  6
CONTINUOUS
 10
3.508427
 20
3.592785
  0
VERTEX
  8
0
  6
CONTINUOUS
 10
3.543971
 20
3.604633
  0
SEQEND
  8
0
  0
SOLID
  8
0
 62
    15
 10
3.508427
 20
3.592785
 11
4.188502
 21
3.592785
 12
3.434022
 22
3.585676
 13
4.114571
 23
3.585676
  0
POLYLINE
  8
0
  6
CONTINUOUS
 66
     1
 40
0.000000
 41
0.000000
  0
VERTEX
  8
0
  6
CONTINUOUS
 10
3.508427
 20
3.592785
  0
VERTEX
  8
0
  6
CONTINUOUS
 10
4.188502
 20
3.592785
  0
VERTEX
  8
0
  6
CONTINUOUS
 10
4.114571
 20
3.585676
  0
VERTEX
  8
0
  6
CONTINUOUS
 10
3.434022
 20
3.585676
  0
VERTEX
  8
0
  6
CONTINUOUS
 10
3.508427
 20
3.592785
  0
SEQEND
  8
0
  0
SOLID
  8
0
 62
    15
 10
3.434022
 20
3.585676
 11
4.114571
 21
3.585676
 12
3.368621
 22
3.566720
 13
4.048696
 23
3.566720
  0
POLYLINE
  8
0
  6
CONTINUOUS
 66
     1
 40
0.000000
 41
0.000000
  0
VERTEX
  8
0
  6
CONTINUOUS
 10
3.434022
 20
3.585676
  0
VERTEX
  8
0
  6
CONTINUOUS
 10
4.114571
 20
3.585676
  0
VERTEX
  8
0
  6
CONTINUOUS
 10
4.048696
 20
3.566720
  0
VERTEX
  8
0
  6
CONTINUOUS
 10
3.368621
 20
3.566720
  0
VERTEX
  8
0
  6
CONTINUOUS
 10
3.434022
 20
3.585676
  0
SEQEND
  8
0
  0
SOLID
  8
0
 62
    15
 10
3.368621
 20
3.566720
 11
4.048696
 21
3.566720
 12
3.259620
 22
3.501793
 13
3.939694
 23
3.501793
  0
POLYLINE
  8
0
  6
CONTINUOUS
 66
     1
 40
0.000000
 41
0.000000
  0
VERTEX
  8
0
  6
CONTINUOUS
 10
3.368621
 20
3.566720
  0
VERTEX
  8
0
  6
CONTINUOUS
 10
4.048696
 20
3.566720
  0
VERTEX
  8
0
  6
CONTINUOUS
 10
3.939694
 20
3.501793
  0
VERTEX
  8
0
  6
CONTINUOUS
 10
3.259620
 20
3.501793
  0
VERTEX
  8
0
  6
CONTINUOUS
 10
3.368621
 20
3.566720
  0
SEQEND
  8
0
  0
SOLID
  8
0
 62
    15
 10
3.259620
 20
3.501793
 11
3.939694
 21
3.501793
 12
3.176210
 22
3.407483
 13
3.856284
 23
3.407483
  0
POLYLINE
  8
0
  6
CONTINUOUS
 66
     1
 40
0.000000
 41
0.000000
  0
VERTEX
  8
0
  6
CONTINUOUS
 10
3.259620
 20
3.501793
  0
VERTEX
  8
0
  6
CONTINUOUS
 10
3.939694
 20
3.501793
  0
VERTEX
  8
0
  6
CONTINUOUS
 10
3.856284
 20
3.407483
  0
VERTEX
  8
0
  6
CONTINUOUS
 10
3.176210
 20
3.407483
  0
VERTEX
  8
0
  6
CONTINUOUS
 10
3.259620
 20
3.501793
  0
SEQEND
  8
0
  0
SOLID
  8
0
 62
    15
 10
3.176210
 20
3.407483
 11
3.856284
 21
3.407483
 12
3.112704
 22
3.295164
 13
3.793253
 23
3.295164
  0
POLYLINE
  8
0
  6
CONTINUOUS
 66
     1
 40
0.000000
 41
0.000000
  0
VERTEX
  8
0
  6
CONTINUOUS
 10
3.176210
 20
3.407483
  0
VERTEX
  8
0
  6
CONTINUOUS
 10
3.856284
 20
3.407483
  0
VERTEX
  8
0
  6
CONTINUOUS
 10
3.793253
 20
3.295164
  0
VERTEX
  8
0
  6
CONTINUOUS
 10
3.112704
 20
3.295164
  0
VERTEX
  8
0
  6
CONTINUOUS
 10
3.176210
 20
3.407483
  0
SEQEND
  8
0
  0
SOLID
  8
0
 62
    15
 10
3.112704
 20
3.295164
 11
3.793253
 21
3.295164
 12
3.025977
 22
3.056782
 13
3.706526
 23
3.056782
  0
POLYLINE
  8
0
  6
CONTINUOUS
 66
     1
 40
0.000000
 41
0.000000
  0
VERTEX
  8
0
  6
CONTINUOUS
 10
3.112704
 20
3.295164
  0
VERTEX
  8
0
  6
CONTINUOUS
 10
3.793253
 20
3.295164
  0
VERTEX
  8
0
  6
CONTINUOUS
 10
3.706526
 20
3.056782
  0
VERTEX
  8
0
  6
CONTINUOUS
 10
3.025977
 20
3.056782
  0
VERTEX
  8
0
  6
CONTINUOUS
 10
3.112704
 20
3.295164
  0
SEQEND
  8
0
  0
SOLID
  8
0
 62
    15
 10
3.025977
 20
3.056782
 11
3.706526
 21
3.056782
 12
2.991381
 22
2.951098
 13
3.671930
 23
2.951098
  0
POLYLINE
  8
0
  6
CONTINUOUS
 66
     1
 40
0.000000
 41
0.000000
  0
VERTEX
  8
0
  6
CONTINUOUS
 10
3.025977
 20
3.056782
  0
VERTEX
  8
0
  6
CONTINUOUS
 10
3.706526
 20
3.056782
  0
VERTEX
  8
0
  6
CONTINUOUS
 10
3.671930
 20
2.951098
  0
VERTEX
  8
0
  6
CONTINUOUS
 10
2.991381
 20
2.951098
  0
VERTEX
  8
0
  6
CONTINUOUS
 10
3.025977
 20
3.056782
  0
SEQEND
  8
0
  0
SOLID
  8
0
 62
    15
 10
2.991381
 20
2.951098
 11
3.671930
 21
2.951098
 12
2.956311
 22
2.868636
 13
3.636860
 23
2.868636
  0
POLYLINE
  8
0
  6
CONTINUOUS
 66
     1
 40
0.000000
 41
0.000000
  0
VERTEX
  8
0
  6
CONTINUOUS
 10
2.991381
 20
2.951098
  0
VERTEX
  8
0
  6
CONTINUOUS
 10
3.671930
 20
2.951098
  0
VERTEX
  8
0
  6
CONTINUOUS
 10
3.636860
 20
2.868636
  0
VERTEX
  8
0
  6
CONTINUOUS
 10
2.956311
 20
2.868636
  0
VERTEX
  8
0
  6
CONTINUOUS
 10
2.991381
 20
2.951098
  0
SEQEND
  8
0
  0
SOLID
  8
0
 62
    15
 10
2.956311
 20
2.868636
 11
3.636860
 21
2.868636
 12
2.861527
 22
2.786648
 13
3.541602
 23
2.786648
  0
POLYLINE
  8
0
  6
CONTINUOUS
 66
     1
 40
0.000000
 41
0.000000
  0
VERTEX
  8
0
  6
CONTINUOUS
 10
2.956311
 20
2.868636
  0
VERTEX
  8
0
  6
CONTINUOUS
 10
3.636860
 20
2.868636
  0
VERTEX
  8
0
  6
CONTINUOUS
 10
3.541602
 20
2.786648
  0
VERTEX
  8
0
  6
CONTINUOUS
 10
2.861527
 20
2.786648
  0
VERTEX
  8
0
  6
CONTINUOUS
 10
2.956311
 20
2.868636
  0
SEQEND
  8
0
  0
SOLID
  8
0
 62
    15
 10
2.861527
 20
2.786648
 11
3.541602
 21
2.786648
 12
2.907497
 22
2.758213
 13
3.588046
 23
2.758213
  0
POLYLINE
  8
0
  6
CONTINUOUS
 66
     1
 40
0.000000
 41
0.000000
  0
VERTEX
  8
0
  6
CONTINUOUS
 10
2.861527
 20
2.786648
  0
VERTEX
  8
0
  6
CONTINUOUS
 10
3.541602
 20
2.786648
  0
VERTEX
  8
0
  6
CONTINUOUS
 10
3.588046
 20
2.758213
  0
VERTEX
  8
0
  6
CONTINUOUS
 10
2.907497
 20
2.758213
  0
VERTEX
  8
0
  6
CONTINUOUS
 10
2.861527
 20
2.786648
  0
SEQEND
  8
0
  0
SOLID
  8
0
 62
    15
 10
2.907497
 20
2.758213
 11
3.588046
 21
2.758213
 12
2.937354
 22
2.718403
 13
3.617903
 23
2.718403
  0
POLYLINE
  8
0
  6
CONTINUOUS
 66
     1
 40
0.000000
 41
0.000000
  0
VERTEX
  8
0
  6
CONTINUOUS
 10
2.907497
 20
2.758213
  0
VERTEX
  8
0
  6
CONTINUOUS
 10
3.588046
 20
2.758213
  0
VERTEX
  8
0
  6
CONTINUOUS
 10
3.617903
 20
2.718403
  0
VERTEX
  8
0
  6
CONTINUOUS
 10
2.937354
 20
2.718403
  0
VERTEX
  8
0
  6
CONTINUOUS
 10
2.907497
 20
2.758213
  0
SEQEND
  8
0
  0
SOLID
  8
0
 62
    15
 10
2.937354
 20
2.718403
 11
3.617903
 21
2.718403
 12
2.951572
 22
2.672433
 13
3.632120
 23
2.672433
  0
POLYLINE
  8
0
  6
CONTINUOUS
 66
     1
 40
0.000000
 41
0.000000
  0
VERTEX
  8
0
  6
CONTINUOUS
 10
2.937354
 20
2.718403
  0
VERTEX
  8
0
  6
CONTINUOUS
 10
3.617903
 20
2.718403
  0
VERTEX
  8
0
  6
CONTINUOUS
 10
3.632120
 20
2.672433
  0
VERTEX
  8
0
  6
CONTINUOUS
 10
2.951572
 20
2.672433
  0
VERTEX
  8
0
  6
CONTINUOUS
 10
2.937354
 20
2.718403
  0
SEQEND
  8
0
  0
SOLID
  8
0
 62
    15
 10
2.951572
 20
2.672433
 11
3.632120
 21
2.672433
 12
2.950624
 22
2.625041
 13
3.631173
 23
2.625041
  0
POLYLINE
  8
0
  6
CONTINUOUS
 66
     1
 40
0.000000
 41
0.000000
  0
VERTEX
  8
0
  6
CONTINUOUS
 10
2.951572
 20
2.672433
  0
VERTEX
  8
0
  6
CONTINUOUS
 10
3.632120
 20
2.672433
  0
VERTEX
  8
0
  6
CONTINUOUS
 10
3.631173
 20
2.625041
  0
VERTEX
  8
0
  6
CONTINUOUS
 10
2.950624
 20
2.625041
  0
VERTEX
  8
0
  6
CONTINUOUS
 10
2.951572
 20
2.672433
  0
SEQEND
  8
0
  0
SOLID
  8
0
 62
    15
 10
2.950624
 20
2.625041
 11
3.631173
 21
2.625041
 12
2.934511
 22
2.580493
 13
3.615059
 23
2.580493
  0
POLYLINE
  8
0
  6
CONTINUOUS
 66
     1
 40
0.000000
 41
0.000000
  0
VERTEX
  8
0
  6
CONTINUOUS
 10
2.950624
 20
2.625041
  0
VERTEX
  8
0
  6
CONTINUOUS
 10
3.631173
 20
2.625041
  0
VERTEX
  8
0
  6
CONTINUOUS
 10
3.615059
 20
2.580493
  0
VERTEX
  8
0
  6
CONTINUOUS
 10
2.934511
 20
2.580493
  0
VERTEX
  8
0
  6
CONTINUOUS
 10
2.950624
 20
2.625041
  0
SEQEND
  8
0
  0
SOLID
  8
0
 62
    15
 10
2.934511
 20
2.580493
 11
3.615059
 21
2.580493
 12
2.903706
 22
2.543053
 13
3.584255
 23
2.543053
  0
POLYLINE
  8
0
  6
CONTINUOUS
 66
     1
 40
0.000000
 41
0.000000
  0
VERTEX
  8
0
  6
CONTINUOUS
 10
2.934511
 20
2.580493
  0
VERTEX
  8
0
  6
CONTINUOUS
 10
3.615059
 20
2.580493
  0
VERTEX
  8
0
  6
CONTINUOUS
 10
3.584255
 20
2.543053
  0
VERTEX
  8
0
  6
CONTINUOUS
 10
2.903706
 20
2.543053
  0
VERTEX
  8
0
  6
CONTINUOUS
 10
2.934511
 20
2.580493
  0
SEQEND
  8
0
  0
SOLID
  8
0
 62
    15
 10
2.903706
 20
2.543053
 11
3.584255
 21
2.543053
 12
2.859157
 22
2.518409
 13
3.539706
 23
2.518409
  0
POLYLINE
  8
0
  6
CONTINUOUS
 66
     1
 40
0.000000
 41
0.000000
  0
VERTEX
  8
0
  6
CONTINUOUS
 10
2.903706
 20
2.543053
  0
VERTEX
  8
0
  6
CONTINUOUS
 10
3.584255
 20
2.543053
  0
VERTEX
  8
0
  6
CONTINUOUS
 10
3.539706
 20
2.518409
  0
VERTEX
  8
0
  6
CONTINUOUS
 10
2.859157
 20
2.518409
  0
VERTEX
  8
0
  6
CONTINUOUS
 10
2.903706
 20
2.543053
  0
SEQEND
  8
0
  0
SOLID
  8
0
 62
    15
 10
2.859157
 20
2.518409
 11
3.539706
 21
2.518409
 12
2.800391
 22
2.509879
 13
3.480940
 23
2.509879
  0
POLYLINE
  8
0
  6
CONTINUOUS
 66
     1
 40
0.000000
 41
0.000000
  0
VERTEX
  8
0
  6
CONTINUOUS
 10
2.859157
 20
2.518409
  0
VERTEX
  8
0
  6
CONTINUOUS
 10
3.539706
 20
2.518409
  0
VERTEX
  8
0
  6
CONTINUOUS
 10
3.480940
 20
2.509879
  0
VERTEX
  8
0
  6
CONTINUOUS
 10
2.800391
 20
2.509879
  0
VERTEX
  8
0
  6
CONTINUOUS
 10
2.859157
 20
2.518409
  0
SEQEND
  8
0
  0
SOLID
  8
0
 62
    15
 10
2.800391
 20
2.509879
 11
3.480940
 21
2.509879
 12
2.800391
 22
2.381920
 13
3.480940
 23
2.381920
  0
POLYLINE
  8
0
  6
CONTINUOUS
 66
     1
 40
0.000000
 41
0.000000
  0
VERTEX
  8
0
  6
CONTINUOUS
 10
2.800391
 20
2.509879
  0
VERTEX
  8
0
  6
CONTINUOUS
 10
3.480940
 20
2.509879
  0
VERTEX
  8
0
  6
CONTINUOUS
 10
3.480940
 20
2.381920
  0
VERTEX
  8
0
  6
CONTINUOUS
 10
2.800391
 20
2.381920
  0
VERTEX
  8
0
  6
CONTINUOUS
 10
2.800391
 20
2.509879
  0
SEQEND
  8
0
  0
SOLID
  8
0
 62
    15
 10
2.800391
 20
2.381920
 11
3.480940
 21
2.381920
 12
2.800391
 22
2.379551
 13
3.480940
 23
2.379551
  0
POLYLINE
  8
0
  6
CONTINUOUS
 66
     1
 40
0.000000
 41
0.000000
  0
VERTEX
  8
0
  6
CONTINUOUS
 10
2.800391
 20
2.381920
  0
VERTEX
  8
0
  6
CONTINUOUS
 10
3.480940
 20
2.381920
  0
VERTEX
  8
0
  6
CONTINUOUS
 10
3.480940
 20
2.379551
  0
VERTEX
  8
0
  6
CONTINUOUS
 10
2.800391
 20
2.379551
  0
VERTEX
  8
0
  6
CONTINUOUS
 10
2.800391
 20
2.381920
  0
SEQEND
  8
0
  0
SOLID
  8
0
 62
    15
 10
4.261486
 20
9.589291
 11
4.942034
 21
9.589291
 12
4.261486
 22
9.385032
 13
4.942034
 23
9.385032
  0
POLYLINE
  8
0
  6
CONTINUOUS
 66
     1
 40
0.000000
 41
0.000000
  0
VERTEX
  8
0
  6
CONTINUOUS
 10
4.261486
 20
9.589291
  0
VERTEX
  8
0
  6
CONTINUOUS
 10
4.942034
 20
9.589291
  0
VERTEX
  8
0
  6
CONTINUOUS
 10
4.942034
 20
9.385032
  0
VERTEX
  8
0
  6
CONTINUOUS
 10
4.261486
 20
9.385032
  0
VERTEX
  8
0
  6
CONTINUOUS
 10
4.261486
 20
9.589291
  0
SEQEND
  8
0
  0
SOLID
  8
0
 62
    15
 10
4.261486
 20
9.385032
 11
4.942034
 21
9.385032
 12
4.365274
 22
9.326739
 13
5.045823
 23
9.326739
  0
POLYLINE
  8
0
  6
CONTINUOUS
 66
     1
 40
0.000000
 41
0.000000
  0
VERTEX
  8
0
  6
CONTINUOUS
 10
4.261486
 20
9.385032
  0
VERTEX
  8
0
  6
CONTINUOUS
 10
4.942034
 20
9.385032
  0
VERTEX
  8
0
  6
CONTINUOUS
 10
5.045823
 20
9.326739
  0
VERTEX
  8
0
  6
CONTINUOUS
 10
4.365274
 20
9.326739
  0
VERTEX
  8
0
  6
CONTINUOUS
 10
4.261486
 20
9.385032
  0
SEQEND
  8
0
  0
SOLID
  8
0
 62
    15
 10
4.365274
 20
9.326739
 11
5.045823
 21
9.326739
 12
4.439206
 22
9.247595
 13
5.119754
 23
9.247595
  0
POLYLINE
  8
0
  6
CONTINUOUS
 66
     1
 40
0.000000
 41
0.000000
  0
VERTEX
  8
0
  6
CONTINUOUS
 10
4.365274
 20
9.326739
  0
VERTEX
  8
0
  6
CONTINUOUS
 10
5.045823
 20
9.326739
  0
VERTEX
  8
0
  6
CONTINUOUS
 10
5.119754
 20
9.247595
  0
VERTEX
  8
0
  6
CONTINUOUS
 10
4.439206
 20
9.247595
  0
VERTEX
  8
0
  6
CONTINUOUS
 10
4.365274
 20
9.326739
  0
SEQEND
  8
0
  0
SOLID
  8
0
 62
    15
 10
4.439206
 20
9.247595
 11
5.119754
 21
9.247595
 12
4.482806
 22
9.154707
 13
5.163355
 23
9.154707
  0
POLYLINE
  8
0
  6
CONTINUOUS
 66
     1
 40
0.000000
 41
0.000000
  0
VERTEX
  8
0
  6
CONTINUOUS
 10
4.439206
 20
9.247595
  0
VERTEX
  8
0
  6
CONTINUOUS
 10
5.119754
 20
9.247595
  0
VERTEX
  8
0
  6
CONTINUOUS
 10
5.163355
 20
9.154707
  0
VERTEX
  8
0
  6
CONTINUOUS
 10
4.482806
 20
9.154707
  0
VERTEX
  8
0
  6
CONTINUOUS
 10
4.439206
 20
9.247595
  0
SEQEND
  8
0
  0
SOLID
  8
0
 62
    15
 10
4.482806
 20
9.154707
 11
5.163355
 21
9.154707
 12
4.497024
 22
9.055183
 13
5.177573
 23
9.055183
  0
POLYLINE
  8
0
  6
CONTINUOUS
 66
     1
 40
0.000000
 41
0.000000
  0
VERTEX
  8
0
  6
CONTINUOUS
 10
4.482806
 20
9.154707
  0
VERTEX
  8
0
  6
CONTINUOUS
 10
5.163355
 20
9.154707
  0
VERTEX
  8
0
  6
CONTINUOUS
 10
5.177573
 20
9.055183
  0
VERTEX
  8
0
  6
CONTINUOUS
 10
4.497024
 20
9.055183
  0
VERTEX
  8
0
  6
CONTINUOUS
 10
4.482806
 20
9.154707
  0
SEQEND
  8
0
  0
SOLID
  8
0
 62
    15
 10
4.497024
 20
9.055183
 11
5.177573
 21
9.055183
 12
4.481858
 22
8.955660
 13
5.162407
 23
8.955660
  0
POLYLINE
  8
0
  6
CONTINUOUS
 66
     1
 40
0.000000
 41
0.000000
  0
VERTEX
  8
0
  6
CONTINUOUS
 10
4.497024
 20
9.055183
  0
VERTEX
  8
0
  6
CONTINUOUS
 10
5.177573
 20
9.055183
  0
VERTEX
  8
0
  6
CONTINUOUS
 10
5.162407
 20
8.955660
  0
VERTEX
  8
0
  6
CONTINUOUS
 10
4.481858
 20
8.955660
  0
VERTEX
  8
0
  6
CONTINUOUS
 10
4.497024
 20
9.055183
  0
SEQEND
  8
0
  0
SOLID
  8
0
 62
    15
 10
4.481858
 20
8.955660
 11
5.162407
 21
8.955660
 12
4.437310
 22
8.863720
 13
5.117859
 23
8.863720
  0
POLYLINE
  8
0
  6
CONTINUOUS
 66
     1
 40
0.000000
 41
0.000000
  0
VERTEX
  8
0
  6
CONTINUOUS
 10
4.481858
 20
8.955660
  0
VERTEX
  8
0
  6
CONTINUOUS
 10
5.162407
 20
8.955660
  0
VERTEX
  8
0
  6
CONTINUOUS
 10
5.117859
 20
8.863720
  0
VERTEX
  8
0
  6
CONTINUOUS
 10
4.437310
 20
8.863720
  0
VERTEX
  8
0
  6
CONTINUOUS
 10
4.481858
 20
8.955660
  0
SEQEND
  8
0
  0
SOLID
  8
0
 62
    15
 10
4.437310
 20
8.863720
 11
5.117859
 21
8.863720
 12
4.363852
 22
8.785997
 13
5.044401
 23
8.785997
  0
POLYLINE
  8
0
  6
CONTINUOUS
 66
     1
 40
0.000000
 41
0.000000
  0
VERTEX
  8
0
  6
CONTINUOUS
 10
4.437310
 20
8.863720
  0
VERTEX
  8
0
  6
CONTINUOUS
 10
5.117859
 20
8.863720
  0
VERTEX
  8
0
  6
CONTINUOUS
 10
5.044401
 20
8.785997
  0
VERTEX
  8
0
  6
CONTINUOUS
 10
4.363852
 20
8.785997
  0
VERTEX
  8
0
  6
CONTINUOUS
 10
4.437310
 20
8.863720
  0
SEQEND
  8
0
  0
SOLID
  8
0
 62
    15
 10
4.363852
 20
8.785997
 11
5.044401
 21
8.785997
 12
4.261486
 22
8.729601
 13
4.942034
 23
8.729601
  0
POLYLINE
  8
0
  6
CONTINUOUS
 66
     1
 40
0.000000
 41
0.000000
  0
VERTEX
  8
0
  6
CONTINUOUS
 10
4.363852
 20
8.785997
  0
VERTEX
  8
0
  6
CONTINUOUS
 10
5.044401
 20
8.785997
  0
VERTEX
  8
0
  6
CONTINUOUS
 10
4.942034
 20
8.729601
  0
VERTEX
  8
0
  6
CONTINUOUS
 10
4.261486
 20
8.729601
  0
VERTEX
  8
0
  6
CONTINUOUS
 10
4.363852
 20
8.785997
  0
SEQEND
  8
0
  0
SOLID
  8
0
 62
    15
 10
4.261486
 20
8.729601
 11
4.942034
 21
8.729601
 12
4.261486
 22
8.531028
 13
4.942034
 23
8.531028
  0
POLYLINE
  8
0
  6
CONTINUOUS
 66
     1
 40
0.000000
 41
0.000000
  0
VERTEX
  8
0
  6
CONTINUOUS
 10
4.261486
 20
8.729601
  0
VERTEX
  8
0
  6
CONTINUOUS
 10
4.942034
 20
8.729601
  0
VERTEX
  8
0
  6
CONTINUOUS
 10
4.942034
 20
8.531028
  0
VERTEX
  8
0
  6
CONTINUOUS
 10
4.261486
 20
8.531028
  0
VERTEX
  8
0
  6
CONTINUOUS
 10
4.261486
 20
8.729601
  0
SEQEND
  8
0
  0
SOLID
  8
0
 62
    15
 10
2.124582
 20
9.590713
 11
2.805131
 21
9.590713
 12
2.124582
 22
9.589291
 13
2.805131
 23
9.589291
  0
POLYLINE
  8
0
  6
CONTINUOUS
 66
     1
 40
0.000000
 41
0.000000
  0
VERTEX
  8
0
  6
CONTINUOUS
 10
2.124582
 20
9.590713
  0
VERTEX
  8
0
  6
CONTINUOUS
 10
2.805131
 20
9.590713
  0
VERTEX
  8
0
  6
CONTINUOUS
 10
2.805131
 20
9.589291
  0
VERTEX
  8
0
  6
CONTINUOUS
 10
2.124582
 20
9.589291
  0
VERTEX
  8
0
  6
CONTINUOUS
 10
2.124582
 20
9.590713
  0
SEQEND
  8
0
  0
POLYLINE
  8
0
  6
CONTINUOUS
 66
     1
 40
0.000000
 41
0.000000
  0
VERTEX
  8
0
  6
CONTINUOUS
 10
2.123160
 20
8.530554
  0
VERTEX
  8
0
  6
CONTINUOUS
 10
2.685229
 20
8.530554
  0
VERTEX
  8
0
  6
CONTINUOUS
 10
2.685229
 20
1.121294
  0
VERTEX
  8
0
  6
CONTINUOUS
 10
2.540683
 20
1.121294
  0
VERTEX
  8
0
  6
CONTINUOUS
 10
2.539262
 20
1.035988
  0
VERTEX
  8
0
  6
CONTINUOUS
 10
2.530257
 20
0.971535
  0
VERTEX
  8
0
  6
CONTINUOUS
 10
2.514618
 20
0.923196
  0
VERTEX
  8
0
  6
CONTINUOUS
 10
2.493765
 20
0.887178
  0
VERTEX
  8
0
  6
CONTINUOUS
 10
2.384290
 20
0.791920
  0
VERTEX
  8
0
  6
CONTINUOUS
 10
2.331685
 20
0.733628
  0
VERTEX
  8
0
  6
CONTINUOUS
 10
2.291402
 20
0.668227
  0
VERTEX
  8
0
  6
CONTINUOUS
 10
2.264862
 20
0.598561
  0
VERTEX
  8
0
  6
CONTINUOUS
 10
2.255384
 20
0.526999
  0
VERTEX
  8
0
  6
CONTINUOUS
 10
2.123160
 20
0.526999
  0
VERTEX
  8
0
  6
CONTINUOUS
 10
2.123160
 20
8.530080
  0
VERTEX
  8
0
  6
CONTINUOUS
 10
2.123160
 20
8.530554
  0
SEQEND
  8
0
  0
POLYLINE
  8
0
  6
CONTINUOUS
 66
     1
 40
0.000000
 41
0.000000
  0
VERTEX
  8
0
  6
CONTINUOUS
 10
2.800391
 20
2.379551
  0
VERTEX
  8
0
  6
CONTINUOUS
 10
2.685229
 20
2.379551
  0
VERTEX
  8
0
  6
CONTINUOUS
 10
2.685229
 20
4.492759
  0
VERTEX
  8
0
  6
CONTINUOUS
 10
3.114126
 20
4.465745
  0
VERTEX
  8
0
  6
CONTINUOUS
 10
3.141140
 20
4.367644
  0
VERTEX
  8
0
  6
CONTINUOUS
 10
3.252511
 20
4.358165
  0
VERTEX
  8
0
  6
CONTINUOUS
 10
3.344451
 20
4.340630
  0
VERTEX
  8
0
  6
CONTINUOUS
 10
3.417909
 20
4.314565
  0
VERTEX
  8
0
  6
CONTINUOUS
 10
3.475253
 20
4.281390
  0
VERTEX
  8
0
  6
CONTINUOUS
 10
3.518380
 20
4.241107
  0
VERTEX
  8
0
  6
CONTINUOUS
 10
3.548711
 20
4.194189
  0
VERTEX
  8
0
  6
CONTINUOUS
 10
3.578568
 20
4.081396
  0
VERTEX
  8
0
  6
CONTINUOUS
 10
3.580463
 20
3.707000
  0
VERTEX
  8
0
  6
CONTINUOUS
 10
3.565772
 20
3.633542
  0
VERTEX
  8
0
  6
CONTINUOUS
 10
3.543971
 20
3.604633
  0
VERTEX
  8
0
  6
CONTINUOUS
 10
3.508427
 20
3.592785
  0
VERTEX
  8
0
  6
CONTINUOUS
 10
3.434022
 20
3.585676
  0
VERTEX
  8
0
  6
CONTINUOUS
 10
3.368621
 20
3.566720
  0
VERTEX
  8
0
  6
CONTINUOUS
 10
3.259620
 20
3.501793
  0
VERTEX
  8
0
  6
CONTINUOUS
 10
3.176210
 20
3.407483
  0
VERTEX
  8
0
  6
CONTINUOUS
 10
3.112704
 20
3.295164
  0
VERTEX
  8
0
  6
CONTINUOUS
 10
3.025977
 20
3.056782
  0
VERTEX
  8
0
  6
CONTINUOUS
 10
2.991381
 20
2.951098
  0
VERTEX
  8
0
  6
CONTINUOUS
 10
2.956311
 20
2.868636
  0
VERTEX
  8
0
  6
CONTINUOUS
 10
2.861527
 20
2.786648
  0
VERTEX
  8
0
  6
CONTINUOUS
 10
2.907497
 20
2.758213
  0
VERTEX
  8
0
  6
CONTINUOUS
 10
2.937354
 20
2.718403
  0
VERTEX
  8
0
  6
CONTINUOUS
 10
2.951572
 20
2.672433
  0
VERTEX
  8
0
  6
CONTINUOUS
 10
2.950624
 20
2.625041
  0
VERTEX
  8
0
  6
CONTINUOUS
 10
2.934511
 20
2.580493
  0
VERTEX
  8
0
  6
CONTINUOUS
 10
2.903706
 20
2.543053
  0
VERTEX
  8
0
  6
CONTINUOUS
 10
2.859157
 20
2.518409
  0
VERTEX
  8
0
  6
CONTINUOUS
 10
2.800391
 20
2.509879
  0
VERTEX
  8
0
  6
CONTINUOUS
 10
2.800391
 20
2.381920
  0
VERTEX
  8
0
  6
CONTINUOUS
 10
2.800391
 20
2.379551
  0
SEQEND
  8
0
  0
POLYLINE
  8
0
  6
CONTINUOUS
 66
     1
 40
0.000000
 41
0.000000
  0
VERTEX
  8
0
  6
CONTINUOUS
 10
2.124582
 20
9.589291
  0
VERTEX
  8
0
  6
CONTINUOUS
 10
4.261486
 20
9.589291
  0
VERTEX
  8
0
  6
CONTINUOUS
 10
4.261486
 20
9.385032
  0
VERTEX
  8
0
  6
CONTINUOUS
 10
4.365274
 20
9.326739
  0
VERTEX
  8
0
  6
CONTINUOUS
 10
4.439206
 20
9.247595
  0
VERTEX
  8
0
  6
CONTINUOUS
 10
4.482806
 20
9.154707
  0
VERTEX
  8
0
  6
CONTINUOUS
 10
4.497024
 20
9.055183
  0
VERTEX
  8
0
  6
CONTINUOUS
 10
4.481858
 20
8.955660
  0
VERTEX
  8
0
  6
CONTINUOUS
 10
4.437310
 20
8.863720
  0
VERTEX
  8
0
  6
CONTINUOUS
 10
4.363852
 20
8.785997
  0
VERTEX
  8
0
  6
CONTINUOUS
 10
4.261486
 20
8.729601
  0
VERTEX
  8
0
  6
CONTINUOUS
 10
4.261486
 20
8.531028
  0
VERTEX
  8
0
  6
CONTINUOUS
 10
2.124582
 20
8.531028
  0
VERTEX
  8
0
  6
CONTINUOUS
 10
2.124582
 20
9.590713
  0
VERTEX
  8
0
  6
CONTINUOUS
 10
2.124582
 20
9.589291
  0
SEQEND
  8
0
  0
SOLID
  8
0
 62
    15
 10
3.121235
 20
6.735347
 11
3.783775
 21
6.732029
 12
3.104648
 22
6.576583
 13
3.766714
 23
6.573266
  0
POLYLINE
  8
0
  6
CONTINUOUS
 66
     1
 40
0.000000
 41
0.000000
  0
VERTEX
  8
0
  6
CONTINUOUS
 10
3.121235
 20
6.735347
  0
VERTEX
  8
0
  6
CONTINUOUS
 10
3.783775
 20
6.732029
  0
VERTEX
  8
0
  6
CONTINUOUS
 10
3.766714
 20
6.573266
  0
VERTEX
  8
0
  6
CONTINUOUS
 10
3.104648
 20
6.576583
  0
VERTEX
  8
0
  6
CONTINUOUS
 10
3.121235
 20
6.735347
  0
SEQEND
  8
0
  0
SOLID
  8
0
 62
    15
 10
4.023578
 20
8.529133
 11
4.685644
 21
8.525815
 12
4.023578
 22
8.087439
 13
4.685644
 23
8.084122
  0
POLYLINE
  8
0
  6
CONTINUOUS
 66
     1
 40
0.000000
 41
0.000000
  0
VERTEX
  8
0
  6
CONTINUOUS
 10
4.023578
 20
8.529133
  0
VERTEX
  8
0
  6
CONTINUOUS
 10
4.685644
 20
8.525815
  0
VERTEX
  8
0
  6
CONTINUOUS
 10
4.685644
 20
8.084122
  0
VERTEX
  8
0
  6
CONTINUOUS
 10
4.023578
 20
8.087439
  0
VERTEX
  8
0
  6
CONTINUOUS
 10
4.023578
 20
8.529133
  0
SEQEND
  8
0
  0
SOLID
  8
0
 62
    15
 10
4.023578
 20
8.087439
 11
4.685644
 21
8.084122
 12
3.942538
 22
8.070378
 13
4.604604
 23
8.067061
  0
POLYLINE
  8
0
  6
CONTINUOUS
 66
     1
 40
0.000000
 41
0.000000
  0
VERTEX
  8
0
  6
CONTINUOUS
 10
4.023578
 20
8.087439
  0
VERTEX
  8
0
  6
CONTINUOUS
 10
4.685644
 20
8.084122
  0
VERTEX
  8
0
  6
CONTINUOUS
 10
4.604604
 20
8.067061
  0
VERTEX
  8
0
  6
CONTINUOUS
 10
3.942538
 20
8.070378
  0
VERTEX
  8
0
  6
CONTINUOUS
 10
4.023578
 20
8.087439
  0
SEQEND
  8
0
  0
SOLID
  8
0
 62
    15
 10
3.942538
 20
8.070378
 11
4.604604
 21
8.067061
 12
3.866711
 22
8.046208
 13
4.528777
 23
8.042891
  0
POLYLINE
  8
0
  6
CONTINUOUS
 66
     1
 40
0.000000
 41
0.000000
  0
VERTEX
  8
0
  6
CONTINUOUS
 10
3.942538
 20
8.070378
  0
VERTEX
  8
0
  6
CONTINUOUS
 10
4.604604
 20
8.067061
  0
VERTEX
  8
0
  6
CONTINUOUS
 10
4.528777
 20
8.042891
  0
VERTEX
  8
0
  6
CONTINUOUS
 10
3.866711
 20
8.046208
  0
VERTEX
  8
0
  6
CONTINUOUS
 10
3.942538
 20
8.070378
  0
SEQEND
  8
0
  0
SOLID
  8
0
 62
    15
 10
3.866711
 20
8.046208
 11
4.528777
 21
8.042891
 12
3.795149
 22
8.015878
 13
4.457215
 23
8.012560
  0
POLYLINE
  8
0
  6
CONTINUOUS
 66
     1
 40
0.000000
 41
0.000000
  0
VERTEX
  8
0
  6
CONTINUOUS
 10
3.866711
 20
8.046208
  0
VERTEX
  8
0
  6
CONTINUOUS
 10
4.528777
 20
8.042891
  0
VERTEX
  8
0
  6
CONTINUOUS
 10
4.457215
 20
8.012560
  0
VERTEX
  8
0
  6
CONTINUOUS
 10
3.795149
 20
8.015878
  0
VERTEX
  8
0
  6
CONTINUOUS
 10
3.866711
 20
8.046208
  0
SEQEND
  8
0
  0
SOLID
  8
0
 62
    15
 10
3.795149
 20
8.015878
 11
4.457215
 21
8.012560
 12
3.727852
 22
7.979860
 13
4.390392
 23
7.976542
  0
POLYLINE
  8
0
  6
CONTINUOUS
 66
     1
 40
0.000000
 41
0.000000
  0
VERTEX
  8
0
  6
CONTINUOUS
 10
3.795149
 20
8.015878
  0
VERTEX
  8
0
  6
CONTINUOUS
 10
4.457215
 20
8.012560
  0
VERTEX
  8
0
  6
CONTINUOUS
 10
4.390392
 20
7.976542
  0
VERTEX
  8
0
  6
CONTINUOUS
 10
3.727852
 20
7.979860
  0
VERTEX
  8
0
  6
CONTINUOUS
 10
3.795149
 20
8.015878
  0
SEQEND
  8
0
  0
SOLID
  8
0
 62
    15
 10
3.727852
 20
7.979860
 11
4.390392
 21
7.976542
 12
3.665295
 22
7.938629
 13
4.327361
 23
7.935311
  0
POLYLINE
  8
0
  6
CONTINUOUS
 66
     1
 40
0.000000
 41
0.000000
  0
VERTEX
  8
0
  6
CONTINUOUS
 10
3.727852
 20
7.979860
  0
VERTEX
  8
0
  6
CONTINUOUS
 10
4.390392
 20
7.976542
  0
VERTEX
  8
0
  6
CONTINUOUS
 10
4.327361
 20
7.935311
  0
VERTEX
  8
0
  6
CONTINUOUS
 10
3.665295
 20
7.938629
  0
VERTEX
  8
0
  6
CONTINUOUS
 10
3.727852
 20
7.979860
  0
SEQEND
  8
0
  0
SOLID
  8
0
 62
    15
 10
3.665295
 20
7.938629
 11
4.327361
 21
7.935311
 12
3.606529
 22
7.891711
 13
4.269069
 23
7.888393
  0
POLYLINE
  8
0
  6
CONTINUOUS
 66
     1
 40
0.000000
 41
0.000000
  0
VERTEX
  8
0
  6
CONTINUOUS
 10
3.665295
 20
7.938629
  0
VERTEX
  8
0
  6
CONTINUOUS
 10
4.327361
 20
7.935311
  0
VERTEX
  8
0
  6
CONTINUOUS
 10
4.269069
 20
7.888393
  0
VERTEX
  8
0
  6
CONTINUOUS
 10
3.606529
 20
7.891711
  0
VERTEX
  8
0
  6
CONTINUOUS
 10
3.665295
 20
7.938629
  0
SEQEND
  8
0
  0
SOLID
  8
0
 62
    15
 10
3.606529
 20
7.891711
 11
4.269069
 21
7.888393
 12
3.501319
 22
7.784605
 13
4.163858
 23
7.781287
  0
POLYLINE
  8
0
  6
CONTINUOUS
 66
     1
 40
0.000000
 41
0.000000
  0
VERTEX
  8
0
  6
CONTINUOUS
 10
3.606529
 20
7.891711
  0
VERTEX
  8
0
  6
CONTINUOUS
 10
4.269069
 20
7.888393
  0
VERTEX
  8
0
  6
CONTINUOUS
 10
4.163858
 20
7.781287
  0
VERTEX
  8
0
  6
CONTINUOUS
 10
3.501319
 20
7.784605
  0
VERTEX
  8
0
  6
CONTINUOUS
 10
3.606529
 20
7.891711
  0
SEQEND
  8
0
  0
SOLID
  8
0
 62
    15
 10
3.501319
 20
7.784605
 11
4.163858
 21
7.781287
 12
3.411274
 22
7.660912
 13
4.073340
 23
7.657594
  0
POLYLINE
  8
0
  6
CONTINUOUS
 66
     1
 40
0.000000
 41
0.000000
  0
VERTEX
  8
0
  6
CONTINUOUS
 10
3.501319
 20
7.784605
  0
VERTEX
  8
0
  6
CONTINUOUS
 10
4.163858
 20
7.781287
  0
VERTEX
  8
0
  6
CONTINUOUS
 10
4.073340
 20
7.657594
  0
VERTEX
  8
0
  6
CONTINUOUS
 10
3.411274
 20
7.660912
  0
VERTEX
  8
0
  6
CONTINUOUS
 10
3.501319
 20
7.784605
  0
SEQEND
  8
0
  0
SOLID
  8
0
 62
    15
 10
3.411274
 20
7.660912
 11
4.073340
 21
7.657594
 12
3.334973
 22
7.523949
 13
3.997039
 23
7.520631
  0
POLYLINE
  8
0
  6
CONTINUOUS
 66
     1
 40
0.000000
 41
0.000000
  0
VERTEX
  8
0
  6
CONTINUOUS
 10
3.411274
 20
7.660912
  0
VERTEX
  8
0
  6
CONTINUOUS
 10
4.073340
 20
7.657594
  0
VERTEX
  8
0
  6
CONTINUOUS
 10
3.997039
 20
7.520631
  0
VERTEX
  8
0
  6
CONTINUOUS
 10
3.334973
 20
7.523949
  0
VERTEX
  8
0
  6
CONTINUOUS
 10
3.411274
 20
7.660912
  0
SEQEND
  8
0
  0
SOLID
  8
0
 62
    15
 10
3.334973
 20
7.523949
 11
3.997039
 21
7.520631
 12
3.270994
 22
7.376086
 13
3.933533
 23
7.372769
  0
POLYLINE
  8
0
  6
CONTINUOUS
 66
     1
 40
0.000000
 41
0.000000
  0
VERTEX
  8
0
  6
CONTINUOUS
 10
3.334973
 20
7.523949
  0
VERTEX
  8
0
  6
CONTINUOUS
 10
3.997039
 20
7.520631
  0
VERTEX
  8
0
  6
CONTINUOUS
 10
3.933533
 20
7.372769
  0
VERTEX
  8
0
  6
CONTINUOUS
 10
3.270994
 20
7.376086
  0
VERTEX
  8
0
  6
CONTINUOUS
 10
3.334973
 20
7.523949
  0
SEQEND
  8
0
  0
SOLID
  8
0
 62
    15
 10
3.270994
 20
7.376086
 11
3.933533
 21
7.372769
 12
3.219336
 22
7.220640
 13
3.881402
 23
7.217323
  0
POLYLINE
  8
0
  6
CONTINUOUS
 66
     1
 40
0.000000
 41
0.000000
  0
VERTEX
  8
0
  6
CONTINUOUS
 10
3.270994
 20
7.376086
  0
VERTEX
  8
0
  6
CONTINUOUS
 10
3.933533
 20
7.372769
  0
VERTEX
  8
0
  6
CONTINUOUS
 10
3.881402
 20
7.217323
  0
VERTEX
  8
0
  6
CONTINUOUS
 10
3.219336
 20
7.220640
  0
VERTEX
  8
0
  6
CONTINUOUS
 10
3.270994
 20
7.376086
  0
SEQEND
  8
0
  0
SOLID
  8
0
 62
    15
 10
3.219336
 20
7.220640
 11
3.881402
 21
7.217323
 12
3.177631
 22
7.059982
 13
3.839697
 23
7.056664
  0
POLYLINE
  8
0
  6
CONTINUOUS
 66
     1
 40
0.000000
 41
0.000000
  0
VERTEX
  8
0
  6
CONTINUOUS
 10
3.219336
 20
7.220640
  0
VERTEX
  8
0
  6
CONTINUOUS
 10
3.881402
 20
7.217323
  0
VERTEX
  8
0
  6
CONTINUOUS
 10
3.839697
 20
7.056664
  0
VERTEX
  8
0
  6
CONTINUOUS
 10
3.177631
 20
7.059982
  0
VERTEX
  8
0
  6
CONTINUOUS
 10
3.219336
 20
7.220640
  0
SEQEND
  8
0
  0
SOLID
  8
0
 62
    15
 10
3.177631
 20
7.059982
 11
3.839697
 21
7.056664
 12
3.145405
 22
6.897427
 13
3.807471
 23
6.894110
  0
POLYLINE
  8
0
  6
CONTINUOUS
 66
     1
 40
0.000000
 41
0.000000
  0
VERTEX
  8
0
  6
CONTINUOUS
 10
3.177631
 20
7.059982
  0
VERTEX
  8
0
  6
CONTINUOUS
 10
3.839697
 20
7.056664
  0
VERTEX
  8
0
  6
CONTINUOUS
 10
3.807471
 20
6.894110
  0
VERTEX
  8
0
  6
CONTINUOUS
 10
3.145405
 20
6.897427
  0
VERTEX
  8
0
  6
CONTINUOUS
 10
3.177631
 20
7.059982
  0
SEQEND
  8
0
  0
SOLID
  8
0
 62
    15
 10
3.145405
 20
6.897427
 11
3.807471
 21
6.894110
 12
3.121235
 22
6.735347
 13
3.783775
 23
6.732029
  0
POLYLINE
  8
0
  6
CONTINUOUS
 66
     1
 40
0.000000
 41
0.000000
  0
VERTEX
  8
0
  6
CONTINUOUS
 10
3.145405
 20
6.897427
  0
VERTEX
  8
0
  6
CONTINUOUS
 10
3.807471
 20
6.894110
  0
VERTEX
  8
0
  6
CONTINUOUS
 10
3.783775
 20
6.732029
  0
VERTEX
  8
0
  6
CONTINUOUS
 10
3.121235
 20
6.735347
  0
VERTEX
  8
0
  6
CONTINUOUS
 10
3.145405
 20
6.897427
  0
SEQEND
  8
0
  0
POLYLINE
  8
0
  6
CONTINUOUS
 66
     1
 40
0.000000
 41
0.000000
  0
VERTEX
  8
0
  6
CONTINUOUS
 10
4.023578
 20
8.529133
  0
VERTEX
  8
0
  6
CONTINUOUS
 10
4.685644
 20
8.525815
  0
VERTEX
  8
0
  6
CONTINUOUS
 10
4.023578
 20
8.529133
  0
SEQEND
  8
0
  0
SOLID
  8
0
 62
    15
 10
3.104648
 20
6.576583
 11
3.766714
 21
6.573266
 12
3.093748
 22
6.424455
 13
3.755814
 23
6.421138
  0
POLYLINE
  8
0
  6
CONTINUOUS
 66
     1
 40
0.000000
 41
0.000000
  0
VERTEX
  8
0
  6
CONTINUOUS
 10
3.104648
 20
6.576583
  0
VERTEX
  8
0
  6
CONTINUOUS
 10
3.766714
 20
6.573266
  0
VERTEX
  8
0
  6
CONTINUOUS
 10
3.755814
 20
6.421138
  0
VERTEX
  8
0
  6
CONTINUOUS
 10
3.093748
 20
6.424455
  0
VERTEX
  8
0
  6
CONTINUOUS
 10
3.104648
 20
6.576583
  0
SEQEND
  8
0
  0
SOLID
  8
0
 62
    15
 10
3.093748
 20
6.424455
 11
3.755814
 21
6.421138
 12
3.087587
 22
6.281332
 13
3.749653
 23
6.278014
  0
POLYLINE
  8
0
  6
CONTINUOUS
 66
     1
 40
0.000000
 41
0.000000
  0
VERTEX
  8
0
  6
CONTINUOUS
 10
3.093748
 20
6.424455
  0
VERTEX
  8
0
  6
CONTINUOUS
 10
3.755814
 20
6.421138
  0
VERTEX
  8
0
  6
CONTINUOUS
 10
3.749653
 20
6.278014
  0
VERTEX
  8
0
  6
CONTINUOUS
 10
3.087587
 20
6.281332
  0
VERTEX
  8
0
  6
CONTINUOUS
 10
3.093748
 20
6.424455
  0
SEQEND
  8
0
  0
SOLID
  8
0
 62
    15
 10
3.087587
 20
6.281332
 11
3.749653
 21
6.278014
 12
3.085217
 22
6.150056
 13
3.747283
 23
6.146738
  0
POLYLINE
  8
0
  6
CONTINUOUS
 66
     1
 40
0.000000
 41
0.000000
  0
VERTEX
  8
0
  6
CONTINUOUS
 10
3.087587
 20
6.281332
  0
VERTEX
  8
0
  6
CONTINUOUS
 10
3.749653
 20
6.278014
  0
VERTEX
  8
0
  6
CONTINUOUS
 10
3.747283
 20
6.146738
  0
VERTEX
  8
0
  6
CONTINUOUS
 10
3.085217
 20
6.150056
  0
VERTEX
  8
0
  6
CONTINUOUS
 10
3.087587
 20
6.281332
  0
SEQEND
  8
0
  0
SOLID
  8
0
 62
    15
 10
3.085217
 20
6.150056
 11
3.747283
 21
6.146738
 12
3.085691
 22
6.033945
 13
3.747757
 23
6.030628
  0
POLYLINE
  8
0
  6
CONTINUOUS
 66
     1
 40
0.000000
 41
0.000000
  0
VERTEX
  8
0
  6
CONTINUOUS
 10
3.085217
 20
6.150056
  0
VERTEX
  8
0
  6
CONTINUOUS
 10
3.747283
 20
6.146738
  0
VERTEX
  8
0
  6
CONTINUOUS
 10
3.747757
 20
6.030628
  0
VERTEX
  8
0
  6
CONTINUOUS
 10
3.085691
 20
6.033945
  0
VERTEX
  8
0
  6
CONTINUOUS
 10
3.085217
 20
6.150056
  0
SEQEND
  8
0
  0
SOLID
  8
0
 62
    15
 10
3.085691
 20
6.033945
 11
3.747757
 21
6.030628
 12
3.007494
 22
5.997928
 13
3.669560
 23
5.994610
  0
POLYLINE
  8
0
  6
CONTINUOUS
 66
     1
 40
0.000000
 41
0.000000
  0
VERTEX
  8
0
  6
CONTINUOUS
 10
3.085691
 20
6.033945
  0
VERTEX
  8
0
  6
CONTINUOUS
 10
3.747757
 20
6.030628
  0
VERTEX
  8
0
  6
CONTINUOUS
 10
3.669560
 20
5.994610
  0
VERTEX
  8
0
  6
CONTINUOUS
 10
3.007494
 20
5.997928
  0
VERTEX
  8
0
  6
CONTINUOUS
 10
3.085691
 20
6.033945
  0
SEQEND
  8
0
  0
SOLID
  8
0
 62
    15
 10
3.007494
 20
5.997928
 11
3.669560
 21
5.994610
 12
2.998964
 22
5.931105
 13
3.661030
 23
5.927787
  0
POLYLINE
  8
0
  6
CONTINUOUS
 66
     1
 40
0.000000
 41
0.000000
  0
VERTEX
  8
0
  6
CONTINUOUS
 10
3.007494
 20
5.997928
  0
VERTEX
  8
0
  6
CONTINUOUS
 10
3.669560
 20
5.994610
  0
VERTEX
  8
0
  6
CONTINUOUS
 10
3.661030
 20
5.927787
  0
VERTEX
  8
0
  6
CONTINUOUS
 10
2.998964
 20
5.931105
  0
VERTEX
  8
0
  6
CONTINUOUS
 10
3.007494
 20
5.997928
  0
SEQEND
  8
0
  0
SOLID
  8
0
 62
    15
 10
2.998964
 20
5.931105
 11
3.661030
 21
5.927787
 12
2.986168
 22
5.870917
 13
3.648234
 23
5.867600
  0
POLYLINE
  8
0
  6
CONTINUOUS
 66
     1
 40
0.000000
 41
0.000000
  0
VERTEX
  8
0
  6
CONTINUOUS
 10
2.998964
 20
5.931105
  0
VERTEX
  8
0
  6
CONTINUOUS
 10
3.661030
 20
5.927787
  0
VERTEX
  8
0
  6
CONTINUOUS
 10
3.648234
 20
5.867600
  0
VERTEX
  8
0
  6
CONTINUOUS
 10
2.986168
 20
5.870917
  0
VERTEX
  8
0
  6
CONTINUOUS
 10
2.998964
 20
5.931105
  0
SEQEND
  8
0
  0
SOLID
  8
0
 62
    15
 10
2.986168
 20
5.870917
 11
3.648234
 21
5.867600
 12
2.969107
 22
5.817838
 13
3.631173
 23
5.814521
  0
POLYLINE
  8
0
  6
CONTINUOUS
 66
     1
 40
0.000000
 41
0.000000
  0
VERTEX
  8
0
  6
CONTINUOUS
 10
2.986168
 20
5.870917
  0
VERTEX
  8
0
  6
CONTINUOUS
 10
3.648234
 20
5.867600
  0
VERTEX
  8
0
  6
CONTINUOUS
 10
3.631173
 20
5.814521
  0
VERTEX
  8
0
  6
CONTINUOUS
 10
2.969107
 20
5.817838
  0
VERTEX
  8
0
  6
CONTINUOUS
 10
2.986168
 20
5.870917
  0
SEQEND
  8
0
  0
SOLID
  8
0
 62
    15
 10
2.969107
 20
5.817838
 11
3.631173
 21
5.814521
 12
2.949202
 22
5.770446
 13
3.611268
 23
5.767129
  0
POLYLINE
  8
0
  6
CONTINUOUS
 66
     1
 40
0.000000
 41
0.000000
  0
VERTEX
  8
0
  6
CONTINUOUS
 10
2.969107
 20
5.817838
  0
VERTEX
  8
0
  6
CONTINUOUS
 10
3.631173
 20
5.814521
  0
VERTEX
  8
0
  6
CONTINUOUS
 10
3.611268
 20
5.767129
  0
VERTEX
  8
0
  6
CONTINUOUS
 10
2.949202
 20
5.770446
  0
VERTEX
  8
0
  6
CONTINUOUS
 10
2.969107
 20
5.817838
  0
SEQEND
  8
0
  0
SOLID
  8
0
 62
    15
 10
2.949202
 20
5.770446
 11
3.611268
 21
5.767129
 12
2.901810
 22
5.693197
 13
3.563876
 23
5.689880
  0
POLYLINE
  8
0
  6
CONTINUOUS
 66
     1
 40
0.000000
 41
0.000000
  0
VERTEX
  8
0
  6
CONTINUOUS
 10
2.949202
 20
5.770446
  0
VERTEX
  8
0
  6
CONTINUOUS
 10
3.611268
 20
5.767129
  0
VERTEX
  8
0
  6
CONTINUOUS
 10
3.563876
 20
5.689880
  0
VERTEX
  8
0
  6
CONTINUOUS
 10
2.901810
 20
5.693197
  0
VERTEX
  8
0
  6
CONTINUOUS
 10
2.949202
 20
5.770446
  0
SEQEND
  8
0
  0
SOLID
  8
0
 62
    15
 10
2.901810
 20
5.693197
 11
3.563876
 21
5.689880
 12
2.850153
 22
5.636801
 13
3.512219
 23
5.633483
  0
POLYLINE
  8
0
  6
CONTINUOUS
 66
     1
 40
0.000000
 41
0.000000
  0
VERTEX
  8
0
  6
CONTINUOUS
 10
2.901810
 20
5.693197
  0
VERTEX
  8
0
  6
CONTINUOUS
 10
3.563876
 20
5.689880
  0
VERTEX
  8
0
  6
CONTINUOUS
 10
3.512219
 20
5.633483
  0
VERTEX
  8
0
  6
CONTINUOUS
 10
2.850153
 20
5.636801
  0
VERTEX
  8
0
  6
CONTINUOUS
 10
2.901810
 20
5.693197
  0
SEQEND
  8
0
  0
SOLID
  8
0
 62
    15
 10
2.850153
 20
5.636801
 11
3.512219
 21
5.633483
 12
2.799444
 22
5.597939
 13
3.461509
 23
5.594622
  0
POLYLINE
  8
0
  6
CONTINUOUS
 66
     1
 40
0.000000
 41
0.000000
  0
VERTEX
  8
0
  6
CONTINUOUS
 10
2.850153
 20
5.636801
  0
VERTEX
  8
0
  6
CONTINUOUS
 10
3.512219
 20
5.633483
  0
VERTEX
  8
0
  6
CONTINUOUS
 10
3.461509
 20
5.594622
  0
VERTEX
  8
0
  6
CONTINUOUS
 10
2.799444
 20
5.597939
  0
VERTEX
  8
0
  6
CONTINUOUS
 10
2.850153
 20
5.636801
  0
SEQEND
  8
0
  0
SOLID
  8
0
 62
    15
 10
2.799444
 20
5.597939
 11
3.461509
 21
5.594622
 12
2.754895
 22
5.573769
 13
3.416961
 23
5.569978
  0
POLYLINE
  8
0
  6
CONTINUOUS
 66
     1
 40
0.000000
 41
0.000000
  0
VERTEX
  8
0
  6
CONTINUOUS
 10
2.799444
 20
5.597939
  0
VERTEX
  8
0
  6
CONTINUOUS
 10
3.461509
 20
5.594622
  0
VERTEX
  8
0
  6
CONTINUOUS
 10
3.416961
 20
5.569978
  0
VERTEX
  8
0
  6
CONTINUOUS
 10
2.754895
 20
5.573769
  0
VERTEX
  8
0
  6
CONTINUOUS
 10
2.799444
 20
5.597939
  0
SEQEND
  8
0
  0
SOLID
  8
0
 62
    15
 10
2.754895
 20
5.573769
 11
3.416961
 21
5.569978
 12
2.722195
 22
5.560974
 13
3.384260
 23
5.557656
  0
POLYLINE
  8
0
  6
CONTINUOUS
 66
     1
 40
0.000000
 41
0.000000
  0
VERTEX
  8
0
  6
CONTINUOUS
 10
2.754895
 20
5.573769
  0
VERTEX
  8
0
  6
CONTINUOUS
 10
3.416961
 20
5.569978
  0
VERTEX
  8
0
  6
CONTINUOUS
 10
3.384260
 20
5.557656
  0
VERTEX
  8
0
  6
CONTINUOUS
 10
2.722195
 20
5.560974
  0
VERTEX
  8
0
  6
CONTINUOUS
 10
2.754895
 20
5.573769
  0
SEQEND
  8
0
  0
SOLID
  8
0
 62
    15
 10
2.707029
 20
5.557656
 11
3.369095
 21
5.554339
 12
2.684281
 22
5.557656
 13
3.346347
 23
5.554339
  0
POLYLINE
  8
0
  6
CONTINUOUS
 66
     1
 40
0.000000
 41
0.000000
  0
VERTEX
  8
0
  6
CONTINUOUS
 10
2.707029
 20
5.557656
  0
VERTEX
  8
0
  6
CONTINUOUS
 10
3.369095
 20
5.554339
  0
VERTEX
  8
0
  6
CONTINUOUS
 10
3.346347
 20
5.554339
  0
VERTEX
  8
0
  6
CONTINUOUS
 10
2.684281
 20
5.557656
  0
VERTEX
  8
0
  6
CONTINUOUS
 10
2.707029
 20
5.557656
  0
SEQEND
  8
0
  0
SOLID
  8
0
 62
    15
 10
2.722195
 20
5.560974
 11
3.384260
 21
5.557656
 12
2.707029
 22
5.557656
 13
3.369095
 23
5.554339
  0
POLYLINE
  8
0
  6
CONTINUOUS
 66
     1
 40
0.000000
 41
0.000000
  0
VERTEX
  8
0
  6
CONTINUOUS
 10
2.722195
 20
5.560974
  0
VERTEX
  8
0
  6
CONTINUOUS
 10
3.384260
 20
5.557656
  0
VERTEX
  8
0
  6
CONTINUOUS
 10
3.369095
 20
5.554339
  0
VERTEX
  8
0
  6
CONTINUOUS
 10
2.707029
 20
5.557656
  0
VERTEX
  8
0
  6
CONTINUOUS
 10
2.722195
 20
5.560974
  0
SEQEND
  8
0
  0
POLYLINE
  8
0
  6
CONTINUOUS
 66
     1
 40
0.000000
 41
0.000000
  0
VERTEX
  8
0
  6
CONTINUOUS
 10
2.684281
 20
5.558130
  0
VERTEX
  8
0
  6
CONTINUOUS
 10
2.684281
 20
8.529133
  0
VERTEX
  8
0
  6
CONTINUOUS
 10
4.023578
 20
8.529133
  0
VERTEX
  8
0
  6
CONTINUOUS
 10
4.023578
 20
8.087439
  0
VERTEX
  8
0
  6
CONTINUOUS
 10
3.942538
 20
8.070378
  0
VERTEX
  8
0
  6
CONTINUOUS
 10
3.866711
 20
8.046208
  0
VERTEX
  8
0
  6
CONTINUOUS
 10
3.795149
 20
8.015878
  0
VERTEX
  8
0
  6
CONTINUOUS
 10
3.727852
 20
7.979860
  0
VERTEX
  8
0
  6
CONTINUOUS
 10
3.665295
 20
7.938629
  0
VERTEX
  8
0
  6
CONTINUOUS
 10
3.606529
 20
7.891711
  0
VERTEX
  8
0
  6
CONTINUOUS
 10
3.501319
 20
7.784605
  0
VERTEX
  8
0
  6
CONTINUOUS
 10
3.411274
 20
7.660912
  0
VERTEX
  8
0
  6
CONTINUOUS
 10
3.334973
 20
7.523949
  0
VERTEX
  8
0
  6
CONTINUOUS
 10
3.270994
 20
7.376086
  0
VERTEX
  8
0
  6
CONTINUOUS
 10
3.219336
 20
7.220640
  0
VERTEX
  8
0
  6
CONTINUOUS
 10
3.177631
 20
7.059982
  0
VERTEX
  8
0
  6
CONTINUOUS
 10
3.145405
 20
6.897427
  0
VERTEX
  8
0
  6
CONTINUOUS
 10
3.121235
 20
6.735347
  0
VERTEX
  8
0
  6
CONTINUOUS
 10
3.104648
 20
6.576583
  0
VERTEX
  8
0
  6
CONTINUOUS
 10
3.093748
 20
6.424455
  0
VERTEX
  8
0
  6
CONTINUOUS
 10
3.087587
 20
6.281332
  0
VERTEX
  8
0
  6
CONTINUOUS
 10
3.085217
 20
6.150056
  0
VERTEX
  8
0
  6
CONTINUOUS
 10
3.085691
 20
6.033945
  0
VERTEX
  8
0
  6
CONTINUOUS
 10
3.007494
 20
5.997928
  0
VERTEX
  8
0
  6
CONTINUOUS
 10
2.998964
 20
5.931105
  0
VERTEX
  8
0
  6
CONTINUOUS
 10
2.986168
 20
5.870917
  0
VERTEX
  8
0
  6
CONTINUOUS
 10
2.969107
 20
5.817838
  0
VERTEX
  8
0
  6
CONTINUOUS
 10
2.949202
 20
5.770446
  0
VERTEX
  8
0
  6
CONTINUOUS
 10
2.901810
 20
5.693197
  0
VERTEX
  8
0
  6
CONTINUOUS
 10
2.850153
 20
5.636801
  0
VERTEX
  8
0
  6
CONTINUOUS
 10
2.799444
 20
5.597939
  0
VERTEX
  8
0
  6
CONTINUOUS
 10
2.754895
 20
5.573769
  0
VERTEX
  8
0
  6
CONTINUOUS
 10
2.722195
 20
5.560974
  0
VERTEX
  8
0
  6
CONTINUOUS
 10
2.707029
 20
5.557656
  0
VERTEX
  8
0
  6
CONTINUOUS
 10
2.684281
 20
5.557656
  0
VERTEX
  8
0
  6
CONTINUOUS
 10
2.684281
 20
5.558130
  0
SEQEND
  8
0
  0
TEXT
  8
0
 10
3.342082
 20
0.748319
 40
0.137205
  1
BA  1305
 41
1.000000
  7
SN0
 71
     0
 72
     5
 11
4.023314
 21
0.748319
  0
TEXT
  8
0
 10
3.492788
 20
0.556856
 40
0.137205
  1
9/16"
 41
1.000000
  7
SN0
 71
     0
 72
     5
 11
3.873574
 21
0.556856
  0
TEXT
  8
0
 10
3.908890
 20
2.595658
 40
0.137205
  1
BA  1304
 41
1.000000
  7
SN0
 71
     0
 72
     5
 11
4.590122
 21
2.595658
  0
TEXT
  8
0
 10
3.798940
 20
2.394242
 40
0.137205
  1
7/8" x 2-1/8"
 41
1.000000
  7
SN0
 71
     0
 72
     5
 11
4.699179
 21
2.394242
  0
TEXT
  8
0
 10
4.001778
 20
5.774711
 40
0.137205
  1
BA  1303
 41
1.000000
  7
SN0
 71
     0
 72
     5
 11
4.683010
 21
5.774711
  0
TEXT
  8
0
 10
3.915051
 20
5.573295
 40
0.137205
  1
1-5/16" x 3"
 41
1.000000
  7
SN0
 71
     0
 72
     5
 11
4.769067
 21
5.573295
  0
TEXT
  8
0
 10
5.230652
 20
8.762301
 40
0.137205
  1
BA  1302
 41
1.000000
  7
SN0
 71
     0
 72
     5
 11
5.911884
 21
8.762301
  0
TEXT
  8
0
 10
5.307427
 20
8.560885
 40
0.137205
  1
1-1/16"
 41
1.000000
  7
SN0
 71
     0
 72
     5
 11
5.835134
 21
8.560885
  0
TEXT
  8
0
 10
9.987857
 20
9.295461
 40
0.137205
  1
BA  1302
 41
1.000000
  7
SN0
 71
     0
 72
     5
 11
10.669089
 21
9.295461
  0
TEXT
  8
0
 10
10.064632
 20
9.094045
 40
0.137205
  1
1-1/16"
 41
1.000000
  7
SN0
 71
     0
 72
     5
 11
10.592340
 21
9.094045
  0
TEXT
  8
0
 10
9.161341
 20
6.318297
 40
0.137205
  1
BA  1303
 41
1.000000
  7
SN0
 71
     0
 72
     5
 11
9.842573
 21
6.318297
  0
TEXT
  8
0
 10
9.074614
 20
6.117355
 40
0.137205
  1
1-5/16" x 3"
 41
1.000000
  7
SN0
 71
     0
 72
     5
 11
9.928630
 21
6.117355
  0
TEXT
  8
0
 10
9.514886
 20
2.940672
 40
0.137205
  1
BA  1304
 41
1.000000
  7
SN0
 71
     0
 72
     5
 11
10.196117
 21
2.940672
  0
TEXT
  8
0
 10
9.405410
 20
2.739256
 40
0.137205
  1
7/8" x 2-1/8"
 41
1.000000
  7
SN0
 71
     0
 72
     5
 11
10.305649
 21
2.739256
  0
TEXT
  8
0
 10
1.211339
 20
0.644531
 40
0.137205
  1
BA  1305
 41
1.000000
  7
SN0
 71
     0
 72
     5
 11
1.892571
 21
0.644531
  0
TEXT
  8
0
 10
1.362045
 20
0.453067
 40
0.137205
  1
9/16"
 41
1.000000
  7
SN0
 71
     0
 72
     5
 11
1.742831
 21
0.453067
  0
POLYLINE
  8
0
  6
CONTINUOUS
 66
     1
 40
0.000000
 41
0.000000
  0
VERTEX
  8
0
  6
CONTINUOUS
 10
7.736265
 20
8.605434
  0
VERTEX
  8
0
  6
CONTINUOUS
 10
7.174196
 20
8.605434
  0
VERTEX
  8
0
  6
CONTINUOUS
 10
7.174196
 20
8.357100
  0
VERTEX
  8
0
  6
CONTINUOUS
 10
7.174196
 20
1.517017
  0
VERTEX
  8
0
  6
CONTINUOUS
 10
7.174196
 20
1.196173
  0
VERTEX
  8
0
  6
CONTINUOUS
 10
7.318742
 20
1.196173
  0
VERTEX
  8
0
  6
CONTINUOUS
 10
7.318268
 20
1.172951
  0
VERTEX
  8
0
  6
CONTINUOUS
 10
7.318268
 20
1.150677
  0
VERTEX
  8
0
  6
CONTINUOUS
 10
7.318742
 20
1.130298
  0
VERTEX
  8
0
  6
CONTINUOUS
 10
7.320163
 20
1.110868
  0
VERTEX
  8
0
  6
CONTINUOUS
 10
7.321585
 20
1.093333
  0
VERTEX
  8
0
  6
CONTINUOUS
 10
7.323481
 20
1.076272
  0
VERTEX
  8
0
  6
CONTINUOUS
 10
7.326324
 20
1.060632
  0
VERTEX
  8
0
  6
CONTINUOUS
 10
7.329168
 20
1.046415
  0
VERTEX
  8
0
  6
CONTINUOUS
 10
7.332485
 20
1.032671
  0
VERTEX
  8
0
  6
CONTINUOUS
 10
7.336277
 20
1.020349
  0
VERTEX
  8
0
  6
CONTINUOUS
 10
7.340068
 20
1.008501
  0
VERTEX
  8
0
  6
CONTINUOUS
 10
7.349546
 20
0.987649
  0
VERTEX
  8
0
  6
CONTINUOUS
 10
7.354760
 20
0.978644
  0
VERTEX
  8
0
  6
CONTINUOUS
 10
7.359973
 20
0.970114
  0
VERTEX
  8
0
  6
CONTINUOUS
 10
7.365660
 20
0.962057
  0
VERTEX
  8
0
  6
CONTINUOUS
 10
7.377508
 20
0.947365
  0
VERTEX
  8
0
  6
CONTINUOUS
 10
7.390304
 20
0.935044
  0
VERTEX
  8
0
  6
CONTINUOUS
 10
7.403573
 20
0.923196
  0
VERTEX
  8
0
  6
CONTINUOUS
 10
7.417791
 20
0.912295
  0
VERTEX
  8
0
  6
CONTINUOUS
 10
7.446700
 20
0.890969
  0
VERTEX
  8
0
  6
CONTINUOUS
 10
7.461392
 20
0.879595
  0
VERTEX
  8
0
  6
CONTINUOUS
 10
7.475609
 20
0.866799
  0
VERTEX
  8
0
  6
CONTINUOUS
 10
7.489827
 20
0.853055
  0
VERTEX
  8
0
  6
CONTINUOUS
 10
7.503096
 20
0.838364
  0
VERTEX
  8
0
  6
CONTINUOUS
 10
7.515892
 20
0.823672
  0
VERTEX
  8
0
  6
CONTINUOUS
 10
7.527740
 20
0.808507
  0
VERTEX
  8
0
  6
CONTINUOUS
 10
7.539114
 20
0.792394
  0
VERTEX
  8
0
  6
CONTINUOUS
 10
7.549541
 20
0.776280
  0
VERTEX
  8
0
  6
CONTINUOUS
 10
7.559493
 20
0.760167
  0
VERTEX
  8
0
  6
CONTINUOUS
 10
7.568497
 20
0.743106
  0
VERTEX
  8
0
  6
CONTINUOUS
 10
7.576554
 20
0.726045
  0
VERTEX
  8
0
  6
CONTINUOUS
 10
7.583663
 20
0.708984
  0
VERTEX
  8
0
  6
CONTINUOUS
 10
7.589824
 20
0.691449
  0
VERTEX
  8
0
  6
CONTINUOUS
 10
7.594563
 20
0.673440
  0
VERTEX
  8
0
  6
CONTINUOUS
 10
7.598828
 20
0.655905
  0
VERTEX
  8
0
  6
CONTINUOUS
 10
7.601672
 20
0.637896
  0
VERTEX
  8
0
  6
CONTINUOUS
 10
7.603567
 20
0.619887
  0
VERTEX
  8
0
  6
CONTINUOUS
 10
7.604041
 20
0.601878
  0
VERTEX
  8
0
  6
CONTINUOUS
 10
7.736265
 20
0.601878
  0
VERTEX
  8
0
  6
CONTINUOUS
 10
7.736265
 20
8.604960
  0
SEQEND
  8
0
  0
POLYLINE
  8
0
  6
CONTINUOUS
 66
     1
 40
0.000000
 41
0.000000
  0
VERTEX
  8
0
  6
CONTINUOUS
 10
6.315928
 20
8.662778
  0
VERTEX
  8
0
  6
CONTINUOUS
 10
6.877996
 20
8.662778
  0
VERTEX
  8
0
  6
CONTINUOUS
 10
6.877996
 20
8.413970
  0
VERTEX
  8
0
  6
CONTINUOUS
 10
6.877996
 20
1.574361
  0
VERTEX
  8
0
  6
CONTINUOUS
 10
6.877996
 20
1.253044
  0
VERTEX
  8
0
  6
CONTINUOUS
 10
6.733451
 20
1.253044
  0
VERTEX
  8
0
  6
CONTINUOUS
 10
6.733925
 20
1.229822
  0
VERTEX
  8
0
  6
CONTINUOUS
 10
6.733925
 20
1.208021
  0
VERTEX
  8
0
  6
CONTINUOUS
 10
6.733451
 20
1.187169
  0
VERTEX
  8
0
  6
CONTINUOUS
 10
6.732029
 20
1.168212
  0
VERTEX
  8
0
  6
CONTINUOUS
 10
6.730607
 20
1.150203
  0
VERTEX
  8
0
  6
CONTINUOUS
 10
6.728712
 20
1.133616
  0
VERTEX
  8
0
  6
CONTINUOUS
 10
6.725868
 20
1.117977
  0
VERTEX
  8
0
  6
CONTINUOUS
 10
6.723025
 20
1.103285
  0
VERTEX
  8
0
  6
CONTINUOUS
 10
6.719707
 20
1.090015
  0
VERTEX
  8
0
  6
CONTINUOUS
 10
6.715916
 20
1.077219
  0
VERTEX
  8
0
  6
CONTINUOUS
 10
6.712124
 20
1.065845
  0
VERTEX
  8
0
  6
CONTINUOUS
 10
6.707385
 20
1.054945
  0
VERTEX
  8
0
  6
CONTINUOUS
 10
6.702646
 20
1.044993
  0
VERTEX
  8
0
  6
CONTINUOUS
 10
6.697433
 20
1.035988
  0
VERTEX
  8
0
  6
CONTINUOUS
 10
6.692220
 20
1.027458
  0
VERTEX
  8
0
  6
CONTINUOUS
 10
6.686533
 20
1.019401
  0
VERTEX
  8
0
  6
CONTINUOUS
 10
6.674685
 20
1.004710
  0
VERTEX
  8
0
  6
CONTINUOUS
 10
6.661889
 20
0.991914
  0
VERTEX
  8
0
  6
CONTINUOUS
 10
6.648619
 20
0.980540
  0
VERTEX
  8
0
  6
CONTINUOUS
 10
6.634402
 20
0.969640
  0
VERTEX
  8
0
  6
CONTINUOUS
 10
6.605493
 20
0.948313
  0
VERTEX
  8
0
  6
CONTINUOUS
 10
6.590801
 20
0.936939
  0
VERTEX
  8
0
  6
CONTINUOUS
 10
6.576583
 20
0.924143
  0
VERTEX
  8
0
  6
CONTINUOUS
 10
6.562366
 20
0.910400
  0
VERTEX
  8
0
  6
CONTINUOUS
 10
6.549096
 20
0.895708
  0
VERTEX
  8
0
  6
CONTINUOUS
 10
6.536300
 20
0.881017
  0
VERTEX
  8
0
  6
CONTINUOUS
 10
6.524452
 20
0.865851
  0
VERTEX
  8
0
  6
CONTINUOUS
 10
6.513078
 20
0.849738
  0
VERTEX
  8
0
  6
CONTINUOUS
 10
6.502652
 20
0.833625
  0
VERTEX
  8
0
  6
CONTINUOUS
 10
6.492700
 20
0.817511
  0
VERTEX
  8
0
  6
CONTINUOUS
 10
6.483695
 20
0.800450
  0
VERTEX
  8
0
  6
CONTINUOUS
 10
6.475639
 20
0.783389
  0
VERTEX
  8
0
  6
CONTINUOUS
 10
6.468530
 20
0.765854
  0
VERTEX
  8
0
  6
CONTINUOUS
 10
6.462369
 20
0.748319
  0
VERTEX
  8
0
  6
CONTINUOUS
 10
6.457630
 20
0.730784
  0
VERTEX
  8
0
  6
CONTINUOUS
 10
6.453364
 20
0.712775
  0
VERTEX
  8
0
  6
CONTINUOUS
 10
6.450521
 20
0.694766
  0
VERTEX
  8
0
  6
CONTINUOUS
 10
6.448625
 20
0.676757
  0
VERTEX
  8
0
  6
CONTINUOUS
 10
6.448151
 20
0.658748
  0
VERTEX
  8
0
  6
CONTINUOUS
 10
6.315928
 20
0.658748
  0
VERTEX
  8
0
  6
CONTINUOUS
 10
6.315928
 20
8.662304
  0
SEQEND
  8
0
  0
ENDSEC
  0
EOF
