  0
SECTION
  2
HEADER
  9
$ACADVER
  1
AC1006
  9
$EXTMIN
 10
2.049080
 20
0.935880
  9
$EXTMAX
 10
7.854440
 20
10.023200
  9
$LTSCALE
 40
0.044000
  9
$PDMODE
 70
    35
  9
$PDSIZE
 40
0.035200
  0
ENDSEC
  0
SECTION
  2
TABLES
  0
TABLE
  2
LTYPE
 70
     9
  0
LTYPE
  2
CONTINUOUS
 70
    64
  3
Solid line
 72
    65
 73
     0
 40
0.000000
  0
LTYPE
  2
DASHED
 70
    64
  3
__ __ __ __ __ __ __ __ __ __ __ __ __ __ __
 72
    65
 73
     2
 40
0.000330
 49
0.000220
 49
-0.000110
  0
LTYPE
  2
HIDDEN
 70
    64
  3
 _ _ _ _ _ _ _ _ _ _ _ _ _ _ _ _ _ _ _ _ _ _
 72
    65
 73
     2
 40
0.000165
 49
0.000110
 49
-0.000055
  0
LTYPE
  2
CENTER
 70
    64
  3
____ _ ____ _ ____ _ ____ _ ____ _ ____ _ ____
 72
    65
 73
     4
 40
0.000880
 49
0.000550
 49
-0.000110
 49
0.000110
 49
-0.000110
  0
LTYPE
  2
PHANTOM
 70
    64
  3
_____ _ _ _____ _ _ _____ _ _ _____ _ _ ____
 72
    65
 73
     6
 40
0.001100
 49
0.000550
 49
-0.000110
 49
0.000110
 49
-0.000110
 49
0.000110
 49
-0.000110
  0
LTYPE
  2
DOT
 70
    64
  3
...............................................
 72
    65
 73
     2
 40
0.000110
 49
0.000000
 49
-0.000110
  0
LTYPE
  2
DASHDOT
 70
    64
  3
__ . __ . __ . __ . __ . __ . __ . __ . __ . __
 72
    65
 73
     4
 40
0.000440
 49
0.000220
 49
-0.000110
 49
0.000000
 49
-0.000110
  0
LTYPE
  2
BORDER
 70
    64
  3
__ __ . __ __ . __ __ . __ __ . __ __ . __ __
 72
    65
 73
     6
 40
0.000770
 49
0.000220
 49
-0.000110
 49
0.000220
 49
-0.000110
 49
0.000000
 49
-0.000110
  0
LTYPE
  2
DIVIDE
 70
    64
  3
__ . . __ . . __ . . __ . . __ . . __ . . __
 72
    65
 73
     6
 40
0.000550
 49
0.000220
 49
-0.000110
 49
0.000000
 49
-0.000110
 49
0.000000
 49
-0.000110
  0
LTYPE
  2
DOTDOT
 70
    64
  3
 . .  . .  . .  . .  . .  . . 
 72
    65
 73
     5
 40
0.000242
 49
-0.000110
 49
0.000000
 49
-0.000110
 49
0.000000
 49
-0.000110
  0
ENDTAB
  0
TABLE
  2
STYLE
 70
     2
  0
STYLE
 70
     0
  2
SN0
 40
0.000000
 41
0.000440
 50
0.000000
 71
     0
 42
0.000000
  3
ROMAND
  0
STYLE
 70
    68
  2
SV0
 40
0.000000
 41
0.000440
 50
0.000000
 71
     0
 42
0.000000
  3
ROMAND
  0
ENDTAB
  0
TABLE
  2
LAYER
 70
     3
  0
LAYER
  2
FOREGROUND
 70
    64
 62
     7
  6
CONTINUOUS
  0
LAYER
  2
BACKGROUND
 70
    65
 62
    -7
  6
CONTINUOUS
  0
LAYER
  2
0
 70
    64
 62
     7
  6
CONTINUOUS
  0
ENDTAB
  0
ENDSEC
  0
SECTION
  2
ENTITIES
  0
POLYLINE
  8
FOREGROUND
  6
CONTINUOUS
 66
     1
 40
0.000000
 41
0.000000
  0
VERTEX
  8
FOREGROUND
  6
CONTINUOUS
 10
0.000000
 20
10.959080
  0
VERTEX
  8
FOREGROUND
  6
CONTINUOUS
 10
8.499920
 20
10.959080
  0
VERTEX
  8
FOREGROUND
  6
CONTINUOUS
 10
8.499920
 20
-0.040920
  0
VERTEX
  8
FOREGROUND
  6
CONTINUOUS
 10
0.000000
 20
-0.040920
  0
VERTEX
  8
FOREGROUND
  6
CONTINUOUS
 10
0.000000
 20
10.959080
  0
SEQEND
  8
0
  0
POLYLINE
  8
FOREGROUND
  6
CONTINUOUS
 66
     1
 40
0.000000
 41
0.000000
  0
VERTEX
  8
FOREGROUND
  6
CONTINUOUS
 10
0.000000
 20
10.959080
  0
VERTEX
  8
FOREGROUND
  6
CONTINUOUS
 10
8.499920
 20
10.959080
  0
VERTEX
  8
FOREGROUND
  6
CONTINUOUS
 10
8.499920
 20
-0.040920
  0
VERTEX
  8
FOREGROUND
  6
CONTINUOUS
 10
0.000000
 20
-0.040920
  0
VERTEX
  8
FOREGROUND
  6
CONTINUOUS
 10
0.000000
 20
10.959080
  0
SEQEND
  8
0
  0
POLYLINE
  8
0
  6
CONTINUOUS
 66
     1
 40
0.014080
 41
0.014080
  0
VERTEX
  8
0
  6
CONTINUOUS
 10
7.662600
 20
6.707800
  0
VERTEX
  8
0
  6
CONTINUOUS
 10
4.692160
 20
6.707800
  0
VERTEX
  8
0
  6
CONTINUOUS
 10
4.692160
 20
8.046720
  0
VERTEX
  8
0
  6
CONTINUOUS
 10
5.133480
 20
8.046720
  0
VERTEX
  8
0
  6
CONTINUOUS
 10
5.141400
 20
8.005800
  0
VERTEX
  8
0
  6
CONTINUOUS
 10
5.151080
 20
7.965760
  0
VERTEX
  8
0
  6
CONTINUOUS
 10
5.162080
 20
7.927480
  0
VERTEX
  8
0
  6
CONTINUOUS
 10
5.174840
 20
7.890080
  0
VERTEX
  8
0
  6
CONTINUOUS
 10
5.205200
 20
7.818360
  0
VERTEX
  8
0
  6
CONTINUOUS
 10
5.222360
 20
7.784480
  0
VERTEX
  8
0
  6
CONTINUOUS
 10
5.261080
 20
7.719360
  0
VERTEX
  8
0
  6
CONTINUOUS
 10
5.305080
 20
7.658640
  0
VERTEX
  8
0
  6
CONTINUOUS
 10
5.354360
 20
7.602320
  0
VERTEX
  8
0
  6
CONTINUOUS
 10
5.408040
 20
7.549520
  0
VERTEX
  8
0
  6
CONTINUOUS
 10
5.466120
 20
7.501120
  0
VERTEX
  8
0
  6
CONTINUOUS
 10
5.527720
 20
7.455800
  0
VERTEX
  8
0
  6
CONTINUOUS
 10
5.593280
 20
7.414440
  0
VERTEX
  8
0
  6
CONTINUOUS
 10
5.661920
 20
7.376160
  0
VERTEX
  8
0
  6
CONTINUOUS
 10
5.733200
 20
7.341400
  0
VERTEX
  8
0
  6
CONTINUOUS
 10
5.807120
 20
7.309280
  0
VERTEX
  8
0
  6
CONTINUOUS
 10
5.921960
 20
7.267040
  0
VERTEX
  8
0
  6
CONTINUOUS
 10
6.000720
 20
7.242400
  0
VERTEX
  8
0
  6
CONTINUOUS
 10
6.080360
 20
7.220400
  0
VERTEX
  8
0
  6
CONTINUOUS
 10
6.161320
 20
7.201040
  0
VERTEX
  8
0
  6
CONTINUOUS
 10
6.242280
 20
7.183880
  0
VERTEX
  8
0
  6
CONTINUOUS
 10
6.323680
 20
7.168920
  0
VERTEX
  8
0
  6
CONTINUOUS
 10
6.405080
 20
7.155720
  0
VERTEX
  8
0
  6
CONTINUOUS
 10
6.486040
 20
7.144720
  0
VERTEX
  8
0
  6
CONTINUOUS
 10
6.565680
 20
7.135480
  0
VERTEX
  8
0
  6
CONTINUOUS
 10
6.721440
 20
7.121840
  0
VERTEX
  8
0
  6
CONTINUOUS
 10
6.869720
 20
7.113480
  0
VERTEX
  8
0
  6
CONTINUOUS
 10
7.071240
 20
7.108640
  0
VERTEX
  8
0
  6
CONTINUOUS
 10
7.187400
 20
7.109080
  0
VERTEX
  8
0
  6
CONTINUOUS
 10
7.223040
 20
7.030760
  0
VERTEX
  8
0
  6
CONTINUOUS
 10
7.257360
 20
7.027240
  0
VERTEX
  8
0
  6
CONTINUOUS
 10
7.289920
 20
7.022400
  0
VERTEX
  8
0
  6
CONTINUOUS
 10
7.350200
 20
7.009200
  0
VERTEX
  8
0
  6
CONTINUOUS
 10
7.403440
 20
6.992480
  0
VERTEX
  8
0
  6
CONTINUOUS
 10
7.450520
 20
6.972240
  0
VERTEX
  8
0
  6
CONTINUOUS
 10
7.491880
 20
6.949800
  0
VERTEX
  8
0
  6
CONTINUOUS
 10
7.527960
 20
6.925160
  0
VERTEX
  8
0
  6
CONTINUOUS
 10
7.558760
 20
6.899640
  0
VERTEX
  8
0
  6
CONTINUOUS
 10
7.595720
 20
6.860480
  0
VERTEX
  8
0
  6
CONTINUOUS
 10
7.623440
 20
6.822640
  0
VERTEX
  8
0
  6
CONTINUOUS
 10
7.647640
 20
6.778200
  0
VERTEX
  8
0
  6
CONTINUOUS
 10
7.661720
 20
6.739920
  0
VERTEX
  8
0
  6
CONTINUOUS
 10
7.663480
 20
6.730240
  0
VERTEX
  8
0
  6
CONTINUOUS
 10
7.663480
 20
6.707800
  0
VERTEX
  8
0
  6
CONTINUOUS
 10
7.662600
 20
6.707800
  0
SEQEND
  8
0
  0
SOLID
  8
0
 62
    15
 10
2.611840
 20
8.962360
 11
3.292080
 21
8.962360
 12
2.611840
 22
1.552760
 13
3.292080
 23
1.552760
  0
POLYLINE
  8
0
  6
CONTINUOUS
 66
     1
 40
0.000000
 41
0.000000
  0
VERTEX
  8
0
  6
CONTINUOUS
 10
2.611840
 20
8.962360
  0
VERTEX
  8
0
  6
CONTINUOUS
 10
3.292080
 20
8.962360
  0
VERTEX
  8
0
  6
CONTINUOUS
 10
3.292080
 20
1.552760
  0
VERTEX
  8
0
  6
CONTINUOUS
 10
2.611840
 20
1.552760
  0
VERTEX
  8
0
  6
CONTINUOUS
 10
2.611840
 20
8.962360
  0
SEQEND
  8
0
  0
SOLID
  8
0
 62
    15
 10
2.467080
 20
1.552760
 11
3.147760
 21
1.552760
 12
2.465760
 22
1.467840
 13
3.146440
 23
1.467840
  0
POLYLINE
  8
0
  6
CONTINUOUS
 66
     1
 40
0.000000
 41
0.000000
  0
VERTEX
  8
0
  6
CONTINUOUS
 10
2.467080
 20
1.552760
  0
VERTEX
  8
0
  6
CONTINUOUS
 10
3.147760
 20
1.552760
  0
VERTEX
  8
0
  6
CONTINUOUS
 10
3.146440
 20
1.467840
  0
VERTEX
  8
0
  6
CONTINUOUS
 10
2.465760
 20
1.467840
  0
VERTEX
  8
0
  6
CONTINUOUS
 10
2.467080
 20
1.552760
  0
SEQEND
  8
0
  0
SOLID
  8
0
 62
    15
 10
2.465760
 20
1.467840
 11
3.146440
 21
1.467840
 12
2.456960
 22
1.402720
 13
3.137200
 23
1.402720
  0
POLYLINE
  8
0
  6
CONTINUOUS
 66
     1
 40
0.000000
 41
0.000000
  0
VERTEX
  8
0
  6
CONTINUOUS
 10
2.465760
 20
1.467840
  0
VERTEX
  8
0
  6
CONTINUOUS
 10
3.146440
 20
1.467840
  0
VERTEX
  8
0
  6
CONTINUOUS
 10
3.137200
 20
1.402720
  0
VERTEX
  8
0
  6
CONTINUOUS
 10
2.456960
 20
1.402720
  0
VERTEX
  8
0
  6
CONTINUOUS
 10
2.465760
 20
1.467840
  0
SEQEND
  8
0
  0
SOLID
  8
0
 62
    15
 10
2.456960
 20
1.402720
 11
3.137200
 21
1.402720
 12
2.441120
 22
1.354760
 13
3.121800
 23
1.354760
  0
POLYLINE
  8
0
  6
CONTINUOUS
 66
     1
 40
0.000000
 41
0.000000
  0
VERTEX
  8
0
  6
CONTINUOUS
 10
2.456960
 20
1.402720
  0
VERTEX
  8
0
  6
CONTINUOUS
 10
3.137200
 20
1.402720
  0
VERTEX
  8
0
  6
CONTINUOUS
 10
3.121800
 20
1.354760
  0
VERTEX
  8
0
  6
CONTINUOUS
 10
2.441120
 20
1.354760
  0
VERTEX
  8
0
  6
CONTINUOUS
 10
2.456960
 20
1.402720
  0
SEQEND
  8
0
  0
SOLID
  8
0
 62
    15
 10
2.441120
 20
1.354760
 11
3.121800
 21
1.354760
 12
2.420440
 22
1.318680
 13
3.101120
 23
1.318680
  0
POLYLINE
  8
0
  6
CONTINUOUS
 66
     1
 40
0.000000
 41
0.000000
  0
VERTEX
  8
0
  6
CONTINUOUS
 10
2.441120
 20
1.354760
  0
VERTEX
  8
0
  6
CONTINUOUS
 10
3.121800
 20
1.354760
  0
VERTEX
  8
0
  6
CONTINUOUS
 10
3.101120
 20
1.318680
  0
VERTEX
  8
0
  6
CONTINUOUS
 10
2.420440
 20
1.318680
  0
VERTEX
  8
0
  6
CONTINUOUS
 10
2.441120
 20
1.354760
  0
SEQEND
  8
0
  0
SOLID
  8
0
 62
    15
 10
2.420440
 20
1.318680
 11
3.101120
 21
1.318680
 12
2.310440
 22
1.223200
 13
2.991120
 23
1.223200
  0
POLYLINE
  8
0
  6
CONTINUOUS
 66
     1
 40
0.000000
 41
0.000000
  0
VERTEX
  8
0
  6
CONTINUOUS
 10
2.420440
 20
1.318680
  0
VERTEX
  8
0
  6
CONTINUOUS
 10
3.101120
 20
1.318680
  0
VERTEX
  8
0
  6
CONTINUOUS
 10
2.991120
 20
1.223200
  0
VERTEX
  8
0
  6
CONTINUOUS
 10
2.310440
 20
1.223200
  0
VERTEX
  8
0
  6
CONTINUOUS
 10
2.420440
 20
1.318680
  0
SEQEND
  8
0
  0
SOLID
  8
0
 62
    15
 10
2.310440
 20
1.223200
 11
2.991120
 21
1.223200
 12
2.258080
 22
1.165120
 13
2.938760
 23
1.165120
  0
POLYLINE
  8
0
  6
CONTINUOUS
 66
     1
 40
0.000000
 41
0.000000
  0
VERTEX
  8
0
  6
CONTINUOUS
 10
2.310440
 20
1.223200
  0
VERTEX
  8
0
  6
CONTINUOUS
 10
2.991120
 20
1.223200
  0
VERTEX
  8
0
  6
CONTINUOUS
 10
2.938760
 20
1.165120
  0
VERTEX
  8
0
  6
CONTINUOUS
 10
2.258080
 20
1.165120
  0
VERTEX
  8
0
  6
CONTINUOUS
 10
2.310440
 20
1.223200
  0
SEQEND
  8
0
  0
SOLID
  8
0
 62
    15
 10
2.258080
 20
1.165120
 11
2.938760
 21
1.165120
 12
2.217600
 22
1.100000
 13
2.898280
 23
1.100000
  0
POLYLINE
  8
0
  6
CONTINUOUS
 66
     1
 40
0.000000
 41
0.000000
  0
VERTEX
  8
0
  6
CONTINUOUS
 10
2.258080
 20
1.165120
  0
VERTEX
  8
0
  6
CONTINUOUS
 10
2.938760
 20
1.165120
  0
VERTEX
  8
0
  6
CONTINUOUS
 10
2.898280
 20
1.100000
  0
VERTEX
  8
0
  6
CONTINUOUS
 10
2.217600
 20
1.100000
  0
VERTEX
  8
0
  6
CONTINUOUS
 10
2.258080
 20
1.165120
  0
SEQEND
  8
0
  0
SOLID
  8
0
 62
    15
 10
2.217600
 20
1.100000
 11
2.898280
 21
1.100000
 12
2.191200
 22
1.030480
 13
2.871880
 23
1.030480
  0
POLYLINE
  8
0
  6
CONTINUOUS
 66
     1
 40
0.000000
 41
0.000000
  0
VERTEX
  8
0
  6
CONTINUOUS
 10
2.217600
 20
1.100000
  0
VERTEX
  8
0
  6
CONTINUOUS
 10
2.898280
 20
1.100000
  0
VERTEX
  8
0
  6
CONTINUOUS
 10
2.871880
 20
1.030480
  0
VERTEX
  8
0
  6
CONTINUOUS
 10
2.191200
 20
1.030480
  0
VERTEX
  8
0
  6
CONTINUOUS
 10
2.217600
 20
1.100000
  0
SEQEND
  8
0
  0
SOLID
  8
0
 62
    15
 10
2.191200
 20
1.030480
 11
2.871880
 21
1.030480
 12
2.181960
 22
0.958320
 13
2.862640
 23
0.958320
  0
POLYLINE
  8
0
  6
CONTINUOUS
 66
     1
 40
0.000000
 41
0.000000
  0
VERTEX
  8
0
  6
CONTINUOUS
 10
2.191200
 20
1.030480
  0
VERTEX
  8
0
  6
CONTINUOUS
 10
2.871880
 20
1.030480
  0
VERTEX
  8
0
  6
CONTINUOUS
 10
2.862640
 20
0.958320
  0
VERTEX
  8
0
  6
CONTINUOUS
 10
2.181960
 20
0.958320
  0
VERTEX
  8
0
  6
CONTINUOUS
 10
2.191200
 20
1.030480
  0
SEQEND
  8
0
  0
SOLID
  8
0
 62
    15
 10
2.611840
 20
4.924040
 11
3.292080
 21
4.924040
 12
3.040400
 22
4.897200
 13
3.721080
 23
4.897200
  0
POLYLINE
  8
0
  6
CONTINUOUS
 66
     1
 40
0.000000
 41
0.000000
  0
VERTEX
  8
0
  6
CONTINUOUS
 10
2.611840
 20
4.924040
  0
VERTEX
  8
0
  6
CONTINUOUS
 10
3.292080
 20
4.924040
  0
VERTEX
  8
0
  6
CONTINUOUS
 10
3.721080
 20
4.897200
  0
VERTEX
  8
0
  6
CONTINUOUS
 10
3.040400
 20
4.897200
  0
VERTEX
  8
0
  6
CONTINUOUS
 10
2.611840
 20
4.924040
  0
SEQEND
  8
0
  0
SOLID
  8
0
 62
    15
 10
3.040400
 20
4.897200
 11
3.721080
 21
4.897200
 12
3.067240
 22
4.799080
 13
3.747920
 23
4.799080
  0
POLYLINE
  8
0
  6
CONTINUOUS
 66
     1
 40
0.000000
 41
0.000000
  0
VERTEX
  8
0
  6
CONTINUOUS
 10
3.040400
 20
4.897200
  0
VERTEX
  8
0
  6
CONTINUOUS
 10
3.721080
 20
4.897200
  0
VERTEX
  8
0
  6
CONTINUOUS
 10
3.747920
 20
4.799080
  0
VERTEX
  8
0
  6
CONTINUOUS
 10
3.067240
 20
4.799080
  0
VERTEX
  8
0
  6
CONTINUOUS
 10
3.040400
 20
4.897200
  0
SEQEND
  8
0
  0
SOLID
  8
0
 62
    15
 10
3.067240
 20
4.799080
 11
3.747920
 21
4.799080
 12
3.179000
 22
4.789840
 13
3.859680
 23
4.789840
  0
POLYLINE
  8
0
  6
CONTINUOUS
 66
     1
 40
0.000000
 41
0.000000
  0
VERTEX
  8
0
  6
CONTINUOUS
 10
3.067240
 20
4.799080
  0
VERTEX
  8
0
  6
CONTINUOUS
 10
3.747920
 20
4.799080
  0
VERTEX
  8
0
  6
CONTINUOUS
 10
3.859680
 20
4.789840
  0
VERTEX
  8
0
  6
CONTINUOUS
 10
3.179000
 20
4.789840
  0
VERTEX
  8
0
  6
CONTINUOUS
 10
3.067240
 20
4.799080
  0
SEQEND
  8
0
  0
SOLID
  8
0
 62
    15
 10
3.179000
 20
4.789840
 11
3.859680
 21
4.789840
 12
3.270960
 22
4.771800
 13
3.951200
 23
4.771800
  0
POLYLINE
  8
0
  6
CONTINUOUS
 66
     1
 40
0.000000
 41
0.000000
  0
VERTEX
  8
0
  6
CONTINUOUS
 10
3.179000
 20
4.789840
  0
VERTEX
  8
0
  6
CONTINUOUS
 10
3.859680
 20
4.789840
  0
VERTEX
  8
0
  6
CONTINUOUS
 10
3.951200
 20
4.771800
  0
VERTEX
  8
0
  6
CONTINUOUS
 10
3.270960
 20
4.771800
  0
VERTEX
  8
0
  6
CONTINUOUS
 10
3.179000
 20
4.789840
  0
SEQEND
  8
0
  0
SOLID
  8
0
 62
    15
 10
3.270960
 20
4.771800
 11
3.951200
 21
4.771800
 12
3.344440
 22
4.746280
 13
4.025120
 23
4.746280
  0
POLYLINE
  8
0
  6
CONTINUOUS
 66
     1
 40
0.000000
 41
0.000000
  0
VERTEX
  8
0
  6
CONTINUOUS
 10
3.270960
 20
4.771800
  0
VERTEX
  8
0
  6
CONTINUOUS
 10
3.951200
 20
4.771800
  0
VERTEX
  8
0
  6
CONTINUOUS
 10
4.025120
 20
4.746280
  0
VERTEX
  8
0
  6
CONTINUOUS
 10
3.344440
 20
4.746280
  0
VERTEX
  8
0
  6
CONTINUOUS
 10
3.270960
 20
4.771800
  0
SEQEND
  8
0
  0
SOLID
  8
0
 62
    15
 10
3.344440
 20
4.746280
 11
4.025120
 21
4.746280
 12
3.401640
 22
4.712840
 13
4.082320
 23
4.712840
  0
POLYLINE
  8
0
  6
CONTINUOUS
 66
     1
 40
0.000000
 41
0.000000
  0
VERTEX
  8
0
  6
CONTINUOUS
 10
3.344440
 20
4.746280
  0
VERTEX
  8
0
  6
CONTINUOUS
 10
4.025120
 20
4.746280
  0
VERTEX
  8
0
  6
CONTINUOUS
 10
4.082320
 20
4.712840
  0
VERTEX
  8
0
  6
CONTINUOUS
 10
3.401640
 20
4.712840
  0
VERTEX
  8
0
  6
CONTINUOUS
 10
3.344440
 20
4.746280
  0
SEQEND
  8
0
  0
SOLID
  8
0
 62
    15
 10
3.401640
 20
4.712840
 11
4.082320
 21
4.712840
 12
3.444760
 22
4.672800
 13
4.125440
 23
4.672800
  0
POLYLINE
  8
0
  6
CONTINUOUS
 66
     1
 40
0.000000
 41
0.000000
  0
VERTEX
  8
0
  6
CONTINUOUS
 10
3.401640
 20
4.712840
  0
VERTEX
  8
0
  6
CONTINUOUS
 10
4.082320
 20
4.712840
  0
VERTEX
  8
0
  6
CONTINUOUS
 10
4.125440
 20
4.672800
  0
VERTEX
  8
0
  6
CONTINUOUS
 10
3.444760
 20
4.672800
  0
VERTEX
  8
0
  6
CONTINUOUS
 10
3.401640
 20
4.712840
  0
SEQEND
  8
0
  0
SOLID
  8
0
 62
    15
 10
3.444760
 20
4.672800
 11
4.125440
 21
4.672800
 12
3.475120
 22
4.625720
 13
4.155360
 23
4.625720
  0
POLYLINE
  8
0
  6
CONTINUOUS
 66
     1
 40
0.000000
 41
0.000000
  0
VERTEX
  8
0
  6
CONTINUOUS
 10
3.444760
 20
4.672800
  0
VERTEX
  8
0
  6
CONTINUOUS
 10
4.125440
 20
4.672800
  0
VERTEX
  8
0
  6
CONTINUOUS
 10
4.155360
 20
4.625720
  0
VERTEX
  8
0
  6
CONTINUOUS
 10
3.475120
 20
4.625720
  0
VERTEX
  8
0
  6
CONTINUOUS
 10
3.444760
 20
4.672800
  0
SEQEND
  8
0
  0
SOLID
  8
0
 62
    15
 10
3.475120
 20
4.625720
 11
4.155360
 21
4.625720
 12
3.505040
 22
4.513080
 13
4.185720
 23
4.513080
  0
POLYLINE
  8
0
  6
CONTINUOUS
 66
     1
 40
0.000000
 41
0.000000
  0
VERTEX
  8
0
  6
CONTINUOUS
 10
3.475120
 20
4.625720
  0
VERTEX
  8
0
  6
CONTINUOUS
 10
4.155360
 20
4.625720
  0
VERTEX
  8
0
  6
CONTINUOUS
 10
4.185720
 20
4.513080
  0
VERTEX
  8
0
  6
CONTINUOUS
 10
3.505040
 20
4.513080
  0
VERTEX
  8
0
  6
CONTINUOUS
 10
3.475120
 20
4.625720
  0
SEQEND
  8
0
  0
SOLID
  8
0
 62
    15
 10
3.505040
 20
4.513080
 11
4.185720
 21
4.513080
 12
3.506800
 22
4.138200
 13
4.187480
 23
4.138200
  0
POLYLINE
  8
0
  6
CONTINUOUS
 66
     1
 40
0.000000
 41
0.000000
  0
VERTEX
  8
0
  6
CONTINUOUS
 10
3.505040
 20
4.513080
  0
VERTEX
  8
0
  6
CONTINUOUS
 10
4.185720
 20
4.513080
  0
VERTEX
  8
0
  6
CONTINUOUS
 10
4.187480
 20
4.138200
  0
VERTEX
  8
0
  6
CONTINUOUS
 10
3.506800
 20
4.138200
  0
VERTEX
  8
0
  6
CONTINUOUS
 10
3.505040
 20
4.513080
  0
SEQEND
  8
0
  0
SOLID
  8
0
 62
    15
 10
3.506800
 20
4.138200
 11
4.187480
 21
4.138200
 12
3.492280
 22
4.065160
 13
4.172960
 23
4.065160
  0
POLYLINE
  8
0
  6
CONTINUOUS
 66
     1
 40
0.000000
 41
0.000000
  0
VERTEX
  8
0
  6
CONTINUOUS
 10
3.506800
 20
4.138200
  0
VERTEX
  8
0
  6
CONTINUOUS
 10
4.187480
 20
4.138200
  0
VERTEX
  8
0
  6
CONTINUOUS
 10
4.172960
 20
4.065160
  0
VERTEX
  8
0
  6
CONTINUOUS
 10
3.492280
 20
4.065160
  0
VERTEX
  8
0
  6
CONTINUOUS
 10
3.506800
 20
4.138200
  0
SEQEND
  8
0
  0
SOLID
  8
0
 62
    15
 10
3.492280
 20
4.065160
 11
4.172960
 21
4.065160
 12
3.470280
 22
4.036120
 13
4.150960
 23
4.036120
  0
POLYLINE
  8
0
  6
CONTINUOUS
 66
     1
 40
0.000000
 41
0.000000
  0
VERTEX
  8
0
  6
CONTINUOUS
 10
3.492280
 20
4.065160
  0
VERTEX
  8
0
  6
CONTINUOUS
 10
4.172960
 20
4.065160
  0
VERTEX
  8
0
  6
CONTINUOUS
 10
4.150960
 20
4.036120
  0
VERTEX
  8
0
  6
CONTINUOUS
 10
3.470280
 20
4.036120
  0
VERTEX
  8
0
  6
CONTINUOUS
 10
3.492280
 20
4.065160
  0
SEQEND
  8
0
  0
SOLID
  8
0
 62
    15
 10
3.470280
 20
4.036120
 11
4.150960
 21
4.036120
 12
3.434640
 22
4.024680
 13
4.115320
 23
4.024680
  0
POLYLINE
  8
0
  6
CONTINUOUS
 66
     1
 40
0.000000
 41
0.000000
  0
VERTEX
  8
0
  6
CONTINUOUS
 10
3.470280
 20
4.036120
  0
VERTEX
  8
0
  6
CONTINUOUS
 10
4.150960
 20
4.036120
  0
VERTEX
  8
0
  6
CONTINUOUS
 10
4.115320
 20
4.024680
  0
VERTEX
  8
0
  6
CONTINUOUS
 10
3.434640
 20
4.024680
  0
VERTEX
  8
0
  6
CONTINUOUS
 10
3.470280
 20
4.036120
  0
SEQEND
  8
0
  0
SOLID
  8
0
 62
    15
 10
3.434640
 20
4.024680
 11
4.115320
 21
4.024680
 12
3.360720
 22
4.016760
 13
4.040960
 23
4.016760
  0
POLYLINE
  8
0
  6
CONTINUOUS
 66
     1
 40
0.000000
 41
0.000000
  0
VERTEX
  8
0
  6
CONTINUOUS
 10
3.434640
 20
4.024680
  0
VERTEX
  8
0
  6
CONTINUOUS
 10
4.115320
 20
4.024680
  0
VERTEX
  8
0
  6
CONTINUOUS
 10
4.040960
 20
4.016760
  0
VERTEX
  8
0
  6
CONTINUOUS
 10
3.360720
 20
4.016760
  0
VERTEX
  8
0
  6
CONTINUOUS
 10
3.434640
 20
4.024680
  0
SEQEND
  8
0
  0
SOLID
  8
0
 62
    15
 10
3.360720
 20
4.016760
 11
4.040960
 21
4.016760
 12
3.294720
 22
3.998280
 13
3.975400
 23
3.998280
  0
POLYLINE
  8
0
  6
CONTINUOUS
 66
     1
 40
0.000000
 41
0.000000
  0
VERTEX
  8
0
  6
CONTINUOUS
 10
3.360720
 20
4.016760
  0
VERTEX
  8
0
  6
CONTINUOUS
 10
4.040960
 20
4.016760
  0
VERTEX
  8
0
  6
CONTINUOUS
 10
3.975400
 20
3.998280
  0
VERTEX
  8
0
  6
CONTINUOUS
 10
3.294720
 20
3.998280
  0
VERTEX
  8
0
  6
CONTINUOUS
 10
3.360720
 20
4.016760
  0
SEQEND
  8
0
  0
SOLID
  8
0
 62
    15
 10
3.294720
 20
3.998280
 11
3.975400
 21
3.998280
 12
3.186040
 22
3.933160
 13
3.866280
 23
3.933160
  0
POLYLINE
  8
0
  6
CONTINUOUS
 66
     1
 40
0.000000
 41
0.000000
  0
VERTEX
  8
0
  6
CONTINUOUS
 10
3.294720
 20
3.998280
  0
VERTEX
  8
0
  6
CONTINUOUS
 10
3.975400
 20
3.998280
  0
VERTEX
  8
0
  6
CONTINUOUS
 10
3.866280
 20
3.933160
  0
VERTEX
  8
0
  6
CONTINUOUS
 10
3.186040
 20
3.933160
  0
VERTEX
  8
0
  6
CONTINUOUS
 10
3.294720
 20
3.998280
  0
SEQEND
  8
0
  0
SOLID
  8
0
 62
    15
 10
3.186040
 20
3.933160
 11
3.866280
 21
3.933160
 12
3.102440
 22
3.839000
 13
3.783120
 23
3.839000
  0
POLYLINE
  8
0
  6
CONTINUOUS
 66
     1
 40
0.000000
 41
0.000000
  0
VERTEX
  8
0
  6
CONTINUOUS
 10
3.186040
 20
3.933160
  0
VERTEX
  8
0
  6
CONTINUOUS
 10
3.866280
 20
3.933160
  0
VERTEX
  8
0
  6
CONTINUOUS
 10
3.783120
 20
3.839000
  0
VERTEX
  8
0
  6
CONTINUOUS
 10
3.102440
 20
3.839000
  0
VERTEX
  8
0
  6
CONTINUOUS
 10
3.186040
 20
3.933160
  0
SEQEND
  8
0
  0
SOLID
  8
0
 62
    15
 10
3.102440
 20
3.839000
 11
3.783120
 21
3.839000
 12
3.039520
 22
3.726800
 13
3.719760
 23
3.726800
  0
POLYLINE
  8
0
  6
CONTINUOUS
 66
     1
 40
0.000000
 41
0.000000
  0
VERTEX
  8
0
  6
CONTINUOUS
 10
3.102440
 20
3.839000
  0
VERTEX
  8
0
  6
CONTINUOUS
 10
3.783120
 20
3.839000
  0
VERTEX
  8
0
  6
CONTINUOUS
 10
3.719760
 20
3.726800
  0
VERTEX
  8
0
  6
CONTINUOUS
 10
3.039520
 20
3.726800
  0
VERTEX
  8
0
  6
CONTINUOUS
 10
3.102440
 20
3.839000
  0
SEQEND
  8
0
  0
SOLID
  8
0
 62
    15
 10
3.039520
 20
3.726800
 11
3.719760
 21
3.726800
 12
2.952400
 22
3.488320
 13
3.633080
 23
3.488320
  0
POLYLINE
  8
0
  6
CONTINUOUS
 66
     1
 40
0.000000
 41
0.000000
  0
VERTEX
  8
0
  6
CONTINUOUS
 10
3.039520
 20
3.726800
  0
VERTEX
  8
0
  6
CONTINUOUS
 10
3.719760
 20
3.726800
  0
VERTEX
  8
0
  6
CONTINUOUS
 10
3.633080
 20
3.488320
  0
VERTEX
  8
0
  6
CONTINUOUS
 10
2.952400
 20
3.488320
  0
VERTEX
  8
0
  6
CONTINUOUS
 10
3.039520
 20
3.726800
  0
SEQEND
  8
0
  0
SOLID
  8
0
 62
    15
 10
2.952400
 20
3.488320
 11
3.633080
 21
3.488320
 12
2.918080
 22
3.382720
 13
3.598760
 23
3.382720
  0
POLYLINE
  8
0
  6
CONTINUOUS
 66
     1
 40
0.000000
 41
0.000000
  0
VERTEX
  8
0
  6
CONTINUOUS
 10
2.952400
 20
3.488320
  0
VERTEX
  8
0
  6
CONTINUOUS
 10
3.633080
 20
3.488320
  0
VERTEX
  8
0
  6
CONTINUOUS
 10
3.598760
 20
3.382720
  0
VERTEX
  8
0
  6
CONTINUOUS
 10
2.918080
 20
3.382720
  0
VERTEX
  8
0
  6
CONTINUOUS
 10
2.952400
 20
3.488320
  0
SEQEND
  8
0
  0
SOLID
  8
0
 62
    15
 10
2.918080
 20
3.382720
 11
3.598760
 21
3.382720
 12
2.882880
 22
3.300000
 13
3.563120
 23
3.300000
  0
POLYLINE
  8
0
  6
CONTINUOUS
 66
     1
 40
0.000000
 41
0.000000
  0
VERTEX
  8
0
  6
CONTINUOUS
 10
2.918080
 20
3.382720
  0
VERTEX
  8
0
  6
CONTINUOUS
 10
3.598760
 20
3.382720
  0
VERTEX
  8
0
  6
CONTINUOUS
 10
3.563120
 20
3.300000
  0
VERTEX
  8
0
  6
CONTINUOUS
 10
2.882880
 20
3.300000
  0
VERTEX
  8
0
  6
CONTINUOUS
 10
2.918080
 20
3.382720
  0
SEQEND
  8
0
  0
SOLID
  8
0
 62
    15
 10
2.882880
 20
3.300000
 11
3.563120
 21
3.300000
 12
2.787840
 22
3.218160
 13
3.468080
 23
3.218160
  0
POLYLINE
  8
0
  6
CONTINUOUS
 66
     1
 40
0.000000
 41
0.000000
  0
VERTEX
  8
0
  6
CONTINUOUS
 10
2.882880
 20
3.300000
  0
VERTEX
  8
0
  6
CONTINUOUS
 10
3.563120
 20
3.300000
  0
VERTEX
  8
0
  6
CONTINUOUS
 10
3.468080
 20
3.218160
  0
VERTEX
  8
0
  6
CONTINUOUS
 10
2.787840
 20
3.218160
  0
VERTEX
  8
0
  6
CONTINUOUS
 10
2.882880
 20
3.300000
  0
SEQEND
  8
0
  0
SOLID
  8
0
 62
    15
 10
2.787840
 20
3.218160
 11
3.468080
 21
3.218160
 12
2.834040
 22
3.189560
 13
3.514280
 23
3.189560
  0
POLYLINE
  8
0
  6
CONTINUOUS
 66
     1
 40
0.000000
 41
0.000000
  0
VERTEX
  8
0
  6
CONTINUOUS
 10
2.787840
 20
3.218160
  0
VERTEX
  8
0
  6
CONTINUOUS
 10
3.468080
 20
3.218160
  0
VERTEX
  8
0
  6
CONTINUOUS
 10
3.514280
 20
3.189560
  0
VERTEX
  8
0
  6
CONTINUOUS
 10
2.834040
 20
3.189560
  0
VERTEX
  8
0
  6
CONTINUOUS
 10
2.787840
 20
3.218160
  0
SEQEND
  8
0
  0
SOLID
  8
0
 62
    15
 10
2.834040
 20
3.189560
 11
3.514280
 21
3.189560
 12
2.863960
 22
3.149960
 13
3.544200
 23
3.149960
  0
POLYLINE
  8
0
  6
CONTINUOUS
 66
     1
 40
0.000000
 41
0.000000
  0
VERTEX
  8
0
  6
CONTINUOUS
 10
2.834040
 20
3.189560
  0
VERTEX
  8
0
  6
CONTINUOUS
 10
3.514280
 20
3.189560
  0
VERTEX
  8
0
  6
CONTINUOUS
 10
3.544200
 20
3.149960
  0
VERTEX
  8
0
  6
CONTINUOUS
 10
2.863960
 20
3.149960
  0
VERTEX
  8
0
  6
CONTINUOUS
 10
2.834040
 20
3.189560
  0
SEQEND
  8
0
  0
SOLID
  8
0
 62
    15
 10
2.863960
 20
3.149960
 11
3.544200
 21
3.149960
 12
2.878040
 22
3.103760
 13
3.558720
 23
3.103760
  0
POLYLINE
  8
0
  6
CONTINUOUS
 66
     1
 40
0.000000
 41
0.000000
  0
VERTEX
  8
0
  6
CONTINUOUS
 10
2.863960
 20
3.149960
  0
VERTEX
  8
0
  6
CONTINUOUS
 10
3.544200
 20
3.149960
  0
VERTEX
  8
0
  6
CONTINUOUS
 10
3.558720
 20
3.103760
  0
VERTEX
  8
0
  6
CONTINUOUS
 10
2.878040
 20
3.103760
  0
VERTEX
  8
0
  6
CONTINUOUS
 10
2.863960
 20
3.149960
  0
SEQEND
  8
0
  0
SOLID
  8
0
 62
    15
 10
2.878040
 20
3.103760
 11
3.558720
 21
3.103760
 12
2.877160
 22
3.056240
 13
3.557400
 23
3.056240
  0
POLYLINE
  8
0
  6
CONTINUOUS
 66
     1
 40
0.000000
 41
0.000000
  0
VERTEX
  8
0
  6
CONTINUOUS
 10
2.878040
 20
3.103760
  0
VERTEX
  8
0
  6
CONTINUOUS
 10
3.558720
 20
3.103760
  0
VERTEX
  8
0
  6
CONTINUOUS
 10
3.557400
 20
3.056240
  0
VERTEX
  8
0
  6
CONTINUOUS
 10
2.877160
 20
3.056240
  0
VERTEX
  8
0
  6
CONTINUOUS
 10
2.878040
 20
3.103760
  0
SEQEND
  8
0
  0
SOLID
  8
0
 62
    15
 10
2.877160
 20
3.056240
 11
3.557400
 21
3.056240
 12
2.860880
 22
3.011800
 13
3.541560
 23
3.011800
  0
POLYLINE
  8
0
  6
CONTINUOUS
 66
     1
 40
0.000000
 41
0.000000
  0
VERTEX
  8
0
  6
CONTINUOUS
 10
2.877160
 20
3.056240
  0
VERTEX
  8
0
  6
CONTINUOUS
 10
3.557400
 20
3.056240
  0
VERTEX
  8
0
  6
CONTINUOUS
 10
3.541560
 20
3.011800
  0
VERTEX
  8
0
  6
CONTINUOUS
 10
2.860880
 20
3.011800
  0
VERTEX
  8
0
  6
CONTINUOUS
 10
2.877160
 20
3.056240
  0
SEQEND
  8
0
  0
SOLID
  8
0
 62
    15
 10
2.860880
 20
3.011800
 11
3.541560
 21
3.011800
 12
2.830520
 22
2.974840
 13
3.510760
 23
2.974840
  0
POLYLINE
  8
0
  6
CONTINUOUS
 66
     1
 40
0.000000
 41
0.000000
  0
VERTEX
  8
0
  6
CONTINUOUS
 10
2.860880
 20
3.011800
  0
VERTEX
  8
0
  6
CONTINUOUS
 10
3.541560
 20
3.011800
  0
VERTEX
  8
0
  6
CONTINUOUS
 10
3.510760
 20
2.974840
  0
VERTEX
  8
0
  6
CONTINUOUS
 10
2.830520
 20
2.974840
  0
VERTEX
  8
0
  6
CONTINUOUS
 10
2.860880
 20
3.011800
  0
SEQEND
  8
0
  0
SOLID
  8
0
 62
    15
 10
2.830520
 20
2.974840
 11
3.510760
 21
2.974840
 12
2.785640
 22
2.949760
 13
3.465880
 23
2.949760
  0
POLYLINE
  8
0
  6
CONTINUOUS
 66
     1
 40
0.000000
 41
0.000000
  0
VERTEX
  8
0
  6
CONTINUOUS
 10
2.830520
 20
2.974840
  0
VERTEX
  8
0
  6
CONTINUOUS
 10
3.510760
 20
2.974840
  0
VERTEX
  8
0
  6
CONTINUOUS
 10
3.465880
 20
2.949760
  0
VERTEX
  8
0
  6
CONTINUOUS
 10
2.785640
 20
2.949760
  0
VERTEX
  8
0
  6
CONTINUOUS
 10
2.830520
 20
2.974840
  0
SEQEND
  8
0
  0
SOLID
  8
0
 62
    15
 10
2.785640
 20
2.949760
 11
3.465880
 21
2.949760
 12
2.727120
 22
2.941400
 13
3.407360
 23
2.941400
  0
POLYLINE
  8
0
  6
CONTINUOUS
 66
     1
 40
0.000000
 41
0.000000
  0
VERTEX
  8
0
  6
CONTINUOUS
 10
2.785640
 20
2.949760
  0
VERTEX
  8
0
  6
CONTINUOUS
 10
3.465880
 20
2.949760
  0
VERTEX
  8
0
  6
CONTINUOUS
 10
3.407360
 20
2.941400
  0
VERTEX
  8
0
  6
CONTINUOUS
 10
2.727120
 20
2.941400
  0
VERTEX
  8
0
  6
CONTINUOUS
 10
2.785640
 20
2.949760
  0
SEQEND
  8
0
  0
SOLID
  8
0
 62
    15
 10
2.727120
 20
2.941400
 11
3.407360
 21
2.941400
 12
2.727120
 22
2.813360
 13
3.407360
 23
2.813360
  0
POLYLINE
  8
0
  6
CONTINUOUS
 66
     1
 40
0.000000
 41
0.000000
  0
VERTEX
  8
0
  6
CONTINUOUS
 10
2.727120
 20
2.941400
  0
VERTEX
  8
0
  6
CONTINUOUS
 10
3.407360
 20
2.941400
  0
VERTEX
  8
0
  6
CONTINUOUS
 10
3.407360
 20
2.813360
  0
VERTEX
  8
0
  6
CONTINUOUS
 10
2.727120
 20
2.813360
  0
VERTEX
  8
0
  6
CONTINUOUS
 10
2.727120
 20
2.941400
  0
SEQEND
  8
0
  0
SOLID
  8
0
 62
    15
 10
2.727120
 20
2.813360
 11
3.407360
 21
2.813360
 12
2.727120
 22
2.811160
 13
3.407360
 23
2.811160
  0
POLYLINE
  8
0
  6
CONTINUOUS
 66
     1
 40
0.000000
 41
0.000000
  0
VERTEX
  8
0
  6
CONTINUOUS
 10
2.727120
 20
2.813360
  0
VERTEX
  8
0
  6
CONTINUOUS
 10
3.407360
 20
2.813360
  0
VERTEX
  8
0
  6
CONTINUOUS
 10
3.407360
 20
2.811160
  0
VERTEX
  8
0
  6
CONTINUOUS
 10
2.727120
 20
2.811160
  0
VERTEX
  8
0
  6
CONTINUOUS
 10
2.727120
 20
2.813360
  0
SEQEND
  8
0
  0
SOLID
  8
0
 62
    15
 10
4.188360
 20
10.021000
 11
4.868600
 21
10.021000
 12
4.188360
 22
9.816400
 13
4.868600
 23
9.816400
  0
POLYLINE
  8
0
  6
CONTINUOUS
 66
     1
 40
0.000000
 41
0.000000
  0
VERTEX
  8
0
  6
CONTINUOUS
 10
4.188360
 20
10.021000
  0
VERTEX
  8
0
  6
CONTINUOUS
 10
4.868600
 20
10.021000
  0
VERTEX
  8
0
  6
CONTINUOUS
 10
4.868600
 20
9.816400
  0
VERTEX
  8
0
  6
CONTINUOUS
 10
4.188360
 20
9.816400
  0
VERTEX
  8
0
  6
CONTINUOUS
 10
4.188360
 20
10.021000
  0
SEQEND
  8
0
  0
SOLID
  8
0
 62
    15
 10
4.188360
 20
9.816400
 11
4.868600
 21
9.816400
 12
4.291760
 22
9.758320
 13
4.972440
 23
9.758320
  0
POLYLINE
  8
0
  6
CONTINUOUS
 66
     1
 40
0.000000
 41
0.000000
  0
VERTEX
  8
0
  6
CONTINUOUS
 10
4.188360
 20
9.816400
  0
VERTEX
  8
0
  6
CONTINUOUS
 10
4.868600
 20
9.816400
  0
VERTEX
  8
0
  6
CONTINUOUS
 10
4.972440
 20
9.758320
  0
VERTEX
  8
0
  6
CONTINUOUS
 10
4.291760
 20
9.758320
  0
VERTEX
  8
0
  6
CONTINUOUS
 10
4.188360
 20
9.816400
  0
SEQEND
  8
0
  0
SOLID
  8
0
 62
    15
 10
4.291760
 20
9.758320
 11
4.972440
 21
9.758320
 12
4.365680
 22
9.679120
 13
5.045920
 23
9.679120
  0
POLYLINE
  8
0
  6
CONTINUOUS
 66
     1
 40
0.000000
 41
0.000000
  0
VERTEX
  8
0
  6
CONTINUOUS
 10
4.291760
 20
9.758320
  0
VERTEX
  8
0
  6
CONTINUOUS
 10
4.972440
 20
9.758320
  0
VERTEX
  8
0
  6
CONTINUOUS
 10
5.045920
 20
9.679120
  0
VERTEX
  8
0
  6
CONTINUOUS
 10
4.365680
 20
9.679120
  0
VERTEX
  8
0
  6
CONTINUOUS
 10
4.291760
 20
9.758320
  0
SEQEND
  8
0
  0
SOLID
  8
0
 62
    15
 10
4.365680
 20
9.679120
 11
5.045920
 21
9.679120
 12
4.409240
 22
9.586280
 13
5.089920
 23
9.586280
  0
POLYLINE
  8
0
  6
CONTINUOUS
 66
     1
 40
0.000000
 41
0.000000
  0
VERTEX
  8
0
  6
CONTINUOUS
 10
4.365680
 20
9.679120
  0
VERTEX
  8
0
  6
CONTINUOUS
 10
5.045920
 20
9.679120
  0
VERTEX
  8
0
  6
CONTINUOUS
 10
5.089920
 20
9.586280
  0
VERTEX
  8
0
  6
CONTINUOUS
 10
4.409240
 20
9.586280
  0
VERTEX
  8
0
  6
CONTINUOUS
 10
4.365680
 20
9.679120
  0
SEQEND
  8
0
  0
SOLID
  8
0
 62
    15
 10
4.409240
 20
9.586280
 11
5.089920
 21
9.586280
 12
4.423760
 22
9.486840
 13
5.104000
 23
9.486840
  0
POLYLINE
  8
0
  6
CONTINUOUS
 66
     1
 40
0.000000
 41
0.000000
  0
VERTEX
  8
0
  6
CONTINUOUS
 10
4.409240
 20
9.586280
  0
VERTEX
  8
0
  6
CONTINUOUS
 10
5.089920
 20
9.586280
  0
VERTEX
  8
0
  6
CONTINUOUS
 10
5.104000
 20
9.486840
  0
VERTEX
  8
0
  6
CONTINUOUS
 10
4.423760
 20
9.486840
  0
VERTEX
  8
0
  6
CONTINUOUS
 10
4.409240
 20
9.586280
  0
SEQEND
  8
0
  0
SOLID
  8
0
 62
    15
 10
4.423760
 20
9.486840
 11
5.104000
 21
9.486840
 12
4.408360
 22
9.387400
 13
5.089040
 23
9.387400
  0
POLYLINE
  8
0
  6
CONTINUOUS
 66
     1
 40
0.000000
 41
0.000000
  0
VERTEX
  8
0
  6
CONTINUOUS
 10
4.423760
 20
9.486840
  0
VERTEX
  8
0
  6
CONTINUOUS
 10
5.104000
 20
9.486840
  0
VERTEX
  8
0
  6
CONTINUOUS
 10
5.089040
 20
9.387400
  0
VERTEX
  8
0
  6
CONTINUOUS
 10
4.408360
 20
9.387400
  0
VERTEX
  8
0
  6
CONTINUOUS
 10
4.423760
 20
9.486840
  0
SEQEND
  8
0
  0
SOLID
  8
0
 62
    15
 10
4.408360
 20
9.387400
 11
5.089040
 21
9.387400
 12
4.363920
 22
9.295000
 13
5.044160
 23
9.295000
  0
POLYLINE
  8
0
  6
CONTINUOUS
 66
     1
 40
0.000000
 41
0.000000
  0
VERTEX
  8
0
  6
CONTINUOUS
 10
4.408360
 20
9.387400
  0
VERTEX
  8
0
  6
CONTINUOUS
 10
5.089040
 20
9.387400
  0
VERTEX
  8
0
  6
CONTINUOUS
 10
5.044160
 20
9.295000
  0
VERTEX
  8
0
  6
CONTINUOUS
 10
4.363920
 20
9.295000
  0
VERTEX
  8
0
  6
CONTINUOUS
 10
4.408360
 20
9.387400
  0
SEQEND
  8
0
  0
SOLID
  8
0
 62
    15
 10
4.363920
 20
9.295000
 11
5.044160
 21
9.295000
 12
4.290440
 22
9.217560
 13
4.970680
 23
9.217560
  0
POLYLINE
  8
0
  6
CONTINUOUS
 66
     1
 40
0.000000
 41
0.000000
  0
VERTEX
  8
0
  6
CONTINUOUS
 10
4.363920
 20
9.295000
  0
VERTEX
  8
0
  6
CONTINUOUS
 10
5.044160
 20
9.295000
  0
VERTEX
  8
0
  6
CONTINUOUS
 10
4.970680
 20
9.217560
  0
VERTEX
  8
0
  6
CONTINUOUS
 10
4.290440
 20
9.217560
  0
VERTEX
  8
0
  6
CONTINUOUS
 10
4.363920
 20
9.295000
  0
SEQEND
  8
0
  0
SOLID
  8
0
 62
    15
 10
4.290440
 20
9.217560
 11
4.970680
 21
9.217560
 12
4.188360
 22
9.161240
 13
4.868600
 23
9.161240
  0
POLYLINE
  8
0
  6
CONTINUOUS
 66
     1
 40
0.000000
 41
0.000000
  0
VERTEX
  8
0
  6
CONTINUOUS
 10
4.290440
 20
9.217560
  0
VERTEX
  8
0
  6
CONTINUOUS
 10
4.970680
 20
9.217560
  0
VERTEX
  8
0
  6
CONTINUOUS
 10
4.868600
 20
9.161240
  0
VERTEX
  8
0
  6
CONTINUOUS
 10
4.188360
 20
9.161240
  0
VERTEX
  8
0
  6
CONTINUOUS
 10
4.290440
 20
9.217560
  0
SEQEND
  8
0
  0
SOLID
  8
0
 62
    15
 10
4.188360
 20
9.161240
 11
4.868600
 21
9.161240
 12
4.188360
 22
8.962360
 13
4.868600
 23
8.962360
  0
POLYLINE
  8
0
  6
CONTINUOUS
 66
     1
 40
0.000000
 41
0.000000
  0
VERTEX
  8
0
  6
CONTINUOUS
 10
4.188360
 20
9.161240
  0
VERTEX
  8
0
  6
CONTINUOUS
 10
4.868600
 20
9.161240
  0
VERTEX
  8
0
  6
CONTINUOUS
 10
4.868600
 20
8.962360
  0
VERTEX
  8
0
  6
CONTINUOUS
 10
4.188360
 20
8.962360
  0
VERTEX
  8
0
  6
CONTINUOUS
 10
4.188360
 20
9.161240
  0
SEQEND
  8
0
  0
SOLID
  8
0
 62
    15
 10
2.051280
 20
10.022320
 11
2.731520
 21
10.022320
 12
2.051280
 22
10.021000
 13
2.731520
 23
10.021000
  0
POLYLINE
  8
0
  6
CONTINUOUS
 66
     1
 40
0.000000
 41
0.000000
  0
VERTEX
  8
0
  6
CONTINUOUS
 10
2.051280
 20
10.022320
  0
VERTEX
  8
0
  6
CONTINUOUS
 10
2.731520
 20
10.022320
  0
VERTEX
  8
0
  6
CONTINUOUS
 10
2.731520
 20
10.021000
  0
VERTEX
  8
0
  6
CONTINUOUS
 10
2.051280
 20
10.021000
  0
VERTEX
  8
0
  6
CONTINUOUS
 10
2.051280
 20
10.022320
  0
SEQEND
  8
0
  0
POLYLINE
  8
0
  6
CONTINUOUS
 66
     1
 40
0.000000
 41
0.000000
  0
VERTEX
  8
0
  6
CONTINUOUS
 10
2.049520
 20
8.962360
  0
VERTEX
  8
0
  6
CONTINUOUS
 10
2.611840
 20
8.962360
  0
VERTEX
  8
0
  6
CONTINUOUS
 10
2.611840
 20
1.552760
  0
VERTEX
  8
0
  6
CONTINUOUS
 10
2.467080
 20
1.552760
  0
VERTEX
  8
0
  6
CONTINUOUS
 10
2.465760
 20
1.467840
  0
VERTEX
  8
0
  6
CONTINUOUS
 10
2.456960
 20
1.402720
  0
VERTEX
  8
0
  6
CONTINUOUS
 10
2.441120
 20
1.354760
  0
VERTEX
  8
0
  6
CONTINUOUS
 10
2.420440
 20
1.318680
  0
VERTEX
  8
0
  6
CONTINUOUS
 10
2.310440
 20
1.223200
  0
VERTEX
  8
0
  6
CONTINUOUS
 10
2.258080
 20
1.165120
  0
VERTEX
  8
0
  6
CONTINUOUS
 10
2.217600
 20
1.100000
  0
VERTEX
  8
0
  6
CONTINUOUS
 10
2.191200
 20
1.030480
  0
VERTEX
  8
0
  6
CONTINUOUS
 10
2.181960
 20
0.958320
  0
VERTEX
  8
0
  6
CONTINUOUS
 10
2.049520
 20
0.958320
  0
VERTEX
  8
0
  6
CONTINUOUS
 10
2.049520
 20
8.961480
  0
VERTEX
  8
0
  6
CONTINUOUS
 10
2.049520
 20
8.962360
  0
SEQEND
  8
0
  0
POLYLINE
  8
0
  6
CONTINUOUS
 66
     1
 40
0.000000
 41
0.000000
  0
VERTEX
  8
0
  6
CONTINUOUS
 10
2.727120
 20
2.811160
  0
VERTEX
  8
0
  6
CONTINUOUS
 10
2.611840
 20
2.811160
  0
VERTEX
  8
0
  6
CONTINUOUS
 10
2.611840
 20
4.924040
  0
VERTEX
  8
0
  6
CONTINUOUS
 10
3.040400
 20
4.897200
  0
VERTEX
  8
0
  6
CONTINUOUS
 10
3.067240
 20
4.799080
  0
VERTEX
  8
0
  6
CONTINUOUS
 10
3.179000
 20
4.789840
  0
VERTEX
  8
0
  6
CONTINUOUS
 10
3.270960
 20
4.771800
  0
VERTEX
  8
0
  6
CONTINUOUS
 10
3.344440
 20
4.746280
  0
VERTEX
  8
0
  6
CONTINUOUS
 10
3.401640
 20
4.712840
  0
VERTEX
  8
0
  6
CONTINUOUS
 10
3.444760
 20
4.672800
  0
VERTEX
  8
0
  6
CONTINUOUS
 10
3.475120
 20
4.625720
  0
VERTEX
  8
0
  6
CONTINUOUS
 10
3.505040
 20
4.513080
  0
VERTEX
  8
0
  6
CONTINUOUS
 10
3.506800
 20
4.138200
  0
VERTEX
  8
0
  6
CONTINUOUS
 10
3.492280
 20
4.065160
  0
VERTEX
  8
0
  6
CONTINUOUS
 10
3.470280
 20
4.036120
  0
VERTEX
  8
0
  6
CONTINUOUS
 10
3.434640
 20
4.024680
  0
VERTEX
  8
0
  6
CONTINUOUS
 10
3.360720
 20
4.016760
  0
VERTEX
  8
0
  6
CONTINUOUS
 10
3.294720
 20
3.998280
  0
VERTEX
  8
0
  6
CONTINUOUS
 10
3.186040
 20
3.933160
  0
VERTEX
  8
0
  6
CONTINUOUS
 10
3.102440
 20
3.839000
  0
VERTEX
  8
0
  6
CONTINUOUS
 10
3.039520
 20
3.726800
  0
VERTEX
  8
0
  6
CONTINUOUS
 10
2.952400
 20
3.488320
  0
VERTEX
  8
0
  6
CONTINUOUS
 10
2.918080
 20
3.382720
  0
VERTEX
  8
0
  6
CONTINUOUS
 10
2.882880
 20
3.300000
  0
VERTEX
  8
0
  6
CONTINUOUS
 10
2.787840
 20
3.218160
  0
VERTEX
  8
0
  6
CONTINUOUS
 10
2.834040
 20
3.189560
  0
VERTEX
  8
0
  6
CONTINUOUS
 10
2.863960
 20
3.149960
  0
VERTEX
  8
0
  6
CONTINUOUS
 10
2.878040
 20
3.103760
  0
VERTEX
  8
0
  6
CONTINUOUS
 10
2.877160
 20
3.056240
  0
VERTEX
  8
0
  6
CONTINUOUS
 10
2.860880
 20
3.011800
  0
VERTEX
  8
0
  6
CONTINUOUS
 10
2.830520
 20
2.974840
  0
VERTEX
  8
0
  6
CONTINUOUS
 10
2.785640
 20
2.949760
  0
VERTEX
  8
0
  6
CONTINUOUS
 10
2.727120
 20
2.941400
  0
VERTEX
  8
0
  6
CONTINUOUS
 10
2.727120
 20
2.813360
  0
VERTEX
  8
0
  6
CONTINUOUS
 10
2.727120
 20
2.811160
  0
SEQEND
  8
0
  0
POLYLINE
  8
0
  6
CONTINUOUS
 66
     1
 40
0.000000
 41
0.000000
  0
VERTEX
  8
0
  6
CONTINUOUS
 10
2.051280
 20
10.021000
  0
VERTEX
  8
0
  6
CONTINUOUS
 10
4.188360
 20
10.021000
  0
VERTEX
  8
0
  6
CONTINUOUS
 10
4.188360
 20
9.816400
  0
VERTEX
  8
0
  6
CONTINUOUS
 10
4.291760
 20
9.758320
  0
VERTEX
  8
0
  6
CONTINUOUS
 10
4.365680
 20
9.679120
  0
VERTEX
  8
0
  6
CONTINUOUS
 10
4.409240
 20
9.586280
  0
VERTEX
  8
0
  6
CONTINUOUS
 10
4.423760
 20
9.486840
  0
VERTEX
  8
0
  6
CONTINUOUS
 10
4.408360
 20
9.387400
  0
VERTEX
  8
0
  6
CONTINUOUS
 10
4.363920
 20
9.295000
  0
VERTEX
  8
0
  6
CONTINUOUS
 10
4.290440
 20
9.217560
  0
VERTEX
  8
0
  6
CONTINUOUS
 10
4.188360
 20
9.161240
  0
VERTEX
  8
0
  6
CONTINUOUS
 10
4.188360
 20
8.962360
  0
VERTEX
  8
0
  6
CONTINUOUS
 10
2.051280
 20
8.962360
  0
VERTEX
  8
0
  6
CONTINUOUS
 10
2.051280
 20
10.022320
  0
VERTEX
  8
0
  6
CONTINUOUS
 10
2.051280
 20
10.021000
  0
SEQEND
  8
0
  0
SOLID
  8
0
 62
    15
 10
3.047880
 20
7.166720
 11
3.710080
 21
7.163200
 12
3.031160
 22
7.007880
 13
3.692920
 23
7.004800
  0
POLYLINE
  8
0
  6
CONTINUOUS
 66
     1
 40
0.000000
 41
0.000000
  0
VERTEX
  8
0
  6
CONTINUOUS
 10
3.047880
 20
7.166720
  0
VERTEX
  8
0
  6
CONTINUOUS
 10
3.710080
 20
7.163200
  0
VERTEX
  8
0
  6
CONTINUOUS
 10
3.692920
 20
7.004800
  0
VERTEX
  8
0
  6
CONTINUOUS
 10
3.031160
 20
7.007880
  0
VERTEX
  8
0
  6
CONTINUOUS
 10
3.047880
 20
7.166720
  0
SEQEND
  8
0
  0
SOLID
  8
0
 62
    15
 10
3.949880
 20
8.960600
 11
4.612080
 21
8.957080
 12
3.949880
 22
8.519280
 13
4.612080
 23
8.515760
  0
POLYLINE
  8
0
  6
CONTINUOUS
 66
     1
 40
0.000000
 41
0.000000
  0
VERTEX
  8
0
  6
CONTINUOUS
 10
3.949880
 20
8.960600
  0
VERTEX
  8
0
  6
CONTINUOUS
 10
4.612080
 20
8.957080
  0
VERTEX
  8
0
  6
CONTINUOUS
 10
4.612080
 20
8.515760
  0
VERTEX
  8
0
  6
CONTINUOUS
 10
3.949880
 20
8.519280
  0
VERTEX
  8
0
  6
CONTINUOUS
 10
3.949880
 20
8.960600
  0
SEQEND
  8
0
  0
SOLID
  8
0
 62
    15
 10
3.949880
 20
8.519280
 11
4.612080
 21
8.515760
 12
3.868920
 22
8.501680
 13
4.531120
 23
8.498160
  0
POLYLINE
  8
0
  6
CONTINUOUS
 66
     1
 40
0.000000
 41
0.000000
  0
VERTEX
  8
0
  6
CONTINUOUS
 10
3.949880
 20
8.519280
  0
VERTEX
  8
0
  6
CONTINUOUS
 10
4.612080
 20
8.515760
  0
VERTEX
  8
0
  6
CONTINUOUS
 10
4.531120
 20
8.498160
  0
VERTEX
  8
0
  6
CONTINUOUS
 10
3.868920
 20
8.501680
  0
VERTEX
  8
0
  6
CONTINUOUS
 10
3.949880
 20
8.519280
  0
SEQEND
  8
0
  0
SOLID
  8
0
 62
    15
 10
3.868920
 20
8.501680
 11
4.531120
 21
8.498160
 12
3.792800
 22
8.477920
 13
4.455000
 23
8.474400
  0
POLYLINE
  8
0
  6
CONTINUOUS
 66
     1
 40
0.000000
 41
0.000000
  0
VERTEX
  8
0
  6
CONTINUOUS
 10
3.868920
 20
8.501680
  0
VERTEX
  8
0
  6
CONTINUOUS
 10
4.531120
 20
8.498160
  0
VERTEX
  8
0
  6
CONTINUOUS
 10
4.455000
 20
8.474400
  0
VERTEX
  8
0
  6
CONTINUOUS
 10
3.792800
 20
8.477920
  0
VERTEX
  8
0
  6
CONTINUOUS
 10
3.868920
 20
8.501680
  0
SEQEND
  8
0
  0
SOLID
  8
0
 62
    15
 10
3.792800
 20
8.477920
 11
4.455000
 21
8.474400
 12
3.721520
 22
8.447560
 13
4.383720
 23
8.444040
  0
POLYLINE
  8
0
  6
CONTINUOUS
 66
     1
 40
0.000000
 41
0.000000
  0
VERTEX
  8
0
  6
CONTINUOUS
 10
3.792800
 20
8.477920
  0
VERTEX
  8
0
  6
CONTINUOUS
 10
4.455000
 20
8.474400
  0
VERTEX
  8
0
  6
CONTINUOUS
 10
4.383720
 20
8.444040
  0
VERTEX
  8
0
  6
CONTINUOUS
 10
3.721520
 20
8.447560
  0
VERTEX
  8
0
  6
CONTINUOUS
 10
3.792800
 20
8.477920
  0
SEQEND
  8
0
  0
SOLID
  8
0
 62
    15
 10
3.721520
 20
8.447560
 11
4.383720
 21
8.444040
 12
3.654640
 22
8.411480
 13
4.316400
 23
8.408400
  0
POLYLINE
  8
0
  6
CONTINUOUS
 66
     1
 40
0.000000
 41
0.000000
  0
VERTEX
  8
0
  6
CONTINUOUS
 10
3.721520
 20
8.447560
  0
VERTEX
  8
0
  6
CONTINUOUS
 10
4.383720
 20
8.444040
  0
VERTEX
  8
0
  6
CONTINUOUS
 10
4.316400
 20
8.408400
  0
VERTEX
  8
0
  6
CONTINUOUS
 10
3.654640
 20
8.411480
  0
VERTEX
  8
0
  6
CONTINUOUS
 10
3.721520
 20
8.447560
  0
SEQEND
  8
0
  0
SOLID
  8
0
 62
    15
 10
3.654640
 20
8.411480
 11
4.316400
 21
8.408400
 12
3.591720
 22
8.370120
 13
4.253920
 23
8.366600
  0
POLYLINE
  8
0
  6
CONTINUOUS
 66
     1
 40
0.000000
 41
0.000000
  0
VERTEX
  8
0
  6
CONTINUOUS
 10
3.654640
 20
8.411480
  0
VERTEX
  8
0
  6
CONTINUOUS
 10
4.316400
 20
8.408400
  0
VERTEX
  8
0
  6
CONTINUOUS
 10
4.253920
 20
8.366600
  0
VERTEX
  8
0
  6
CONTINUOUS
 10
3.591720
 20
8.370120
  0
VERTEX
  8
0
  6
CONTINUOUS
 10
3.654640
 20
8.411480
  0
SEQEND
  8
0
  0
SOLID
  8
0
 62
    15
 10
3.591720
 20
8.370120
 11
4.253920
 21
8.366600
 12
3.533200
 22
8.323480
 13
4.195400
 23
8.319960
  0
POLYLINE
  8
0
  6
CONTINUOUS
 66
     1
 40
0.000000
 41
0.000000
  0
VERTEX
  8
0
  6
CONTINUOUS
 10
3.591720
 20
8.370120
  0
VERTEX
  8
0
  6
CONTINUOUS
 10
4.253920
 20
8.366600
  0
VERTEX
  8
0
  6
CONTINUOUS
 10
4.195400
 20
8.319960
  0
VERTEX
  8
0
  6
CONTINUOUS
 10
3.533200
 20
8.323480
  0
VERTEX
  8
0
  6
CONTINUOUS
 10
3.591720
 20
8.370120
  0
SEQEND
  8
0
  0
SOLID
  8
0
 62
    15
 10
3.533200
 20
8.323480
 11
4.195400
 21
8.319960
 12
3.428040
 22
8.216120
 13
4.090240
 23
8.212600
  0
POLYLINE
  8
0
  6
CONTINUOUS
 66
     1
 40
0.000000
 41
0.000000
  0
VERTEX
  8
0
  6
CONTINUOUS
 10
3.533200
 20
8.323480
  0
VERTEX
  8
0
  6
CONTINUOUS
 10
4.195400
 20
8.319960
  0
VERTEX
  8
0
  6
CONTINUOUS
 10
4.090240
 20
8.212600
  0
VERTEX
  8
0
  6
CONTINUOUS
 10
3.428040
 20
8.216120
  0
VERTEX
  8
0
  6
CONTINUOUS
 10
3.533200
 20
8.323480
  0
SEQEND
  8
0
  0
SOLID
  8
0
 62
    15
 10
3.428040
 20
8.216120
 11
4.090240
 21
8.212600
 12
3.337840
 22
8.092480
 13
4.000040
 23
8.088960
  0
POLYLINE
  8
0
  6
CONTINUOUS
 66
     1
 40
0.000000
 41
0.000000
  0
VERTEX
  8
0
  6
CONTINUOUS
 10
3.428040
 20
8.216120
  0
VERTEX
  8
0
  6
CONTINUOUS
 10
4.090240
 20
8.212600
  0
VERTEX
  8
0
  6
CONTINUOUS
 10
4.000040
 20
8.088960
  0
VERTEX
  8
0
  6
CONTINUOUS
 10
3.337840
 20
8.092480
  0
VERTEX
  8
0
  6
CONTINUOUS
 10
3.428040
 20
8.216120
  0
SEQEND
  8
0
  0
SOLID
  8
0
 62
    15
 10
3.337840
 20
8.092480
 11
4.000040
 21
8.088960
 12
3.261280
 22
7.955200
 13
3.923480
 23
7.952120
  0
POLYLINE
  8
0
  6
CONTINUOUS
 66
     1
 40
0.000000
 41
0.000000
  0
VERTEX
  8
0
  6
CONTINUOUS
 10
3.337840
 20
8.092480
  0
VERTEX
  8
0
  6
CONTINUOUS
 10
4.000040
 20
8.088960
  0
VERTEX
  8
0
  6
CONTINUOUS
 10
3.923480
 20
7.952120
  0
VERTEX
  8
0
  6
CONTINUOUS
 10
3.261280
 20
7.955200
  0
VERTEX
  8
0
  6
CONTINUOUS
 10
3.337840
 20
8.092480
  0
SEQEND
  8
0
  0
SOLID
  8
0
 62
    15
 10
3.261280
 20
7.955200
 11
3.923480
 21
7.952120
 12
3.197480
 22
7.807800
 13
3.859680
 23
7.804280
  0
POLYLINE
  8
0
  6
CONTINUOUS
 66
     1
 40
0.000000
 41
0.000000
  0
VERTEX
  8
0
  6
CONTINUOUS
 10
3.261280
 20
7.955200
  0
VERTEX
  8
0
  6
CONTINUOUS
 10
3.923480
 20
7.952120
  0
VERTEX
  8
0
  6
CONTINUOUS
 10
3.859680
 20
7.804280
  0
VERTEX
  8
0
  6
CONTINUOUS
 10
3.197480
 20
7.807800
  0
VERTEX
  8
0
  6
CONTINUOUS
 10
3.261280
 20
7.955200
  0
SEQEND
  8
0
  0
SOLID
  8
0
 62
    15
 10
3.197480
 20
7.807800
 11
3.859680
 21
7.804280
 12
3.145560
 22
7.652040
 13
3.807760
 23
7.648520
  0
POLYLINE
  8
0
  6
CONTINUOUS
 66
     1
 40
0.000000
 41
0.000000
  0
VERTEX
  8
0
  6
CONTINUOUS
 10
3.197480
 20
7.807800
  0
VERTEX
  8
0
  6
CONTINUOUS
 10
3.859680
 20
7.804280
  0
VERTEX
  8
0
  6
CONTINUOUS
 10
3.807760
 20
7.648520
  0
VERTEX
  8
0
  6
CONTINUOUS
 10
3.145560
 20
7.652040
  0
VERTEX
  8
0
  6
CONTINUOUS
 10
3.197480
 20
7.807800
  0
SEQEND
  8
0
  0
SOLID
  8
0
 62
    15
 10
3.145560
 20
7.652040
 11
3.807760
 21
7.648520
 12
3.104200
 22
7.491440
 13
3.766400
 23
7.487920
  0
POLYLINE
  8
0
  6
CONTINUOUS
 66
     1
 40
0.000000
 41
0.000000
  0
VERTEX
  8
0
  6
CONTINUOUS
 10
3.145560
 20
7.652040
  0
VERTEX
  8
0
  6
CONTINUOUS
 10
3.807760
 20
7.648520
  0
VERTEX
  8
0
  6
CONTINUOUS
 10
3.766400
 20
7.487920
  0
VERTEX
  8
0
  6
CONTINUOUS
 10
3.104200
 20
7.491440
  0
VERTEX
  8
0
  6
CONTINUOUS
 10
3.145560
 20
7.652040
  0
SEQEND
  8
0
  0
SOLID
  8
0
 62
    15
 10
3.104200
 20
7.491440
 11
3.766400
 21
7.487920
 12
3.071640
 22
7.328640
 13
3.733840
 23
7.325560
  0
POLYLINE
  8
0
  6
CONTINUOUS
 66
     1
 40
0.000000
 41
0.000000
  0
VERTEX
  8
0
  6
CONTINUOUS
 10
3.104200
 20
7.491440
  0
VERTEX
  8
0
  6
CONTINUOUS
 10
3.766400
 20
7.487920
  0
VERTEX
  8
0
  6
CONTINUOUS
 10
3.733840
 20
7.325560
  0
VERTEX
  8
0
  6
CONTINUOUS
 10
3.071640
 20
7.328640
  0
VERTEX
  8
0
  6
CONTINUOUS
 10
3.104200
 20
7.491440
  0
SEQEND
  8
0
  0
SOLID
  8
0
 62
    15
 10
3.071640
 20
7.328640
 11
3.733840
 21
7.325560
 12
3.047880
 22
7.166720
 13
3.710080
 23
7.163200
  0
POLYLINE
  8
0
  6
CONTINUOUS
 66
     1
 40
0.000000
 41
0.000000
  0
VERTEX
  8
0
  6
CONTINUOUS
 10
3.071640
 20
7.328640
  0
VERTEX
  8
0
  6
CONTINUOUS
 10
3.733840
 20
7.325560
  0
VERTEX
  8
0
  6
CONTINUOUS
 10
3.710080
 20
7.163200
  0
VERTEX
  8
0
  6
CONTINUOUS
 10
3.047880
 20
7.166720
  0
VERTEX
  8
0
  6
CONTINUOUS
 10
3.071640
 20
7.328640
  0
SEQEND
  8
0
  0
POLYLINE
  8
0
  6
CONTINUOUS
 66
     1
 40
0.000000
 41
0.000000
  0
VERTEX
  8
0
  6
CONTINUOUS
 10
3.949880
 20
8.960600
  0
VERTEX
  8
0
  6
CONTINUOUS
 10
4.612080
 20
8.957080
  0
VERTEX
  8
0
  6
CONTINUOUS
 10
3.949880
 20
8.960600
  0
SEQEND
  8
0
  0
SOLID
  8
0
 62
    15
 10
3.031160
 20
7.007880
 11
3.692920
 21
7.004800
 12
3.020160
 22
6.855640
 13
3.682360
 23
6.852560
  0
POLYLINE
  8
0
  6
CONTINUOUS
 66
     1
 40
0.000000
 41
0.000000
  0
VERTEX
  8
0
  6
CONTINUOUS
 10
3.031160
 20
7.007880
  0
VERTEX
  8
0
  6
CONTINUOUS
 10
3.692920
 20
7.004800
  0
VERTEX
  8
0
  6
CONTINUOUS
 10
3.682360
 20
6.852560
  0
VERTEX
  8
0
  6
CONTINUOUS
 10
3.020160
 20
6.855640
  0
VERTEX
  8
0
  6
CONTINUOUS
 10
3.031160
 20
7.007880
  0
SEQEND
  8
0
  0
SOLID
  8
0
 62
    15
 10
3.020160
 20
6.855640
 11
3.682360
 21
6.852560
 12
3.014000
 22
6.712640
 13
3.676200
 23
6.709560
  0
POLYLINE
  8
0
  6
CONTINUOUS
 66
     1
 40
0.000000
 41
0.000000
  0
VERTEX
  8
0
  6
CONTINUOUS
 10
3.020160
 20
6.855640
  0
VERTEX
  8
0
  6
CONTINUOUS
 10
3.682360
 20
6.852560
  0
VERTEX
  8
0
  6
CONTINUOUS
 10
3.676200
 20
6.709560
  0
VERTEX
  8
0
  6
CONTINUOUS
 10
3.014000
 20
6.712640
  0
VERTEX
  8
0
  6
CONTINUOUS
 10
3.020160
 20
6.855640
  0
SEQEND
  8
0
  0
SOLID
  8
0
 62
    15
 10
3.014000
 20
6.712640
 11
3.676200
 21
6.709560
 12
3.011800
 22
6.581520
 13
3.674000
 23
6.578440
  0
POLYLINE
  8
0
  6
CONTINUOUS
 66
     1
 40
0.000000
 41
0.000000
  0
VERTEX
  8
0
  6
CONTINUOUS
 10
3.014000
 20
6.712640
  0
VERTEX
  8
0
  6
CONTINUOUS
 10
3.676200
 20
6.709560
  0
VERTEX
  8
0
  6
CONTINUOUS
 10
3.674000
 20
6.578440
  0
VERTEX
  8
0
  6
CONTINUOUS
 10
3.011800
 20
6.581520
  0
VERTEX
  8
0
  6
CONTINUOUS
 10
3.014000
 20
6.712640
  0
SEQEND
  8
0
  0
SOLID
  8
0
 62
    15
 10
3.011800
 20
6.581520
 11
3.674000
 21
6.578440
 12
3.011800
 22
6.465360
 13
3.674000
 23
6.461840
  0
POLYLINE
  8
0
  6
CONTINUOUS
 66
     1
 40
0.000000
 41
0.000000
  0
VERTEX
  8
0
  6
CONTINUOUS
 10
3.011800
 20
6.581520
  0
VERTEX
  8
0
  6
CONTINUOUS
 10
3.674000
 20
6.578440
  0
VERTEX
  8
0
  6
CONTINUOUS
 10
3.674000
 20
6.461840
  0
VERTEX
  8
0
  6
CONTINUOUS
 10
3.011800
 20
6.465360
  0
VERTEX
  8
0
  6
CONTINUOUS
 10
3.011800
 20
6.581520
  0
SEQEND
  8
0
  0
SOLID
  8
0
 62
    15
 10
3.011800
 20
6.465360
 11
3.674000
 21
6.461840
 12
2.933920
 22
6.429720
 13
3.596120
 23
6.426200
  0
POLYLINE
  8
0
  6
CONTINUOUS
 66
     1
 40
0.000000
 41
0.000000
  0
VERTEX
  8
0
  6
CONTINUOUS
 10
3.011800
 20
6.465360
  0
VERTEX
  8
0
  6
CONTINUOUS
 10
3.674000
 20
6.461840
  0
VERTEX
  8
0
  6
CONTINUOUS
 10
3.596120
 20
6.426200
  0
VERTEX
  8
0
  6
CONTINUOUS
 10
2.933920
 20
6.429720
  0
VERTEX
  8
0
  6
CONTINUOUS
 10
3.011800
 20
6.465360
  0
SEQEND
  8
0
  0
SOLID
  8
0
 62
    15
 10
2.933920
 20
6.429720
 11
3.596120
 21
6.426200
 12
2.925560
 22
6.362840
 13
3.587760
 23
6.359320
  0
POLYLINE
  8
0
  6
CONTINUOUS
 66
     1
 40
0.000000
 41
0.000000
  0
VERTEX
  8
0
  6
CONTINUOUS
 10
2.933920
 20
6.429720
  0
VERTEX
  8
0
  6
CONTINUOUS
 10
3.596120
 20
6.426200
  0
VERTEX
  8
0
  6
CONTINUOUS
 10
3.587760
 20
6.359320
  0
VERTEX
  8
0
  6
CONTINUOUS
 10
2.925560
 20
6.362840
  0
VERTEX
  8
0
  6
CONTINUOUS
 10
2.933920
 20
6.429720
  0
SEQEND
  8
0
  0
SOLID
  8
0
 62
    15
 10
2.925560
 20
6.362840
 11
3.587760
 21
6.359320
 12
2.912360
 22
6.302560
 13
3.574560
 23
6.299480
  0
POLYLINE
  8
0
  6
CONTINUOUS
 66
     1
 40
0.000000
 41
0.000000
  0
VERTEX
  8
0
  6
CONTINUOUS
 10
2.925560
 20
6.362840
  0
VERTEX
  8
0
  6
CONTINUOUS
 10
3.587760
 20
6.359320
  0
VERTEX
  8
0
  6
CONTINUOUS
 10
3.574560
 20
6.299480
  0
VERTEX
  8
0
  6
CONTINUOUS
 10
2.912360
 20
6.302560
  0
VERTEX
  8
0
  6
CONTINUOUS
 10
2.925560
 20
6.362840
  0
SEQEND
  8
0
  0
SOLID
  8
0
 62
    15
 10
2.912360
 20
6.302560
 11
3.574560
 21
6.299480
 12
2.895640
 22
6.249320
 13
3.557840
 23
6.245800
  0
POLYLINE
  8
0
  6
CONTINUOUS
 66
     1
 40
0.000000
 41
0.000000
  0
VERTEX
  8
0
  6
CONTINUOUS
 10
2.912360
 20
6.302560
  0
VERTEX
  8
0
  6
CONTINUOUS
 10
3.574560
 20
6.299480
  0
VERTEX
  8
0
  6
CONTINUOUS
 10
3.557840
 20
6.245800
  0
VERTEX
  8
0
  6
CONTINUOUS
 10
2.895640
 20
6.249320
  0
VERTEX
  8
0
  6
CONTINUOUS
 10
2.912360
 20
6.302560
  0
SEQEND
  8
0
  0
SOLID
  8
0
 62
    15
 10
2.895640
 20
6.249320
 11
3.557840
 21
6.245800
 12
2.875400
 22
6.201800
 13
3.537600
 23
6.198720
  0
POLYLINE
  8
0
  6
CONTINUOUS
 66
     1
 40
0.000000
 41
0.000000
  0
VERTEX
  8
0
  6
CONTINUOUS
 10
2.895640
 20
6.249320
  0
VERTEX
  8
0
  6
CONTINUOUS
 10
3.557840
 20
6.245800
  0
VERTEX
  8
0
  6
CONTINUOUS
 10
3.537600
 20
6.198720
  0
VERTEX
  8
0
  6
CONTINUOUS
 10
2.875400
 20
6.201800
  0
VERTEX
  8
0
  6
CONTINUOUS
 10
2.895640
 20
6.249320
  0
SEQEND
  8
0
  0
SOLID
  8
0
 62
    15
 10
2.875400
 20
6.201800
 11
3.537600
 21
6.198720
 12
2.828320
 22
6.124800
 13
3.490520
 23
6.121280
  0
POLYLINE
  8
0
  6
CONTINUOUS
 66
     1
 40
0.000000
 41
0.000000
  0
VERTEX
  8
0
  6
CONTINUOUS
 10
2.875400
 20
6.201800
  0
VERTEX
  8
0
  6
CONTINUOUS
 10
3.537600
 20
6.198720
  0
VERTEX
  8
0
  6
CONTINUOUS
 10
3.490520
 20
6.121280
  0
VERTEX
  8
0
  6
CONTINUOUS
 10
2.828320
 20
6.124800
  0
VERTEX
  8
0
  6
CONTINUOUS
 10
2.875400
 20
6.201800
  0
SEQEND
  8
0
  0
SOLID
  8
0
 62
    15
 10
2.828320
 20
6.124800
 11
3.490520
 21
6.121280
 12
2.776400
 22
6.068040
 13
3.438600
 23
6.064960
  0
POLYLINE
  8
0
  6
CONTINUOUS
 66
     1
 40
0.000000
 41
0.000000
  0
VERTEX
  8
0
  6
CONTINUOUS
 10
2.828320
 20
6.124800
  0
VERTEX
  8
0
  6
CONTINUOUS
 10
3.490520
 20
6.121280
  0
VERTEX
  8
0
  6
CONTINUOUS
 10
3.438600
 20
6.064960
  0
VERTEX
  8
0
  6
CONTINUOUS
 10
2.776400
 20
6.068040
  0
VERTEX
  8
0
  6
CONTINUOUS
 10
2.828320
 20
6.124800
  0
SEQEND
  8
0
  0
SOLID
  8
0
 62
    15
 10
2.776400
 20
6.068040
 11
3.438600
 21
6.064960
 12
2.725800
 22
6.029320
 13
3.388000
 23
6.025800
  0
POLYLINE
  8
0
  6
CONTINUOUS
 66
     1
 40
0.000000
 41
0.000000
  0
VERTEX
  8
0
  6
CONTINUOUS
 10
2.776400
 20
6.068040
  0
VERTEX
  8
0
  6
CONTINUOUS
 10
3.438600
 20
6.064960
  0
VERTEX
  8
0
  6
CONTINUOUS
 10
3.388000
 20
6.025800
  0
VERTEX
  8
0
  6
CONTINUOUS
 10
2.725800
 20
6.029320
  0
VERTEX
  8
0
  6
CONTINUOUS
 10
2.776400
 20
6.068040
  0
SEQEND
  8
0
  0
SOLID
  8
0
 62
    15
 10
2.725800
 20
6.029320
 11
3.388000
 21
6.025800
 12
2.681360
 22
6.005120
 13
3.343560
 23
6.001600
  0
POLYLINE
  8
0
  6
CONTINUOUS
 66
     1
 40
0.000000
 41
0.000000
  0
VERTEX
  8
0
  6
CONTINUOUS
 10
2.725800
 20
6.029320
  0
VERTEX
  8
0
  6
CONTINUOUS
 10
3.388000
 20
6.025800
  0
VERTEX
  8
0
  6
CONTINUOUS
 10
3.343560
 20
6.001600
  0
VERTEX
  8
0
  6
CONTINUOUS
 10
2.681360
 20
6.005120
  0
VERTEX
  8
0
  6
CONTINUOUS
 10
2.725800
 20
6.029320
  0
SEQEND
  8
0
  0
SOLID
  8
0
 62
    15
 10
2.681360
 20
6.005120
 11
3.343560
 21
6.001600
 12
2.648800
 22
5.992800
 13
3.310560
 23
5.989280
  0
POLYLINE
  8
0
  6
CONTINUOUS
 66
     1
 40
0.000000
 41
0.000000
  0
VERTEX
  8
0
  6
CONTINUOUS
 10
2.681360
 20
6.005120
  0
VERTEX
  8
0
  6
CONTINUOUS
 10
3.343560
 20
6.001600
  0
VERTEX
  8
0
  6
CONTINUOUS
 10
3.310560
 20
5.989280
  0
VERTEX
  8
0
  6
CONTINUOUS
 10
2.648800
 20
5.992800
  0
VERTEX
  8
0
  6
CONTINUOUS
 10
2.681360
 20
6.005120
  0
SEQEND
  8
0
  0
SOLID
  8
0
 62
    15
 10
2.633400
 20
5.989280
 11
3.295600
 21
5.985760
 12
2.610960
 22
5.989280
 13
3.273160
 23
5.985760
  0
POLYLINE
  8
0
  6
CONTINUOUS
 66
     1
 40
0.000000
 41
0.000000
  0
VERTEX
  8
0
  6
CONTINUOUS
 10
2.633400
 20
5.989280
  0
VERTEX
  8
0
  6
CONTINUOUS
 10
3.295600
 20
5.985760
  0
VERTEX
  8
0
  6
CONTINUOUS
 10
3.273160
 20
5.985760
  0
VERTEX
  8
0
  6
CONTINUOUS
 10
2.610960
 20
5.989280
  0
VERTEX
  8
0
  6
CONTINUOUS
 10
2.633400
 20
5.989280
  0
SEQEND
  8
0
  0
SOLID
  8
0
 62
    15
 10
2.648800
 20
5.992800
 11
3.310560
 21
5.989280
 12
2.633400
 22
5.989280
 13
3.295600
 23
5.985760
  0
POLYLINE
  8
0
  6
CONTINUOUS
 66
     1
 40
0.000000
 41
0.000000
  0
VERTEX
  8
0
  6
CONTINUOUS
 10
2.648800
 20
5.992800
  0
VERTEX
  8
0
  6
CONTINUOUS
 10
3.310560
 20
5.989280
  0
VERTEX
  8
0
  6
CONTINUOUS
 10
3.295600
 20
5.985760
  0
VERTEX
  8
0
  6
CONTINUOUS
 10
2.633400
 20
5.989280
  0
VERTEX
  8
0
  6
CONTINUOUS
 10
2.648800
 20
5.992800
  0
SEQEND
  8
0
  0
POLYLINE
  8
0
  6
CONTINUOUS
 66
     1
 40
0.000000
 41
0.000000
  0
VERTEX
  8
0
  6
CONTINUOUS
 10
2.610960
 20
5.989720
  0
VERTEX
  8
0
  6
CONTINUOUS
 10
2.610960
 20
8.960600
  0
VERTEX
  8
0
  6
CONTINUOUS
 10
3.949880
 20
8.960600
  0
VERTEX
  8
0
  6
CONTINUOUS
 10
3.949880
 20
8.519280
  0
VERTEX
  8
0
  6
CONTINUOUS
 10
3.868920
 20
8.501680
  0
VERTEX
  8
0
  6
CONTINUOUS
 10
3.792800
 20
8.477920
  0
VERTEX
  8
0
  6
CONTINUOUS
 10
3.721520
 20
8.447560
  0
VERTEX
  8
0
  6
CONTINUOUS
 10
3.654640
 20
8.411480
  0
VERTEX
  8
0
  6
CONTINUOUS
 10
3.591720
 20
8.370120
  0
VERTEX
  8
0
  6
CONTINUOUS
 10
3.533200
 20
8.323480
  0
VERTEX
  8
0
  6
CONTINUOUS
 10
3.428040
 20
8.216120
  0
VERTEX
  8
0
  6
CONTINUOUS
 10
3.337840
 20
8.092480
  0
VERTEX
  8
0
  6
CONTINUOUS
 10
3.261280
 20
7.955200
  0
VERTEX
  8
0
  6
CONTINUOUS
 10
3.197480
 20
7.807800
  0
VERTEX
  8
0
  6
CONTINUOUS
 10
3.145560
 20
7.652040
  0
VERTEX
  8
0
  6
CONTINUOUS
 10
3.104200
 20
7.491440
  0
VERTEX
  8
0
  6
CONTINUOUS
 10
3.071640
 20
7.328640
  0
VERTEX
  8
0
  6
CONTINUOUS
 10
3.047880
 20
7.166720
  0
VERTEX
  8
0
  6
CONTINUOUS
 10
3.031160
 20
7.007880
  0
VERTEX
  8
0
  6
CONTINUOUS
 10
3.020160
 20
6.855640
  0
VERTEX
  8
0
  6
CONTINUOUS
 10
3.014000
 20
6.712640
  0
VERTEX
  8
0
  6
CONTINUOUS
 10
3.011800
 20
6.581520
  0
VERTEX
  8
0
  6
CONTINUOUS
 10
3.011800
 20
6.465360
  0
VERTEX
  8
0
  6
CONTINUOUS
 10
2.933920
 20
6.429720
  0
VERTEX
  8
0
  6
CONTINUOUS
 10
2.925560
 20
6.362840
  0
VERTEX
  8
0
  6
CONTINUOUS
 10
2.912360
 20
6.302560
  0
VERTEX
  8
0
  6
CONTINUOUS
 10
2.895640
 20
6.249320
  0
VERTEX
  8
0
  6
CONTINUOUS
 10
2.875400
 20
6.201800
  0
VERTEX
  8
0
  6
CONTINUOUS
 10
2.828320
 20
6.124800
  0
VERTEX
  8
0
  6
CONTINUOUS
 10
2.776400
 20
6.068040
  0
VERTEX
  8
0
  6
CONTINUOUS
 10
2.725800
 20
6.029320
  0
VERTEX
  8
0
  6
CONTINUOUS
 10
2.681360
 20
6.005120
  0
VERTEX
  8
0
  6
CONTINUOUS
 10
2.648800
 20
5.992800
  0
VERTEX
  8
0
  6
CONTINUOUS
 10
2.633400
 20
5.989280
  0
VERTEX
  8
0
  6
CONTINUOUS
 10
2.610960
 20
5.989280
  0
VERTEX
  8
0
  6
CONTINUOUS
 10
2.610960
 20
5.989720
  0
SEQEND
  8
0
  0
TEXT
  8
0
 10
3.268320
 20
1.180080
 40
0.137867
  1
BA  1305
 41
1.000000
  7
SN0
 71
     0
 72
     5
 11
3.953504
 21
1.180080
  0
TEXT
  8
0
 10
3.419240
 20
0.988240
 40
0.137867
  1
9/16"
 41
1.000000
  7
SN0
 71
     0
 72
     5
 11
3.802725
 21
0.988240
  0
TEXT
  8
0
 10
3.835040
 20
3.027200
 40
0.137867
  1
BA  1304
 41
1.000000
  7
SN0
 71
     0
 72
     5
 11
4.520224
 21
3.027200
  0
TEXT
  8
0
 10
3.725480
 20
2.826120
 40
0.137867
  1
7/8" x 2-1/8"
 41
1.000000
  7
SN0
 71
     0
 72
     5
 11
4.631031
 21
2.826120
  0
TEXT
  8
0
 10
3.928320
 20
6.206640
 40
0.137867
  1
BA  1303
 41
1.000000
  7
SN0
 71
     0
 72
     5
 11
4.613504
 21
6.206640
  0
TEXT
  8
0
 10
3.841640
 20
6.005120
 40
0.137867
  1
1-5/16" x 3"
 41
1.000000
  7
SN0
 71
     0
 72
     5
 11
4.700846
 21
6.005120
  0
TEXT
  8
0
 10
5.157240
 20
9.194240
 40
0.137867
  1
BA  1302
 41
1.000000
  7
SN0
 71
     0
 72
     5
 11
5.842424
 21
9.194240
  0
TEXT
  8
0
 10
5.233800
 20
8.992720
 40
0.137867
  1
1-1/16"
 41
1.000000
  7
SN0
 71
     0
 72
     5
 11
5.765408
 21
8.992720
  0
TEXT
  8
0
 10
4.976400
 20
7.028120
 40
0.137867
  1
BA  1303
 41
1.000000
  7
SN0
 71
     0
 72
     5
 11
5.661584
 21
7.028120
  0
TEXT
  8
0
 10
4.890160
 20
6.826600
 40
0.137867
  1
1-5/16" x 3"
 41
1.000000
  7
SN0
 71
     0
 72
     5
 11
5.749366
 21
6.826600
  0
POLYLINE
  8
0
  6
CONTINUOUS
 66
     1
 40
0.000000
 41
0.000000
  0
VERTEX
  8
0
  6
CONTINUOUS
 10
7.853560
 20
4.845280
  0
VERTEX
  8
0
  6
CONTINUOUS
 10
4.882680
 20
4.845280
  0
VERTEX
  8
0
  6
CONTINUOUS
 10
4.882680
 20
6.184200
  0
VERTEX
  8
0
  6
CONTINUOUS
 10
5.324440
 20
6.184200
  0
VERTEX
  8
0
  6
CONTINUOUS
 10
5.332360
 20
6.143280
  0
VERTEX
  8
0
  6
CONTINUOUS
 10
5.342040
 20
6.103240
  0
VERTEX
  8
0
  6
CONTINUOUS
 10
5.353040
 20
6.064960
  0
VERTEX
  8
0
  6
CONTINUOUS
 10
5.365800
 20
6.027560
  0
VERTEX
  8
0
  6
CONTINUOUS
 10
5.396160
 20
5.955840
  0
VERTEX
  8
0
  6
CONTINUOUS
 10
5.413320
 20
5.921960
  0
VERTEX
  8
0
  6
CONTINUOUS
 10
5.452040
 20
5.856840
  0
VERTEX
  8
0
  6
CONTINUOUS
 10
5.496040
 20
5.796120
  0
VERTEX
  8
0
  6
CONTINUOUS
 10
5.545320
 20
5.739800
  0
VERTEX
  8
0
  6
CONTINUOUS
 10
5.599000
 20
5.687000
  0
VERTEX
  8
0
  6
CONTINUOUS
 10
5.657080
 20
5.638160
  0
VERTEX
  8
0
  6
CONTINUOUS
 10
5.718680
 20
5.593280
  0
VERTEX
  8
0
  6
CONTINUOUS
 10
5.784240
 20
5.551480
  0
VERTEX
  8
0
  6
CONTINUOUS
 10
5.852880
 20
5.513640
  0
VERTEX
  8
0
  6
CONTINUOUS
 10
5.924160
 20
5.478440
  0
VERTEX
  8
0
  6
CONTINUOUS
 10
5.998080
 20
5.446760
  0
VERTEX
  8
0
  6
CONTINUOUS
 10
6.074200
 20
5.417720
  0
VERTEX
  8
0
  6
CONTINUOUS
 10
6.152080
 20
5.391760
  0
VERTEX
  8
0
  6
CONTINUOUS
 10
6.271320
 20
5.357880
  0
VERTEX
  8
0
  6
CONTINUOUS
 10
6.351840
 20
5.338080
  0
VERTEX
  8
0
  6
CONTINUOUS
 10
6.433240
 20
5.320920
  0
VERTEX
  8
0
  6
CONTINUOUS
 10
6.514640
 20
5.305960
  0
VERTEX
  8
0
  6
CONTINUOUS
 10
6.596040
 20
5.293200
  0
VERTEX
  8
0
  6
CONTINUOUS
 10
6.676560
 20
5.282200
  0
VERTEX
  8
0
  6
CONTINUOUS
 10
6.835400
 20
5.265040
  0
VERTEX
  8
0
  6
CONTINUOUS
 10
6.987640
 20
5.254040
  0
VERTEX
  8
0
  6
CONTINUOUS
 10
7.130640
 20
5.248320
  0
VERTEX
  8
0
  6
CONTINUOUS
 10
7.261760
 20
5.245680
  0
VERTEX
  8
0
  6
CONTINUOUS
 10
7.377920
 20
5.246120
  0
VERTEX
  8
0
  6
CONTINUOUS
 10
7.414000
 20
5.168240
  0
VERTEX
  8
0
  6
CONTINUOUS
 10
7.448320
 20
5.164720
  0
VERTEX
  8
0
  6
CONTINUOUS
 10
7.480880
 20
5.159880
  0
VERTEX
  8
0
  6
CONTINUOUS
 10
7.540720
 20
5.146680
  0
VERTEX
  8
0
  6
CONTINUOUS
 10
7.594400
 20
5.129960
  0
VERTEX
  8
0
  6
CONTINUOUS
 10
7.641480
 20
5.109720
  0
VERTEX
  8
0
  6
CONTINUOUS
 10
7.682840
 20
5.087280
  0
VERTEX
  8
0
  6
CONTINUOUS
 10
7.734760
 20
5.049880
  0
VERTEX
  8
0
  6
CONTINUOUS
 10
7.775240
 20
5.010720
  0
VERTEX
  8
0
  6
CONTINUOUS
 10
7.806040
 20
4.972440
  0
VERTEX
  8
0
  6
CONTINUOUS
 10
7.828040
 20
4.936800
  0
VERTEX
  8
0
  6
CONTINUOUS
 10
7.845640
 20
4.897640
  0
VERTEX
  8
0
  6
CONTINUOUS
 10
7.854000
 20
4.869480
  0
VERTEX
  8
0
  6
CONTINUOUS
 10
7.853560
 20
4.845280
  0
SEQEND
  8
0
  0
POLYLINE
  8
0
  6
CONTINUOUS
 66
     1
 40
0.000000
 41
0.000000
  0
VERTEX
  8
0
  6
CONTINUOUS
 10
4.809200
 20
3.104200
  0
VERTEX
  8
0
  6
CONTINUOUS
 10
7.780080
 20
3.104200
  0
VERTEX
  8
0
  6
CONTINUOUS
 10
7.780080
 20
4.443560
  0
VERTEX
  8
0
  6
CONTINUOUS
 10
7.780080
 20
4.443120
  0
VERTEX
  8
0
  6
CONTINUOUS
 10
7.338760
 20
4.443120
  0
VERTEX
  8
0
  6
CONTINUOUS
 10
7.330840
 20
4.402200
  0
VERTEX
  8
0
  6
CONTINUOUS
 10
7.321160
 20
4.362160
  0
VERTEX
  8
0
  6
CONTINUOUS
 10
7.310160
 20
4.323880
  0
VERTEX
  8
0
  6
CONTINUOUS
 10
7.297400
 20
4.286480
  0
VERTEX
  8
0
  6
CONTINUOUS
 10
7.282880
 20
4.249960
  0
VERTEX
  8
0
  6
CONTINUOUS
 10
7.267040
 20
4.214760
  0
VERTEX
  8
0
  6
CONTINUOUS
 10
7.249880
 20
4.180880
  0
VERTEX
  8
0
  6
CONTINUOUS
 10
7.210720
 20
4.115760
  0
VERTEX
  8
0
  6
CONTINUOUS
 10
7.189600
 20
4.084960
  0
VERTEX
  8
0
  6
CONTINUOUS
 10
7.142960
 20
4.026440
  0
VERTEX
  8
0
  6
CONTINUOUS
 10
7.091480
 20
3.971880
  0
VERTEX
  8
0
  6
CONTINUOUS
 10
7.035600
 20
3.921280
  0
VERTEX
  8
0
  6
CONTINUOUS
 10
6.975320
 20
3.874200
  0
VERTEX
  8
0
  6
CONTINUOUS
 10
6.911960
 20
3.831080
  0
VERTEX
  8
0
  6
CONTINUOUS
 10
6.844640
 20
3.791040
  0
VERTEX
  8
0
  6
CONTINUOUS
 10
6.774680
 20
3.754520
  0
VERTEX
  8
0
  6
CONTINUOUS
 10
6.664680
 20
3.705680
  0
VERTEX
  8
0
  6
CONTINUOUS
 10
6.549840
 20
3.663440
  0
VERTEX
  8
0
  6
CONTINUOUS
 10
6.471520
 20
3.638800
  0
VERTEX
  8
0
  6
CONTINUOUS
 10
6.391440
 20
3.616800
  0
VERTEX
  8
0
  6
CONTINUOUS
 10
6.310920
 20
3.597440
  0
VERTEX
  8
0
  6
CONTINUOUS
 10
6.229520
 20
3.580280
  0
VERTEX
  8
0
  6
CONTINUOUS
 10
6.148120
 20
3.565320
  0
VERTEX
  8
0
  6
CONTINUOUS
 10
6.066720
 20
3.552120
  0
VERTEX
  8
0
  6
CONTINUOUS
 10
5.986200
 20
3.541120
  0
VERTEX
  8
0
  6
CONTINUOUS
 10
5.906120
 20
3.531880
  0
VERTEX
  8
0
  6
CONTINUOUS
 10
5.750360
 20
3.518240
  0
VERTEX
  8
0
  6
CONTINUOUS
 10
5.602520
 20
3.509880
  0
VERTEX
  8
0
  6
CONTINUOUS
 10
5.401000
 20
3.505040
  0
VERTEX
  8
0
  6
CONTINUOUS
 10
5.284840
 20
3.505480
  0
VERTEX
  8
0
  6
CONTINUOUS
 10
5.248760
 20
3.427600
  0
VERTEX
  8
0
  6
CONTINUOUS
 10
5.214440
 20
3.424080
  0
VERTEX
  8
0
  6
CONTINUOUS
 10
5.181880
 20
3.419240
  0
VERTEX
  8
0
  6
CONTINUOUS
 10
5.122040
 20
3.406040
  0
VERTEX
  8
0
  6
CONTINUOUS
 10
5.068360
 20
3.389320
  0
VERTEX
  8
0
  6
CONTINUOUS
 10
5.021280
 20
3.369080
  0
VERTEX
  8
0
  6
CONTINUOUS
 10
4.979920
 20
3.346200
  0
VERTEX
  8
0
  6
CONTINUOUS
 10
4.944280
 20
3.322000
  0
VERTEX
  8
0
  6
CONTINUOUS
 10
4.913480
 20
3.296480
  0
VERTEX
  8
0
  6
CONTINUOUS
 10
4.876080
 20
3.257320
  0
VERTEX
  8
0
  6
CONTINUOUS
 10
4.848800
 20
3.219480
  0
VERTEX
  8
0
  6
CONTINUOUS
 10
4.829440
 20
3.185160
  0
VERTEX
  8
0
  6
CONTINUOUS
 10
4.814040
 20
3.148640
  0
VERTEX
  8
0
  6
CONTINUOUS
 10
4.808760
 20
3.126640
  0
VERTEX
  8
0
  6
CONTINUOUS
 10
4.809200
 20
3.104200
  0
SEQEND
  8
0
  0
ENDSEC
  0
EOF
