  0
SECTION
  2
HEADER
  9
$ACADVER
  1
AC1006
  9
$EXTMIN
 10
1.697080
 20
1.047200
  9
$EXTMAX
 10
7.276280
 20
10.134520
  9
$LTSCALE
 40
0.044000
  9
$PDMODE
 70
    35
  9
$PDSIZE
 40
0.035200
  0
ENDSEC
  0
SECTION
  2
TABLES
  0
TABLE
  2
LTYPE
 70
     9
  0
LTYPE
  2
CONTINUOUS
 70
    64
  3
Solid line
 72
    65
 73
     0
 40
0.000000
  0
LTYPE
  2
DASHED
 70
    64
  3
__ __ __ __ __ __ __ __ __ __ __ __ __ __ __
 72
    65
 73
     2
 40
0.000330
 49
0.000220
 49
-0.000110
  0
LTYPE
  2
HIDDEN
 70
    64
  3
 _ _ _ _ _ _ _ _ _ _ _ _ _ _ _ _ _ _ _ _ _ _
 72
    65
 73
     2
 40
0.000165
 49
0.000110
 49
-0.000055
  0
LTYPE
  2
CENTER
 70
    64
  3
____ _ ____ _ ____ _ ____ _ ____ _ ____ _ ____
 72
    65
 73
     4
 40
0.000880
 49
0.000550
 49
-0.000110
 49
0.000110
 49
-0.000110
  0
LTYPE
  2
PHANTOM
 70
    64
  3
_____ _ _ _____ _ _ _____ _ _ _____ _ _ ____
 72
    65
 73
     6
 40
0.001100
 49
0.000550
 49
-0.000110
 49
0.000110
 49
-0.000110
 49
0.000110
 49
-0.000110
  0
LTYPE
  2
DOT
 70
    64
  3
...............................................
 72
    65
 73
     2
 40
0.000110
 49
0.000000
 49
-0.000110
  0
LTYPE
  2
DASHDOT
 70
    64
  3
__ . __ . __ . __ . __ . __ . __ . __ . __ . __
 72
    65
 73
     4
 40
0.000440
 49
0.000220
 49
-0.000110
 49
0.000000
 49
-0.000110
  0
LTYPE
  2
BORDER
 70
    64
  3
__ __ . __ __ . __ __ . __ __ . __ __ . __ __
 72
    65
 73
     6
 40
0.000770
 49
0.000220
 49
-0.000110
 49
0.000220
 49
-0.000110
 49
0.000000
 49
-0.000110
  0
LTYPE
  2
DIVIDE
 70
    64
  3
__ . . __ . . __ . . __ . . __ . . __ . . __
 72
    65
 73
     6
 40
0.000550
 49
0.000220
 49
-0.000110
 49
0.000000
 49
-0.000110
 49
0.000000
 49
-0.000110
  0
LTYPE
  2
DOTDOT
 70
    64
  3
 . .  . .  . .  . .  . .  . . 
 72
    65
 73
     5
 40
0.000242
 49
-0.000110
 49
0.000000
 49
-0.000110
 49
0.000000
 49
-0.000110
  0
ENDTAB
  0
TABLE
  2
STYLE
 70
     2
  0
STYLE
 70
     0
  2
SN0
 40
0.000000
 41
0.000440
 50
0.000000
 71
     0
 42
0.000000
  3
ROMAND
  0
STYLE
 70
    68
  2
SV0
 40
0.000000
 41
0.000440
 50
0.000000
 71
     0
 42
0.000000
  3
ROMAND
  0
ENDTAB
  0
TABLE
  2
LAYER
 70
     3
  0
LAYER
  2
FOREGROUND
 70
    64
 62
     7
  6
CONTINUOUS
  0
LAYER
  2
BACKGROUND
 70
    65
 62
    -7
  6
CONTINUOUS
  0
LAYER
  2
0
 70
    64
 62
     7
  6
CONTINUOUS
  0
ENDTAB
  0
ENDSEC
  0
SECTION
  2
ENTITIES
  0
POLYLINE
  8
FOREGROUND
  6
CONTINUOUS
 66
     1
 40
0.000000
 41
0.000000
  0
VERTEX
  8
FOREGROUND
  6
CONTINUOUS
 10
0.000000
 20
11.181720
  0
VERTEX
  8
FOREGROUND
  6
CONTINUOUS
 10
8.499920
 20
11.181720
  0
VERTEX
  8
FOREGROUND
  6
CONTINUOUS
 10
8.499920
 20
0.181720
  0
VERTEX
  8
FOREGROUND
  6
CONTINUOUS
 10
0.000000
 20
0.181720
  0
VERTEX
  8
FOREGROUND
  6
CONTINUOUS
 10
0.000000
 20
11.181720
  0
SEQEND
  8
0
  0
POLYLINE
  8
FOREGROUND
  6
CONTINUOUS
 66
     1
 40
0.000000
 41
0.000000
  0
VERTEX
  8
FOREGROUND
  6
CONTINUOUS
 10
0.000000
 20
11.181720
  0
VERTEX
  8
FOREGROUND
  6
CONTINUOUS
 10
8.499920
 20
11.181720
  0
VERTEX
  8
FOREGROUND
  6
CONTINUOUS
 10
8.499920
 20
0.181720
  0
VERTEX
  8
FOREGROUND
  6
CONTINUOUS
 10
0.000000
 20
0.181720
  0
VERTEX
  8
FOREGROUND
  6
CONTINUOUS
 10
0.000000
 20
11.181720
  0
SEQEND
  8
0
  0
POLYLINE
  8
0
  6
CONTINUOUS
 66
     1
 40
0.014080
 41
0.014080
  0
VERTEX
  8
0
  6
CONTINUOUS
 10
4.808760
 20
8.549200
  0
VERTEX
  8
0
  6
CONTINUOUS
 10
4.808760
 20
7.490560
  0
VERTEX
  8
0
  6
CONTINUOUS
 10
6.695040
 20
7.490560
  0
VERTEX
  8
0
  6
CONTINUOUS
 10
6.944520
 20
7.490560
  0
VERTEX
  8
0
  6
CONTINUOUS
 10
6.944520
 20
7.689440
  0
VERTEX
  8
0
  6
CONTINUOUS
 10
6.972680
 20
7.700880
  0
VERTEX
  8
0
  6
CONTINUOUS
 10
6.999080
 20
7.714520
  0
VERTEX
  8
0
  6
CONTINUOUS
 10
7.024160
 20
7.729480
  0
VERTEX
  8
0
  6
CONTINUOUS
 10
7.047040
 20
7.745760
  0
VERTEX
  8
0
  6
CONTINUOUS
 10
7.067720
 20
7.763360
  0
VERTEX
  8
0
  6
CONTINUOUS
 10
7.087080
 20
7.782280
  0
VERTEX
  8
0
  6
CONTINUOUS
 10
7.104680
 20
7.802080
  0
VERTEX
  8
0
  6
CONTINUOUS
 10
7.120520
 20
7.823200
  0
VERTEX
  8
0
  6
CONTINUOUS
 10
7.134160
 20
7.845200
  0
VERTEX
  8
0
  6
CONTINUOUS
 10
7.146480
 20
7.868080
  0
VERTEX
  8
0
  6
CONTINUOUS
 10
7.156600
 20
7.891400
  0
VERTEX
  8
0
  6
CONTINUOUS
 10
7.164960
 20
7.915600
  0
VERTEX
  8
0
  6
CONTINUOUS
 10
7.171560
 20
7.939800
  0
VERTEX
  8
0
  6
CONTINUOUS
 10
7.175960
 20
7.964880
  0
VERTEX
  8
0
  6
CONTINUOUS
 10
7.179040
 20
7.989520
  0
VERTEX
  8
0
  6
CONTINUOUS
 10
7.180360
 20
8.015040
  0
VERTEX
  8
0
  6
CONTINUOUS
 10
7.179480
 20
8.040120
  0
VERTEX
  8
0
  6
CONTINUOUS
 10
7.176840
 20
8.065200
  0
VERTEX
  8
0
  6
CONTINUOUS
 10
7.172440
 20
8.089840
  0
VERTEX
  8
0
  6
CONTINUOUS
 10
7.165840
 20
8.114480
  0
VERTEX
  8
0
  6
CONTINUOUS
 10
7.157920
 20
8.138680
  0
VERTEX
  8
0
  6
CONTINUOUS
 10
7.147800
 20
8.162440
  0
VERTEX
  8
0
  6
CONTINUOUS
 10
7.135920
 20
8.185320
  0
VERTEX
  8
0
  6
CONTINUOUS
 10
7.122280
 20
8.207320
  0
VERTEX
  8
0
  6
CONTINUOUS
 10
7.106440
 20
8.228880
  0
VERTEX
  8
0
  6
CONTINUOUS
 10
7.088840
 20
8.249120
  0
VERTEX
  8
0
  6
CONTINUOUS
 10
7.069480
 20
8.268480
  0
VERTEX
  8
0
  6
CONTINUOUS
 10
7.048360
 20
8.286520
  0
VERTEX
  8
0
  6
CONTINUOUS
 10
7.025040
 20
8.303240
  0
VERTEX
  8
0
  6
CONTINUOUS
 10
7.000400
 20
8.318640
  0
VERTEX
  8
0
  6
CONTINUOUS
 10
6.973120
 20
8.332280
  0
VERTEX
  8
0
  6
CONTINUOUS
 10
6.944520
 20
8.344600
  0
VERTEX
  8
0
  6
CONTINUOUS
 10
6.944520
 20
8.549200
  0
VERTEX
  8
0
  6
CONTINUOUS
 10
6.695040
 20
8.549200
  0
VERTEX
  8
0
  6
CONTINUOUS
 10
4.808760
 20
8.549200
  0
SEQEND
  8
0
  0
SOLID
  8
0
 62
    15
 10
2.259840
 20
9.073680
 11
2.940080
 21
9.073680
 12
2.259840
 22
1.664080
 13
2.940080
 23
1.664080
  0
POLYLINE
  8
0
  6
CONTINUOUS
 66
     1
 40
0.000000
 41
0.000000
  0
VERTEX
  8
0
  6
CONTINUOUS
 10
2.259840
 20
9.073680
  0
VERTEX
  8
0
  6
CONTINUOUS
 10
2.940080
 20
9.073680
  0
VERTEX
  8
0
  6
CONTINUOUS
 10
2.940080
 20
1.664080
  0
VERTEX
  8
0
  6
CONTINUOUS
 10
2.259840
 20
1.664080
  0
VERTEX
  8
0
  6
CONTINUOUS
 10
2.259840
 20
9.073680
  0
SEQEND
  8
0
  0
SOLID
  8
0
 62
    15
 10
2.115080
 20
1.664080
 11
2.795760
 21
1.664080
 12
2.113760
 22
1.579160
 13
2.794440
 23
1.579160
  0
POLYLINE
  8
0
  6
CONTINUOUS
 66
     1
 40
0.000000
 41
0.000000
  0
VERTEX
  8
0
  6
CONTINUOUS
 10
2.115080
 20
1.664080
  0
VERTEX
  8
0
  6
CONTINUOUS
 10
2.795760
 20
1.664080
  0
VERTEX
  8
0
  6
CONTINUOUS
 10
2.794440
 20
1.579160
  0
VERTEX
  8
0
  6
CONTINUOUS
 10
2.113760
 20
1.579160
  0
VERTEX
  8
0
  6
CONTINUOUS
 10
2.115080
 20
1.664080
  0
SEQEND
  8
0
  0
SOLID
  8
0
 62
    15
 10
2.113760
 20
1.579160
 11
2.794440
 21
1.579160
 12
2.104960
 22
1.514480
 13
2.785200
 23
1.514480
  0
POLYLINE
  8
0
  6
CONTINUOUS
 66
     1
 40
0.000000
 41
0.000000
  0
VERTEX
  8
0
  6
CONTINUOUS
 10
2.113760
 20
1.579160
  0
VERTEX
  8
0
  6
CONTINUOUS
 10
2.794440
 20
1.579160
  0
VERTEX
  8
0
  6
CONTINUOUS
 10
2.785200
 20
1.514480
  0
VERTEX
  8
0
  6
CONTINUOUS
 10
2.104960
 20
1.514480
  0
VERTEX
  8
0
  6
CONTINUOUS
 10
2.113760
 20
1.579160
  0
SEQEND
  8
0
  0
SOLID
  8
0
 62
    15
 10
2.104960
 20
1.514480
 11
2.785200
 21
1.514480
 12
2.089120
 22
1.466080
 13
2.769800
 23
1.466080
  0
POLYLINE
  8
0
  6
CONTINUOUS
 66
     1
 40
0.000000
 41
0.000000
  0
VERTEX
  8
0
  6
CONTINUOUS
 10
2.104960
 20
1.514480
  0
VERTEX
  8
0
  6
CONTINUOUS
 10
2.785200
 20
1.514480
  0
VERTEX
  8
0
  6
CONTINUOUS
 10
2.769800
 20
1.466080
  0
VERTEX
  8
0
  6
CONTINUOUS
 10
2.089120
 20
1.466080
  0
VERTEX
  8
0
  6
CONTINUOUS
 10
2.104960
 20
1.514480
  0
SEQEND
  8
0
  0
SOLID
  8
0
 62
    15
 10
2.089120
 20
1.466080
 11
2.769800
 21
1.466080
 12
2.068440
 22
1.430440
 13
2.749120
 23
1.430440
  0
POLYLINE
  8
0
  6
CONTINUOUS
 66
     1
 40
0.000000
 41
0.000000
  0
VERTEX
  8
0
  6
CONTINUOUS
 10
2.089120
 20
1.466080
  0
VERTEX
  8
0
  6
CONTINUOUS
 10
2.769800
 20
1.466080
  0
VERTEX
  8
0
  6
CONTINUOUS
 10
2.749120
 20
1.430440
  0
VERTEX
  8
0
  6
CONTINUOUS
 10
2.068440
 20
1.430440
  0
VERTEX
  8
0
  6
CONTINUOUS
 10
2.089120
 20
1.466080
  0
SEQEND
  8
0
  0
SOLID
  8
0
 62
    15
 10
2.068440
 20
1.430440
 11
2.749120
 21
1.430440
 12
1.958880
 22
1.334960
 13
2.639120
 23
1.334960
  0
POLYLINE
  8
0
  6
CONTINUOUS
 66
     1
 40
0.000000
 41
0.000000
  0
VERTEX
  8
0
  6
CONTINUOUS
 10
2.068440
 20
1.430440
  0
VERTEX
  8
0
  6
CONTINUOUS
 10
2.749120
 20
1.430440
  0
VERTEX
  8
0
  6
CONTINUOUS
 10
2.639120
 20
1.334960
  0
VERTEX
  8
0
  6
CONTINUOUS
 10
1.958880
 20
1.334960
  0
VERTEX
  8
0
  6
CONTINUOUS
 10
2.068440
 20
1.430440
  0
SEQEND
  8
0
  0
SOLID
  8
0
 62
    15
 10
1.958880
 20
1.334960
 11
2.639120
 21
1.334960
 12
1.906520
 22
1.276440
 13
2.586760
 23
1.276440
  0
POLYLINE
  8
0
  6
CONTINUOUS
 66
     1
 40
0.000000
 41
0.000000
  0
VERTEX
  8
0
  6
CONTINUOUS
 10
1.958880
 20
1.334960
  0
VERTEX
  8
0
  6
CONTINUOUS
 10
2.639120
 20
1.334960
  0
VERTEX
  8
0
  6
CONTINUOUS
 10
2.586760
 20
1.276440
  0
VERTEX
  8
0
  6
CONTINUOUS
 10
1.906520
 20
1.276440
  0
VERTEX
  8
0
  6
CONTINUOUS
 10
1.958880
 20
1.334960
  0
SEQEND
  8
0
  0
SOLID
  8
0
 62
    15
 10
1.906520
 20
1.276440
 11
2.586760
 21
1.276440
 12
1.865600
 22
1.211320
 13
2.546280
 23
1.211320
  0
POLYLINE
  8
0
  6
CONTINUOUS
 66
     1
 40
0.000000
 41
0.000000
  0
VERTEX
  8
0
  6
CONTINUOUS
 10
1.906520
 20
1.276440
  0
VERTEX
  8
0
  6
CONTINUOUS
 10
2.586760
 20
1.276440
  0
VERTEX
  8
0
  6
CONTINUOUS
 10
2.546280
 20
1.211320
  0
VERTEX
  8
0
  6
CONTINUOUS
 10
1.865600
 20
1.211320
  0
VERTEX
  8
0
  6
CONTINUOUS
 10
1.906520
 20
1.276440
  0
SEQEND
  8
0
  0
SOLID
  8
0
 62
    15
 10
1.865600
 20
1.211320
 11
2.546280
 21
1.211320
 12
1.839640
 22
1.141800
 13
2.519880
 23
1.141800
  0
POLYLINE
  8
0
  6
CONTINUOUS
 66
     1
 40
0.000000
 41
0.000000
  0
VERTEX
  8
0
  6
CONTINUOUS
 10
1.865600
 20
1.211320
  0
VERTEX
  8
0
  6
CONTINUOUS
 10
2.546280
 20
1.211320
  0
VERTEX
  8
0
  6
CONTINUOUS
 10
2.519880
 20
1.141800
  0
VERTEX
  8
0
  6
CONTINUOUS
 10
1.839640
 20
1.141800
  0
VERTEX
  8
0
  6
CONTINUOUS
 10
1.865600
 20
1.211320
  0
SEQEND
  8
0
  0
SOLID
  8
0
 62
    15
 10
1.839640
 20
1.141800
 11
2.519880
 21
1.141800
 12
1.830400
 22
1.069640
 13
2.510640
 23
1.069640
  0
POLYLINE
  8
0
  6
CONTINUOUS
 66
     1
 40
0.000000
 41
0.000000
  0
VERTEX
  8
0
  6
CONTINUOUS
 10
1.839640
 20
1.141800
  0
VERTEX
  8
0
  6
CONTINUOUS
 10
2.519880
 20
1.141800
  0
VERTEX
  8
0
  6
CONTINUOUS
 10
2.510640
 20
1.069640
  0
VERTEX
  8
0
  6
CONTINUOUS
 10
1.830400
 20
1.069640
  0
VERTEX
  8
0
  6
CONTINUOUS
 10
1.839640
 20
1.141800
  0
SEQEND
  8
0
  0
SOLID
  8
0
 62
    15
 10
2.259840
 20
5.035360
 11
2.940520
 21
5.035360
 12
2.688840
 22
5.008960
 13
3.369080
 23
5.008960
  0
POLYLINE
  8
0
  6
CONTINUOUS
 66
     1
 40
0.000000
 41
0.000000
  0
VERTEX
  8
0
  6
CONTINUOUS
 10
2.259840
 20
5.035360
  0
VERTEX
  8
0
  6
CONTINUOUS
 10
2.940520
 20
5.035360
  0
VERTEX
  8
0
  6
CONTINUOUS
 10
3.369080
 20
5.008960
  0
VERTEX
  8
0
  6
CONTINUOUS
 10
2.688840
 20
5.008960
  0
VERTEX
  8
0
  6
CONTINUOUS
 10
2.259840
 20
5.035360
  0
SEQEND
  8
0
  0
SOLID
  8
0
 62
    15
 10
2.688840
 20
5.008960
 11
3.369080
 21
5.008960
 12
2.715680
 22
4.910400
 13
3.395920
 23
4.910400
  0
POLYLINE
  8
0
  6
CONTINUOUS
 66
     1
 40
0.000000
 41
0.000000
  0
VERTEX
  8
0
  6
CONTINUOUS
 10
2.688840
 20
5.008960
  0
VERTEX
  8
0
  6
CONTINUOUS
 10
3.369080
 20
5.008960
  0
VERTEX
  8
0
  6
CONTINUOUS
 10
3.395920
 20
4.910400
  0
VERTEX
  8
0
  6
CONTINUOUS
 10
2.715680
 20
4.910400
  0
VERTEX
  8
0
  6
CONTINUOUS
 10
2.688840
 20
5.008960
  0
SEQEND
  8
0
  0
SOLID
  8
0
 62
    15
 10
2.715680
 20
4.910400
 11
3.395920
 21
4.910400
 12
2.827440
 22
4.901160
 13
3.507680
 23
4.901160
  0
POLYLINE
  8
0
  6
CONTINUOUS
 66
     1
 40
0.000000
 41
0.000000
  0
VERTEX
  8
0
  6
CONTINUOUS
 10
2.715680
 20
4.910400
  0
VERTEX
  8
0
  6
CONTINUOUS
 10
3.395920
 20
4.910400
  0
VERTEX
  8
0
  6
CONTINUOUS
 10
3.507680
 20
4.901160
  0
VERTEX
  8
0
  6
CONTINUOUS
 10
2.827440
 20
4.901160
  0
VERTEX
  8
0
  6
CONTINUOUS
 10
2.715680
 20
4.910400
  0
SEQEND
  8
0
  0
SOLID
  8
0
 62
    15
 10
2.827440
 20
4.901160
 11
3.507680
 21
4.901160
 12
2.918960
 22
4.883560
 13
3.599640
 23
4.883560
  0
POLYLINE
  8
0
  6
CONTINUOUS
 66
     1
 40
0.000000
 41
0.000000
  0
VERTEX
  8
0
  6
CONTINUOUS
 10
2.827440
 20
4.901160
  0
VERTEX
  8
0
  6
CONTINUOUS
 10
3.507680
 20
4.901160
  0
VERTEX
  8
0
  6
CONTINUOUS
 10
3.599640
 20
4.883560
  0
VERTEX
  8
0
  6
CONTINUOUS
 10
2.918960
 20
4.883560
  0
VERTEX
  8
0
  6
CONTINUOUS
 10
2.827440
 20
4.901160
  0
SEQEND
  8
0
  0
SOLID
  8
0
 62
    15
 10
2.918960
 20
4.883560
 11
3.599640
 21
4.883560
 12
2.992440
 22
4.857600
 13
3.673120
 23
4.857600
  0
POLYLINE
  8
0
  6
CONTINUOUS
 66
     1
 40
0.000000
 41
0.000000
  0
VERTEX
  8
0
  6
CONTINUOUS
 10
2.918960
 20
4.883560
  0
VERTEX
  8
0
  6
CONTINUOUS
 10
3.599640
 20
4.883560
  0
VERTEX
  8
0
  6
CONTINUOUS
 10
3.673120
 20
4.857600
  0
VERTEX
  8
0
  6
CONTINUOUS
 10
2.992440
 20
4.857600
  0
VERTEX
  8
0
  6
CONTINUOUS
 10
2.918960
 20
4.883560
  0
SEQEND
  8
0
  0
SOLID
  8
0
 62
    15
 10
2.992440
 20
4.857600
 11
3.673120
 21
4.857600
 12
3.050080
 22
4.824600
 13
3.730320
 23
4.824600
  0
POLYLINE
  8
0
  6
CONTINUOUS
 66
     1
 40
0.000000
 41
0.000000
  0
VERTEX
  8
0
  6
CONTINUOUS
 10
2.992440
 20
4.857600
  0
VERTEX
  8
0
  6
CONTINUOUS
 10
3.673120
 20
4.857600
  0
VERTEX
  8
0
  6
CONTINUOUS
 10
3.730320
 20
4.824600
  0
VERTEX
  8
0
  6
CONTINUOUS
 10
3.050080
 20
4.824600
  0
VERTEX
  8
0
  6
CONTINUOUS
 10
2.992440
 20
4.857600
  0
SEQEND
  8
0
  0
SOLID
  8
0
 62
    15
 10
3.050080
 20
4.824600
 11
3.730320
 21
4.824600
 12
3.092760
 22
4.784120
 13
3.773440
 23
4.784120
  0
POLYLINE
  8
0
  6
CONTINUOUS
 66
     1
 40
0.000000
 41
0.000000
  0
VERTEX
  8
0
  6
CONTINUOUS
 10
3.050080
 20
4.824600
  0
VERTEX
  8
0
  6
CONTINUOUS
 10
3.730320
 20
4.824600
  0
VERTEX
  8
0
  6
CONTINUOUS
 10
3.773440
 20
4.784120
  0
VERTEX
  8
0
  6
CONTINUOUS
 10
3.092760
 20
4.784120
  0
VERTEX
  8
0
  6
CONTINUOUS
 10
3.050080
 20
4.824600
  0
SEQEND
  8
0
  0
SOLID
  8
0
 62
    15
 10
3.092760
 20
4.784120
 11
3.773440
 21
4.784120
 12
3.123120
 22
4.737040
 13
3.803800
 23
4.737040
  0
POLYLINE
  8
0
  6
CONTINUOUS
 66
     1
 40
0.000000
 41
0.000000
  0
VERTEX
  8
0
  6
CONTINUOUS
 10
3.092760
 20
4.784120
  0
VERTEX
  8
0
  6
CONTINUOUS
 10
3.773440
 20
4.784120
  0
VERTEX
  8
0
  6
CONTINUOUS
 10
3.803800
 20
4.737040
  0
VERTEX
  8
0
  6
CONTINUOUS
 10
3.123120
 20
4.737040
  0
VERTEX
  8
0
  6
CONTINUOUS
 10
3.092760
 20
4.784120
  0
SEQEND
  8
0
  0
SOLID
  8
0
 62
    15
 10
3.123120
 20
4.737040
 11
3.803800
 21
4.737040
 12
3.153480
 22
4.624400
 13
3.833720
 23
4.624400
  0
POLYLINE
  8
0
  6
CONTINUOUS
 66
     1
 40
0.000000
 41
0.000000
  0
VERTEX
  8
0
  6
CONTINUOUS
 10
3.123120
 20
4.737040
  0
VERTEX
  8
0
  6
CONTINUOUS
 10
3.803800
 20
4.737040
  0
VERTEX
  8
0
  6
CONTINUOUS
 10
3.833720
 20
4.624400
  0
VERTEX
  8
0
  6
CONTINUOUS
 10
3.153480
 20
4.624400
  0
VERTEX
  8
0
  6
CONTINUOUS
 10
3.123120
 20
4.737040
  0
SEQEND
  8
0
  0
SOLID
  8
0
 62
    15
 10
3.153480
 20
4.624400
 11
3.833720
 21
4.624400
 12
3.155240
 22
4.249960
 13
3.835480
 23
4.249960
  0
POLYLINE
  8
0
  6
CONTINUOUS
 66
     1
 40
0.000000
 41
0.000000
  0
VERTEX
  8
0
  6
CONTINUOUS
 10
3.153480
 20
4.624400
  0
VERTEX
  8
0
  6
CONTINUOUS
 10
3.833720
 20
4.624400
  0
VERTEX
  8
0
  6
CONTINUOUS
 10
3.835480
 20
4.249960
  0
VERTEX
  8
0
  6
CONTINUOUS
 10
3.155240
 20
4.249960
  0
VERTEX
  8
0
  6
CONTINUOUS
 10
3.153480
 20
4.624400
  0
SEQEND
  8
0
  0
SOLID
  8
0
 62
    15
 10
3.155240
 20
4.249960
 11
3.835480
 21
4.249960
 12
3.140280
 22
4.176480
 13
3.820960
 23
4.176480
  0
POLYLINE
  8
0
  6
CONTINUOUS
 66
     1
 40
0.000000
 41
0.000000
  0
VERTEX
  8
0
  6
CONTINUOUS
 10
3.155240
 20
4.249960
  0
VERTEX
  8
0
  6
CONTINUOUS
 10
3.835480
 20
4.249960
  0
VERTEX
  8
0
  6
CONTINUOUS
 10
3.820960
 20
4.176480
  0
VERTEX
  8
0
  6
CONTINUOUS
 10
3.140280
 20
4.176480
  0
VERTEX
  8
0
  6
CONTINUOUS
 10
3.155240
 20
4.249960
  0
SEQEND
  8
0
  0
SOLID
  8
0
 62
    15
 10
3.140280
 20
4.176480
 11
3.820960
 21
4.176480
 12
3.118720
 22
4.147440
 13
3.798960
 23
4.147440
  0
POLYLINE
  8
0
  6
CONTINUOUS
 66
     1
 40
0.000000
 41
0.000000
  0
VERTEX
  8
0
  6
CONTINUOUS
 10
3.140280
 20
4.176480
  0
VERTEX
  8
0
  6
CONTINUOUS
 10
3.820960
 20
4.176480
  0
VERTEX
  8
0
  6
CONTINUOUS
 10
3.798960
 20
4.147440
  0
VERTEX
  8
0
  6
CONTINUOUS
 10
3.118720
 20
4.147440
  0
VERTEX
  8
0
  6
CONTINUOUS
 10
3.140280
 20
4.176480
  0
SEQEND
  8
0
  0
SOLID
  8
0
 62
    15
 10
3.118720
 20
4.147440
 11
3.798960
 21
4.147440
 12
3.082640
 22
4.136000
 13
3.763320
 23
4.136000
  0
POLYLINE
  8
0
  6
CONTINUOUS
 66
     1
 40
0.000000
 41
0.000000
  0
VERTEX
  8
0
  6
CONTINUOUS
 10
3.118720
 20
4.147440
  0
VERTEX
  8
0
  6
CONTINUOUS
 10
3.798960
 20
4.147440
  0
VERTEX
  8
0
  6
CONTINUOUS
 10
3.763320
 20
4.136000
  0
VERTEX
  8
0
  6
CONTINUOUS
 10
3.082640
 20
4.136000
  0
VERTEX
  8
0
  6
CONTINUOUS
 10
3.118720
 20
4.147440
  0
SEQEND
  8
0
  0
SOLID
  8
0
 62
    15
 10
3.082640
 20
4.136000
 11
3.763320
 21
4.136000
 12
3.008720
 22
4.128520
 13
3.688960
 23
4.128520
  0
POLYLINE
  8
0
  6
CONTINUOUS
 66
     1
 40
0.000000
 41
0.000000
  0
VERTEX
  8
0
  6
CONTINUOUS
 10
3.082640
 20
4.136000
  0
VERTEX
  8
0
  6
CONTINUOUS
 10
3.763320
 20
4.136000
  0
VERTEX
  8
0
  6
CONTINUOUS
 10
3.688960
 20
4.128520
  0
VERTEX
  8
0
  6
CONTINUOUS
 10
3.008720
 20
4.128520
  0
VERTEX
  8
0
  6
CONTINUOUS
 10
3.082640
 20
4.136000
  0
SEQEND
  8
0
  0
SOLID
  8
0
 62
    15
 10
3.008720
 20
4.128520
 11
3.688960
 21
4.128520
 12
2.943160
 22
4.110040
 13
3.623400
 23
4.110040
  0
POLYLINE
  8
0
  6
CONTINUOUS
 66
     1
 40
0.000000
 41
0.000000
  0
VERTEX
  8
0
  6
CONTINUOUS
 10
3.008720
 20
4.128520
  0
VERTEX
  8
0
  6
CONTINUOUS
 10
3.688960
 20
4.128520
  0
VERTEX
  8
0
  6
CONTINUOUS
 10
3.623400
 20
4.110040
  0
VERTEX
  8
0
  6
CONTINUOUS
 10
2.943160
 20
4.110040
  0
VERTEX
  8
0
  6
CONTINUOUS
 10
3.008720
 20
4.128520
  0
SEQEND
  8
0
  0
SOLID
  8
0
 62
    15
 10
2.943160
 20
4.110040
 11
3.623400
 21
4.110040
 12
2.834040
 22
4.044480
 13
3.514720
 23
4.044480
  0
POLYLINE
  8
0
  6
CONTINUOUS
 66
     1
 40
0.000000
 41
0.000000
  0
VERTEX
  8
0
  6
CONTINUOUS
 10
2.943160
 20
4.110040
  0
VERTEX
  8
0
  6
CONTINUOUS
 10
3.623400
 20
4.110040
  0
VERTEX
  8
0
  6
CONTINUOUS
 10
3.514720
 20
4.044480
  0
VERTEX
  8
0
  6
CONTINUOUS
 10
2.834040
 20
4.044480
  0
VERTEX
  8
0
  6
CONTINUOUS
 10
2.943160
 20
4.110040
  0
SEQEND
  8
0
  0
SOLID
  8
0
 62
    15
 10
2.834040
 20
4.044480
 11
3.514720
 21
4.044480
 12
2.750440
 22
3.950760
 13
3.431120
 23
3.950760
  0
POLYLINE
  8
0
  6
CONTINUOUS
 66
     1
 40
0.000000
 41
0.000000
  0
VERTEX
  8
0
  6
CONTINUOUS
 10
2.834040
 20
4.044480
  0
VERTEX
  8
0
  6
CONTINUOUS
 10
3.514720
 20
4.044480
  0
VERTEX
  8
0
  6
CONTINUOUS
 10
3.431120
 20
3.950760
  0
VERTEX
  8
0
  6
CONTINUOUS
 10
2.750440
 20
3.950760
  0
VERTEX
  8
0
  6
CONTINUOUS
 10
2.834040
 20
4.044480
  0
SEQEND
  8
0
  0
SOLID
  8
0
 62
    15
 10
2.750440
 20
3.950760
 11
3.431120
 21
3.950760
 12
2.687520
 22
3.838120
 13
3.368200
 23
3.838120
  0
POLYLINE
  8
0
  6
CONTINUOUS
 66
     1
 40
0.000000
 41
0.000000
  0
VERTEX
  8
0
  6
CONTINUOUS
 10
2.750440
 20
3.950760
  0
VERTEX
  8
0
  6
CONTINUOUS
 10
3.431120
 20
3.950760
  0
VERTEX
  8
0
  6
CONTINUOUS
 10
3.368200
 20
3.838120
  0
VERTEX
  8
0
  6
CONTINUOUS
 10
2.687520
 20
3.838120
  0
VERTEX
  8
0
  6
CONTINUOUS
 10
2.750440
 20
3.950760
  0
SEQEND
  8
0
  0
SOLID
  8
0
 62
    15
 10
2.687520
 20
3.838120
 11
3.368200
 21
3.838120
 12
2.600400
 22
3.600080
 13
3.281080
 23
3.600080
  0
POLYLINE
  8
0
  6
CONTINUOUS
 66
     1
 40
0.000000
 41
0.000000
  0
VERTEX
  8
0
  6
CONTINUOUS
 10
2.687520
 20
3.838120
  0
VERTEX
  8
0
  6
CONTINUOUS
 10
3.368200
 20
3.838120
  0
VERTEX
  8
0
  6
CONTINUOUS
 10
3.281080
 20
3.600080
  0
VERTEX
  8
0
  6
CONTINUOUS
 10
2.600400
 20
3.600080
  0
VERTEX
  8
0
  6
CONTINUOUS
 10
2.687520
 20
3.838120
  0
SEQEND
  8
0
  0
SOLID
  8
0
 62
    15
 10
2.600400
 20
3.600080
 11
3.281080
 21
3.600080
 12
2.566080
 22
3.494480
 13
3.246760
 23
3.494480
  0
POLYLINE
  8
0
  6
CONTINUOUS
 66
     1
 40
0.000000
 41
0.000000
  0
VERTEX
  8
0
  6
CONTINUOUS
 10
2.600400
 20
3.600080
  0
VERTEX
  8
0
  6
CONTINUOUS
 10
3.281080
 20
3.600080
  0
VERTEX
  8
0
  6
CONTINUOUS
 10
3.246760
 20
3.494480
  0
VERTEX
  8
0
  6
CONTINUOUS
 10
2.566080
 20
3.494480
  0
VERTEX
  8
0
  6
CONTINUOUS
 10
2.600400
 20
3.600080
  0
SEQEND
  8
0
  0
SOLID
  8
0
 62
    15
 10
2.566080
 20
3.494480
 11
3.246760
 21
3.494480
 12
2.530880
 22
3.411320
 13
3.211560
 23
3.411320
  0
POLYLINE
  8
0
  6
CONTINUOUS
 66
     1
 40
0.000000
 41
0.000000
  0
VERTEX
  8
0
  6
CONTINUOUS
 10
2.566080
 20
3.494480
  0
VERTEX
  8
0
  6
CONTINUOUS
 10
3.246760
 20
3.494480
  0
VERTEX
  8
0
  6
CONTINUOUS
 10
3.211560
 20
3.411320
  0
VERTEX
  8
0
  6
CONTINUOUS
 10
2.530880
 20
3.411320
  0
VERTEX
  8
0
  6
CONTINUOUS
 10
2.566080
 20
3.494480
  0
SEQEND
  8
0
  0
SOLID
  8
0
 62
    15
 10
2.530880
 20
3.411320
 11
3.211560
 21
3.411320
 12
2.435840
 22
3.329920
 13
3.116520
 23
3.329920
  0
POLYLINE
  8
0
  6
CONTINUOUS
 66
     1
 40
0.000000
 41
0.000000
  0
VERTEX
  8
0
  6
CONTINUOUS
 10
2.530880
 20
3.411320
  0
VERTEX
  8
0
  6
CONTINUOUS
 10
3.211560
 20
3.411320
  0
VERTEX
  8
0
  6
CONTINUOUS
 10
3.116520
 20
3.329920
  0
VERTEX
  8
0
  6
CONTINUOUS
 10
2.435840
 20
3.329920
  0
VERTEX
  8
0
  6
CONTINUOUS
 10
2.530880
 20
3.411320
  0
SEQEND
  8
0
  0
SOLID
  8
0
 62
    15
 10
2.435840
 20
3.329920
 11
3.116520
 21
3.329920
 12
2.482040
 22
3.300880
 13
3.162280
 23
3.300880
  0
POLYLINE
  8
0
  6
CONTINUOUS
 66
     1
 40
0.000000
 41
0.000000
  0
VERTEX
  8
0
  6
CONTINUOUS
 10
2.435840
 20
3.329920
  0
VERTEX
  8
0
  6
CONTINUOUS
 10
3.116520
 20
3.329920
  0
VERTEX
  8
0
  6
CONTINUOUS
 10
3.162280
 20
3.300880
  0
VERTEX
  8
0
  6
CONTINUOUS
 10
2.482040
 20
3.300880
  0
VERTEX
  8
0
  6
CONTINUOUS
 10
2.435840
 20
3.329920
  0
SEQEND
  8
0
  0
SOLID
  8
0
 62
    15
 10
2.482040
 20
3.300880
 11
3.162280
 21
3.300880
 12
2.511960
 22
3.261280
 13
3.192640
 23
3.261280
  0
POLYLINE
  8
0
  6
CONTINUOUS
 66
     1
 40
0.000000
 41
0.000000
  0
VERTEX
  8
0
  6
CONTINUOUS
 10
2.482040
 20
3.300880
  0
VERTEX
  8
0
  6
CONTINUOUS
 10
3.162280
 20
3.300880
  0
VERTEX
  8
0
  6
CONTINUOUS
 10
3.192640
 20
3.261280
  0
VERTEX
  8
0
  6
CONTINUOUS
 10
2.511960
 20
3.261280
  0
VERTEX
  8
0
  6
CONTINUOUS
 10
2.482040
 20
3.300880
  0
SEQEND
  8
0
  0
SOLID
  8
0
 62
    15
 10
2.511960
 20
3.261280
 11
3.192640
 21
3.261280
 12
2.526040
 22
3.215520
 13
3.206720
 23
3.215520
  0
POLYLINE
  8
0
  6
CONTINUOUS
 66
     1
 40
0.000000
 41
0.000000
  0
VERTEX
  8
0
  6
CONTINUOUS
 10
2.511960
 20
3.261280
  0
VERTEX
  8
0
  6
CONTINUOUS
 10
3.192640
 20
3.261280
  0
VERTEX
  8
0
  6
CONTINUOUS
 10
3.206720
 20
3.215520
  0
VERTEX
  8
0
  6
CONTINUOUS
 10
2.526040
 20
3.215520
  0
VERTEX
  8
0
  6
CONTINUOUS
 10
2.511960
 20
3.261280
  0
SEQEND
  8
0
  0
SOLID
  8
0
 62
    15
 10
2.526040
 20
3.215520
 11
3.206720
 21
3.215520
 12
2.525160
 22
3.168000
 13
3.205840
 23
3.168000
  0
POLYLINE
  8
0
  6
CONTINUOUS
 66
     1
 40
0.000000
 41
0.000000
  0
VERTEX
  8
0
  6
CONTINUOUS
 10
2.526040
 20
3.215520
  0
VERTEX
  8
0
  6
CONTINUOUS
 10
3.206720
 20
3.215520
  0
VERTEX
  8
0
  6
CONTINUOUS
 10
3.205840
 20
3.168000
  0
VERTEX
  8
0
  6
CONTINUOUS
 10
2.525160
 20
3.168000
  0
VERTEX
  8
0
  6
CONTINUOUS
 10
2.526040
 20
3.215520
  0
SEQEND
  8
0
  0
SOLID
  8
0
 62
    15
 10
2.525160
 20
3.168000
 11
3.205840
 21
3.168000
 12
2.509320
 22
3.123120
 13
3.189560
 23
3.123120
  0
POLYLINE
  8
0
  6
CONTINUOUS
 66
     1
 40
0.000000
 41
0.000000
  0
VERTEX
  8
0
  6
CONTINUOUS
 10
2.525160
 20
3.168000
  0
VERTEX
  8
0
  6
CONTINUOUS
 10
3.205840
 20
3.168000
  0
VERTEX
  8
0
  6
CONTINUOUS
 10
3.189560
 20
3.123120
  0
VERTEX
  8
0
  6
CONTINUOUS
 10
2.509320
 20
3.123120
  0
VERTEX
  8
0
  6
CONTINUOUS
 10
2.525160
 20
3.168000
  0
SEQEND
  8
0
  0
SOLID
  8
0
 62
    15
 10
2.509320
 20
3.123120
 11
3.189560
 21
3.123120
 12
2.478520
 22
3.086160
 13
3.159200
 23
3.086160
  0
POLYLINE
  8
0
  6
CONTINUOUS
 66
     1
 40
0.000000
 41
0.000000
  0
VERTEX
  8
0
  6
CONTINUOUS
 10
2.509320
 20
3.123120
  0
VERTEX
  8
0
  6
CONTINUOUS
 10
3.189560
 20
3.123120
  0
VERTEX
  8
0
  6
CONTINUOUS
 10
3.159200
 20
3.086160
  0
VERTEX
  8
0
  6
CONTINUOUS
 10
2.478520
 20
3.086160
  0
VERTEX
  8
0
  6
CONTINUOUS
 10
2.509320
 20
3.123120
  0
SEQEND
  8
0
  0
SOLID
  8
0
 62
    15
 10
2.478520
 20
3.086160
 11
3.159200
 21
3.086160
 12
2.433640
 22
3.061080
 13
3.114320
 23
3.061080
  0
POLYLINE
  8
0
  6
CONTINUOUS
 66
     1
 40
0.000000
 41
0.000000
  0
VERTEX
  8
0
  6
CONTINUOUS
 10
2.478520
 20
3.086160
  0
VERTEX
  8
0
  6
CONTINUOUS
 10
3.159200
 20
3.086160
  0
VERTEX
  8
0
  6
CONTINUOUS
 10
3.114320
 20
3.061080
  0
VERTEX
  8
0
  6
CONTINUOUS
 10
2.433640
 20
3.061080
  0
VERTEX
  8
0
  6
CONTINUOUS
 10
2.478520
 20
3.086160
  0
SEQEND
  8
0
  0
SOLID
  8
0
 62
    15
 10
2.433640
 20
3.061080
 11
3.114320
 21
3.061080
 12
2.375120
 22
3.053160
 13
3.055360
 23
3.053160
  0
POLYLINE
  8
0
  6
CONTINUOUS
 66
     1
 40
0.000000
 41
0.000000
  0
VERTEX
  8
0
  6
CONTINUOUS
 10
2.433640
 20
3.061080
  0
VERTEX
  8
0
  6
CONTINUOUS
 10
3.114320
 20
3.061080
  0
VERTEX
  8
0
  6
CONTINUOUS
 10
3.055360
 20
3.053160
  0
VERTEX
  8
0
  6
CONTINUOUS
 10
2.375120
 20
3.053160
  0
VERTEX
  8
0
  6
CONTINUOUS
 10
2.433640
 20
3.061080
  0
SEQEND
  8
0
  0
SOLID
  8
0
 62
    15
 10
2.375120
 20
3.053160
 11
3.055360
 21
3.053160
 12
2.375120
 22
2.925120
 13
3.055360
 23
2.925120
  0
POLYLINE
  8
0
  6
CONTINUOUS
 66
     1
 40
0.000000
 41
0.000000
  0
VERTEX
  8
0
  6
CONTINUOUS
 10
2.375120
 20
3.053160
  0
VERTEX
  8
0
  6
CONTINUOUS
 10
3.055360
 20
3.053160
  0
VERTEX
  8
0
  6
CONTINUOUS
 10
3.055360
 20
2.925120
  0
VERTEX
  8
0
  6
CONTINUOUS
 10
2.375120
 20
2.925120
  0
VERTEX
  8
0
  6
CONTINUOUS
 10
2.375120
 20
3.053160
  0
SEQEND
  8
0
  0
SOLID
  8
0
 62
    15
 10
2.375120
 20
2.925120
 11
3.055360
 21
2.925120
 12
2.375120
 22
2.922920
 13
3.055360
 23
2.922920
  0
POLYLINE
  8
0
  6
CONTINUOUS
 66
     1
 40
0.000000
 41
0.000000
  0
VERTEX
  8
0
  6
CONTINUOUS
 10
2.375120
 20
2.925120
  0
VERTEX
  8
0
  6
CONTINUOUS
 10
3.055360
 20
2.925120
  0
VERTEX
  8
0
  6
CONTINUOUS
 10
3.055360
 20
2.922920
  0
VERTEX
  8
0
  6
CONTINUOUS
 10
2.375120
 20
2.922920
  0
VERTEX
  8
0
  6
CONTINUOUS
 10
2.375120
 20
2.925120
  0
SEQEND
  8
0
  0
SOLID
  8
0
 62
    15
 10
3.836360
 20
10.132320
 11
4.516600
 21
10.132320
 12
3.836360
 22
9.928160
 13
4.516600
 23
9.928160
  0
POLYLINE
  8
0
  6
CONTINUOUS
 66
     1
 40
0.000000
 41
0.000000
  0
VERTEX
  8
0
  6
CONTINUOUS
 10
3.836360
 20
10.132320
  0
VERTEX
  8
0
  6
CONTINUOUS
 10
4.516600
 20
10.132320
  0
VERTEX
  8
0
  6
CONTINUOUS
 10
4.516600
 20
9.928160
  0
VERTEX
  8
0
  6
CONTINUOUS
 10
3.836360
 20
9.928160
  0
VERTEX
  8
0
  6
CONTINUOUS
 10
3.836360
 20
10.132320
  0
SEQEND
  8
0
  0
SOLID
  8
0
 62
    15
 10
3.836360
 20
9.928160
 11
4.516600
 21
9.928160
 12
3.940200
 22
9.870080
 13
4.620440
 23
9.870080
  0
POLYLINE
  8
0
  6
CONTINUOUS
 66
     1
 40
0.000000
 41
0.000000
  0
VERTEX
  8
0
  6
CONTINUOUS
 10
3.836360
 20
9.928160
  0
VERTEX
  8
0
  6
CONTINUOUS
 10
4.516600
 20
9.928160
  0
VERTEX
  8
0
  6
CONTINUOUS
 10
4.620440
 20
9.870080
  0
VERTEX
  8
0
  6
CONTINUOUS
 10
3.940200
 20
9.870080
  0
VERTEX
  8
0
  6
CONTINUOUS
 10
3.836360
 20
9.928160
  0
SEQEND
  8
0
  0
SOLID
  8
0
 62
    15
 10
3.940200
 20
9.870080
 11
4.620440
 21
9.870080
 12
4.013680
 22
9.790880
 13
4.694360
 23
9.790880
  0
POLYLINE
  8
0
  6
CONTINUOUS
 66
     1
 40
0.000000
 41
0.000000
  0
VERTEX
  8
0
  6
CONTINUOUS
 10
3.940200
 20
9.870080
  0
VERTEX
  8
0
  6
CONTINUOUS
 10
4.620440
 20
9.870080
  0
VERTEX
  8
0
  6
CONTINUOUS
 10
4.694360
 20
9.790880
  0
VERTEX
  8
0
  6
CONTINUOUS
 10
4.013680
 20
9.790880
  0
VERTEX
  8
0
  6
CONTINUOUS
 10
3.940200
 20
9.870080
  0
SEQEND
  8
0
  0
SOLID
  8
0
 62
    15
 10
4.013680
 20
9.790880
 11
4.694360
 21
9.790880
 12
4.057680
 22
9.698040
 13
4.737920
 23
9.698040
  0
POLYLINE
  8
0
  6
CONTINUOUS
 66
     1
 40
0.000000
 41
0.000000
  0
VERTEX
  8
0
  6
CONTINUOUS
 10
4.013680
 20
9.790880
  0
VERTEX
  8
0
  6
CONTINUOUS
 10
4.694360
 20
9.790880
  0
VERTEX
  8
0
  6
CONTINUOUS
 10
4.737920
 20
9.698040
  0
VERTEX
  8
0
  6
CONTINUOUS
 10
4.057680
 20
9.698040
  0
VERTEX
  8
0
  6
CONTINUOUS
 10
4.013680
 20
9.790880
  0
SEQEND
  8
0
  0
SOLID
  8
0
 62
    15
 10
4.057680
 20
9.698040
 11
4.737920
 21
9.698040
 12
4.071760
 22
9.598160
 13
4.752440
 23
9.598160
  0
POLYLINE
  8
0
  6
CONTINUOUS
 66
     1
 40
0.000000
 41
0.000000
  0
VERTEX
  8
0
  6
CONTINUOUS
 10
4.057680
 20
9.698040
  0
VERTEX
  8
0
  6
CONTINUOUS
 10
4.737920
 20
9.698040
  0
VERTEX
  8
0
  6
CONTINUOUS
 10
4.752440
 20
9.598160
  0
VERTEX
  8
0
  6
CONTINUOUS
 10
4.071760
 20
9.598160
  0
VERTEX
  8
0
  6
CONTINUOUS
 10
4.057680
 20
9.698040
  0
SEQEND
  8
0
  0
SOLID
  8
0
 62
    15
 10
4.071760
 20
9.598160
 11
4.752440
 21
9.598160
 12
4.056360
 22
9.498720
 13
4.737040
 23
9.498720
  0
POLYLINE
  8
0
  6
CONTINUOUS
 66
     1
 40
0.000000
 41
0.000000
  0
VERTEX
  8
0
  6
CONTINUOUS
 10
4.071760
 20
9.598160
  0
VERTEX
  8
0
  6
CONTINUOUS
 10
4.752440
 20
9.598160
  0
VERTEX
  8
0
  6
CONTINUOUS
 10
4.737040
 20
9.498720
  0
VERTEX
  8
0
  6
CONTINUOUS
 10
4.056360
 20
9.498720
  0
VERTEX
  8
0
  6
CONTINUOUS
 10
4.071760
 20
9.598160
  0
SEQEND
  8
0
  0
SOLID
  8
0
 62
    15
 10
4.056360
 20
9.498720
 11
4.737040
 21
9.498720
 12
4.011920
 22
9.406760
 13
4.692600
 23
9.406760
  0
POLYLINE
  8
0
  6
CONTINUOUS
 66
     1
 40
0.000000
 41
0.000000
  0
VERTEX
  8
0
  6
CONTINUOUS
 10
4.056360
 20
9.498720
  0
VERTEX
  8
0
  6
CONTINUOUS
 10
4.737040
 20
9.498720
  0
VERTEX
  8
0
  6
CONTINUOUS
 10
4.692600
 20
9.406760
  0
VERTEX
  8
0
  6
CONTINUOUS
 10
4.011920
 20
9.406760
  0
VERTEX
  8
0
  6
CONTINUOUS
 10
4.056360
 20
9.498720
  0
SEQEND
  8
0
  0
SOLID
  8
0
 62
    15
 10
4.011920
 20
9.406760
 11
4.692600
 21
9.406760
 12
3.938440
 22
9.328880
 13
4.619120
 23
9.328880
  0
POLYLINE
  8
0
  6
CONTINUOUS
 66
     1
 40
0.000000
 41
0.000000
  0
VERTEX
  8
0
  6
CONTINUOUS
 10
4.011920
 20
9.406760
  0
VERTEX
  8
0
  6
CONTINUOUS
 10
4.692600
 20
9.406760
  0
VERTEX
  8
0
  6
CONTINUOUS
 10
4.619120
 20
9.328880
  0
VERTEX
  8
0
  6
CONTINUOUS
 10
3.938440
 20
9.328880
  0
VERTEX
  8
0
  6
CONTINUOUS
 10
4.011920
 20
9.406760
  0
SEQEND
  8
0
  0
SOLID
  8
0
 62
    15
 10
3.938440
 20
9.328880
 11
4.619120
 21
9.328880
 12
3.836360
 22
9.273000
 13
4.516600
 23
9.273000
  0
POLYLINE
  8
0
  6
CONTINUOUS
 66
     1
 40
0.000000
 41
0.000000
  0
VERTEX
  8
0
  6
CONTINUOUS
 10
3.938440
 20
9.328880
  0
VERTEX
  8
0
  6
CONTINUOUS
 10
4.619120
 20
9.328880
  0
VERTEX
  8
0
  6
CONTINUOUS
 10
4.516600
 20
9.273000
  0
VERTEX
  8
0
  6
CONTINUOUS
 10
3.836360
 20
9.273000
  0
VERTEX
  8
0
  6
CONTINUOUS
 10
3.938440
 20
9.328880
  0
SEQEND
  8
0
  0
SOLID
  8
0
 62
    15
 10
3.836360
 20
9.273000
 11
4.516600
 21
9.273000
 12
3.836360
 22
9.073680
 13
4.516600
 23
9.073680
  0
POLYLINE
  8
0
  6
CONTINUOUS
 66
     1
 40
0.000000
 41
0.000000
  0
VERTEX
  8
0
  6
CONTINUOUS
 10
3.836360
 20
9.273000
  0
VERTEX
  8
0
  6
CONTINUOUS
 10
4.516600
 20
9.273000
  0
VERTEX
  8
0
  6
CONTINUOUS
 10
4.516600
 20
9.073680
  0
VERTEX
  8
0
  6
CONTINUOUS
 10
3.836360
 20
9.073680
  0
VERTEX
  8
0
  6
CONTINUOUS
 10
3.836360
 20
9.273000
  0
SEQEND
  8
0
  0
SOLID
  8
0
 62
    15
 10
1.699280
 20
10.134080
 11
2.379520
 21
10.134080
 12
1.699280
 22
10.132320
 13
2.379520
 23
10.132320
  0
POLYLINE
  8
0
  6
CONTINUOUS
 66
     1
 40
0.000000
 41
0.000000
  0
VERTEX
  8
0
  6
CONTINUOUS
 10
1.699280
 20
10.134080
  0
VERTEX
  8
0
  6
CONTINUOUS
 10
2.379520
 20
10.134080
  0
VERTEX
  8
0
  6
CONTINUOUS
 10
2.379520
 20
10.132320
  0
VERTEX
  8
0
  6
CONTINUOUS
 10
1.699280
 20
10.132320
  0
VERTEX
  8
0
  6
CONTINUOUS
 10
1.699280
 20
10.134080
  0
SEQEND
  8
0
  0
POLYLINE
  8
0
  6
CONTINUOUS
 66
     1
 40
0.000000
 41
0.000000
  0
VERTEX
  8
0
  6
CONTINUOUS
 10
1.697520
 20
9.073680
  0
VERTEX
  8
0
  6
CONTINUOUS
 10
2.259840
 20
9.073680
  0
VERTEX
  8
0
  6
CONTINUOUS
 10
2.259840
 20
1.664080
  0
VERTEX
  8
0
  6
CONTINUOUS
 10
2.115080
 20
1.664080
  0
VERTEX
  8
0
  6
CONTINUOUS
 10
2.113760
 20
1.579160
  0
VERTEX
  8
0
  6
CONTINUOUS
 10
2.104960
 20
1.514480
  0
VERTEX
  8
0
  6
CONTINUOUS
 10
2.089120
 20
1.466080
  0
VERTEX
  8
0
  6
CONTINUOUS
 10
2.068440
 20
1.430440
  0
VERTEX
  8
0
  6
CONTINUOUS
 10
1.958880
 20
1.334960
  0
VERTEX
  8
0
  6
CONTINUOUS
 10
1.906520
 20
1.276440
  0
VERTEX
  8
0
  6
CONTINUOUS
 10
1.865600
 20
1.211320
  0
VERTEX
  8
0
  6
CONTINUOUS
 10
1.839640
 20
1.141800
  0
VERTEX
  8
0
  6
CONTINUOUS
 10
1.830400
 20
1.069640
  0
VERTEX
  8
0
  6
CONTINUOUS
 10
1.697520
 20
1.069640
  0
VERTEX
  8
0
  6
CONTINUOUS
 10
1.697520
 20
9.073240
  0
VERTEX
  8
0
  6
CONTINUOUS
 10
1.697520
 20
9.073680
  0
SEQEND
  8
0
  0
POLYLINE
  8
0
  6
CONTINUOUS
 66
     1
 40
0.000000
 41
0.000000
  0
VERTEX
  8
0
  6
CONTINUOUS
 10
2.375120
 20
2.922920
  0
VERTEX
  8
0
  6
CONTINUOUS
 10
2.259840
 20
2.922920
  0
VERTEX
  8
0
  6
CONTINUOUS
 10
2.259840
 20
5.035360
  0
VERTEX
  8
0
  6
CONTINUOUS
 10
2.688840
 20
5.008960
  0
VERTEX
  8
0
  6
CONTINUOUS
 10
2.715680
 20
4.910400
  0
VERTEX
  8
0
  6
CONTINUOUS
 10
2.827440
 20
4.901160
  0
VERTEX
  8
0
  6
CONTINUOUS
 10
2.918960
 20
4.883560
  0
VERTEX
  8
0
  6
CONTINUOUS
 10
2.992440
 20
4.857600
  0
VERTEX
  8
0
  6
CONTINUOUS
 10
3.050080
 20
4.824600
  0
VERTEX
  8
0
  6
CONTINUOUS
 10
3.092760
 20
4.784120
  0
VERTEX
  8
0
  6
CONTINUOUS
 10
3.123120
 20
4.737040
  0
VERTEX
  8
0
  6
CONTINUOUS
 10
3.153480
 20
4.624400
  0
VERTEX
  8
0
  6
CONTINUOUS
 10
3.155240
 20
4.249960
  0
VERTEX
  8
0
  6
CONTINUOUS
 10
3.140280
 20
4.176480
  0
VERTEX
  8
0
  6
CONTINUOUS
 10
3.118720
 20
4.147440
  0
VERTEX
  8
0
  6
CONTINUOUS
 10
3.082640
 20
4.136000
  0
VERTEX
  8
0
  6
CONTINUOUS
 10
3.008720
 20
4.128520
  0
VERTEX
  8
0
  6
CONTINUOUS
 10
2.943160
 20
4.110040
  0
VERTEX
  8
0
  6
CONTINUOUS
 10
2.834040
 20
4.044480
  0
VERTEX
  8
0
  6
CONTINUOUS
 10
2.750440
 20
3.950760
  0
VERTEX
  8
0
  6
CONTINUOUS
 10
2.687520
 20
3.838120
  0
VERTEX
  8
0
  6
CONTINUOUS
 10
2.600400
 20
3.600080
  0
VERTEX
  8
0
  6
CONTINUOUS
 10
2.566080
 20
3.494480
  0
VERTEX
  8
0
  6
CONTINUOUS
 10
2.530880
 20
3.411320
  0
VERTEX
  8
0
  6
CONTINUOUS
 10
2.435840
 20
3.329920
  0
VERTEX
  8
0
  6
CONTINUOUS
 10
2.482040
 20
3.300880
  0
VERTEX
  8
0
  6
CONTINUOUS
 10
2.511960
 20
3.261280
  0
VERTEX
  8
0
  6
CONTINUOUS
 10
2.526040
 20
3.215520
  0
VERTEX
  8
0
  6
CONTINUOUS
 10
2.525160
 20
3.168000
  0
VERTEX
  8
0
  6
CONTINUOUS
 10
2.509320
 20
3.123120
  0
VERTEX
  8
0
  6
CONTINUOUS
 10
2.478520
 20
3.086160
  0
VERTEX
  8
0
  6
CONTINUOUS
 10
2.433640
 20
3.061080
  0
VERTEX
  8
0
  6
CONTINUOUS
 10
2.375120
 20
3.053160
  0
VERTEX
  8
0
  6
CONTINUOUS
 10
2.375120
 20
2.925120
  0
VERTEX
  8
0
  6
CONTINUOUS
 10
2.375120
 20
2.922920
  0
SEQEND
  8
0
  0
POLYLINE
  8
0
  6
CONTINUOUS
 66
     1
 40
0.000000
 41
0.000000
  0
VERTEX
  8
0
  6
CONTINUOUS
 10
1.699280
 20
10.132320
  0
VERTEX
  8
0
  6
CONTINUOUS
 10
3.836360
 20
10.132320
  0
VERTEX
  8
0
  6
CONTINUOUS
 10
3.836360
 20
9.928160
  0
VERTEX
  8
0
  6
CONTINUOUS
 10
3.940200
 20
9.870080
  0
VERTEX
  8
0
  6
CONTINUOUS
 10
4.013680
 20
9.790880
  0
VERTEX
  8
0
  6
CONTINUOUS
 10
4.057680
 20
9.698040
  0
VERTEX
  8
0
  6
CONTINUOUS
 10
4.071760
 20
9.598160
  0
VERTEX
  8
0
  6
CONTINUOUS
 10
4.056360
 20
9.498720
  0
VERTEX
  8
0
  6
CONTINUOUS
 10
4.011920
 20
9.406760
  0
VERTEX
  8
0
  6
CONTINUOUS
 10
3.938440
 20
9.328880
  0
VERTEX
  8
0
  6
CONTINUOUS
 10
3.836360
 20
9.273000
  0
VERTEX
  8
0
  6
CONTINUOUS
 10
3.836360
 20
9.073680
  0
VERTEX
  8
0
  6
CONTINUOUS
 10
1.699280
 20
9.073680
  0
VERTEX
  8
0
  6
CONTINUOUS
 10
1.699280
 20
10.134080
  0
VERTEX
  8
0
  6
CONTINUOUS
 10
1.699280
 20
10.132320
  0
SEQEND
  8
0
  0
SOLID
  8
0
 62
    15
 10
2.695880
 20
7.278040
 11
3.358080
 21
7.274960
 12
2.679160
 22
7.119640
 13
3.341360
 23
7.116120
  0
POLYLINE
  8
0
  6
CONTINUOUS
 66
     1
 40
0.000000
 41
0.000000
  0
VERTEX
  8
0
  6
CONTINUOUS
 10
2.695880
 20
7.278040
  0
VERTEX
  8
0
  6
CONTINUOUS
 10
3.358080
 20
7.274960
  0
VERTEX
  8
0
  6
CONTINUOUS
 10
3.341360
 20
7.116120
  0
VERTEX
  8
0
  6
CONTINUOUS
 10
2.679160
 20
7.119640
  0
VERTEX
  8
0
  6
CONTINUOUS
 10
2.695880
 20
7.278040
  0
SEQEND
  8
0
  0
SOLID
  8
0
 62
    15
 10
3.597880
 20
9.071920
 11
4.260080
 21
9.068840
 12
3.597880
 22
8.630600
 13
4.260080
 23
8.627520
  0
POLYLINE
  8
0
  6
CONTINUOUS
 66
     1
 40
0.000000
 41
0.000000
  0
VERTEX
  8
0
  6
CONTINUOUS
 10
3.597880
 20
9.071920
  0
VERTEX
  8
0
  6
CONTINUOUS
 10
4.260080
 20
9.068840
  0
VERTEX
  8
0
  6
CONTINUOUS
 10
4.260080
 20
8.627520
  0
VERTEX
  8
0
  6
CONTINUOUS
 10
3.597880
 20
8.630600
  0
VERTEX
  8
0
  6
CONTINUOUS
 10
3.597880
 20
9.071920
  0
SEQEND
  8
0
  0
SOLID
  8
0
 62
    15
 10
3.597880
 20
8.630600
 11
4.260080
 21
8.627520
 12
3.517360
 22
8.613000
 13
4.179560
 23
8.609920
  0
POLYLINE
  8
0
  6
CONTINUOUS
 66
     1
 40
0.000000
 41
0.000000
  0
VERTEX
  8
0
  6
CONTINUOUS
 10
3.597880
 20
8.630600
  0
VERTEX
  8
0
  6
CONTINUOUS
 10
4.260080
 20
8.627520
  0
VERTEX
  8
0
  6
CONTINUOUS
 10
4.179560
 20
8.609920
  0
VERTEX
  8
0
  6
CONTINUOUS
 10
3.517360
 20
8.613000
  0
VERTEX
  8
0
  6
CONTINUOUS
 10
3.597880
 20
8.630600
  0
SEQEND
  8
0
  0
SOLID
  8
0
 62
    15
 10
3.517360
 20
8.613000
 11
4.179560
 21
8.609920
 12
3.441240
 22
8.589240
 13
4.103440
 23
8.585720
  0
POLYLINE
  8
0
  6
CONTINUOUS
 66
     1
 40
0.000000
 41
0.000000
  0
VERTEX
  8
0
  6
CONTINUOUS
 10
3.517360
 20
8.613000
  0
VERTEX
  8
0
  6
CONTINUOUS
 10
4.179560
 20
8.609920
  0
VERTEX
  8
0
  6
CONTINUOUS
 10
4.103440
 20
8.585720
  0
VERTEX
  8
0
  6
CONTINUOUS
 10
3.441240
 20
8.589240
  0
VERTEX
  8
0
  6
CONTINUOUS
 10
3.517360
 20
8.613000
  0
SEQEND
  8
0
  0
SOLID
  8
0
 62
    15
 10
3.441240
 20
8.589240
 11
4.103440
 21
8.585720
 12
3.369520
 22
8.558880
 13
4.031720
 23
8.555800
  0
POLYLINE
  8
0
  6
CONTINUOUS
 66
     1
 40
0.000000
 41
0.000000
  0
VERTEX
  8
0
  6
CONTINUOUS
 10
3.441240
 20
8.589240
  0
VERTEX
  8
0
  6
CONTINUOUS
 10
4.103440
 20
8.585720
  0
VERTEX
  8
0
  6
CONTINUOUS
 10
4.031720
 20
8.555800
  0
VERTEX
  8
0
  6
CONTINUOUS
 10
3.369520
 20
8.558880
  0
VERTEX
  8
0
  6
CONTINUOUS
 10
3.441240
 20
8.589240
  0
SEQEND
  8
0
  0
SOLID
  8
0
 62
    15
 10
3.369520
 20
8.558880
 11
4.031720
 21
8.555800
 12
3.302640
 22
8.523240
 13
3.964840
 23
8.519720
  0
POLYLINE
  8
0
  6
CONTINUOUS
 66
     1
 40
0.000000
 41
0.000000
  0
VERTEX
  8
0
  6
CONTINUOUS
 10
3.369520
 20
8.558880
  0
VERTEX
  8
0
  6
CONTINUOUS
 10
4.031720
 20
8.555800
  0
VERTEX
  8
0
  6
CONTINUOUS
 10
3.964840
 20
8.519720
  0
VERTEX
  8
0
  6
CONTINUOUS
 10
3.302640
 20
8.523240
  0
VERTEX
  8
0
  6
CONTINUOUS
 10
3.369520
 20
8.558880
  0
SEQEND
  8
0
  0
SOLID
  8
0
 62
    15
 10
3.302640
 20
8.523240
 11
3.964840
 21
8.519720
 12
3.239720
 22
8.481440
 13
3.901920
 23
8.478360
  0
POLYLINE
  8
0
  6
CONTINUOUS
 66
     1
 40
0.000000
 41
0.000000
  0
VERTEX
  8
0
  6
CONTINUOUS
 10
3.302640
 20
8.523240
  0
VERTEX
  8
0
  6
CONTINUOUS
 10
3.964840
 20
8.519720
  0
VERTEX
  8
0
  6
CONTINUOUS
 10
3.901920
 20
8.478360
  0
VERTEX
  8
0
  6
CONTINUOUS
 10
3.239720
 20
8.481440
  0
VERTEX
  8
0
  6
CONTINUOUS
 10
3.302640
 20
8.523240
  0
SEQEND
  8
0
  0
SOLID
  8
0
 62
    15
 10
3.239720
 20
8.481440
 11
3.901920
 21
8.478360
 12
3.181200
 22
8.434800
 13
3.843400
 23
8.431720
  0
POLYLINE
  8
0
  6
CONTINUOUS
 66
     1
 40
0.000000
 41
0.000000
  0
VERTEX
  8
0
  6
CONTINUOUS
 10
3.239720
 20
8.481440
  0
VERTEX
  8
0
  6
CONTINUOUS
 10
3.901920
 20
8.478360
  0
VERTEX
  8
0
  6
CONTINUOUS
 10
3.843400
 20
8.431720
  0
VERTEX
  8
0
  6
CONTINUOUS
 10
3.181200
 20
8.434800
  0
VERTEX
  8
0
  6
CONTINUOUS
 10
3.239720
 20
8.481440
  0
SEQEND
  8
0
  0
SOLID
  8
0
 62
    15
 10
3.181200
 20
8.434800
 11
3.843400
 21
8.431720
 12
3.076040
 22
8.327440
 13
3.738240
 23
8.324360
  0
POLYLINE
  8
0
  6
CONTINUOUS
 66
     1
 40
0.000000
 41
0.000000
  0
VERTEX
  8
0
  6
CONTINUOUS
 10
3.181200
 20
8.434800
  0
VERTEX
  8
0
  6
CONTINUOUS
 10
3.843400
 20
8.431720
  0
VERTEX
  8
0
  6
CONTINUOUS
 10
3.738240
 20
8.324360
  0
VERTEX
  8
0
  6
CONTINUOUS
 10
3.076040
 20
8.327440
  0
VERTEX
  8
0
  6
CONTINUOUS
 10
3.181200
 20
8.434800
  0
SEQEND
  8
0
  0
SOLID
  8
0
 62
    15
 10
3.076040
 20
8.327440
 11
3.738240
 21
8.324360
 12
2.985840
 22
8.203800
 13
3.648040
 23
8.200720
  0
POLYLINE
  8
0
  6
CONTINUOUS
 66
     1
 40
0.000000
 41
0.000000
  0
VERTEX
  8
0
  6
CONTINUOUS
 10
3.076040
 20
8.327440
  0
VERTEX
  8
0
  6
CONTINUOUS
 10
3.738240
 20
8.324360
  0
VERTEX
  8
0
  6
CONTINUOUS
 10
3.648040
 20
8.200720
  0
VERTEX
  8
0
  6
CONTINUOUS
 10
2.985840
 20
8.203800
  0
VERTEX
  8
0
  6
CONTINUOUS
 10
3.076040
 20
8.327440
  0
SEQEND
  8
0
  0
SOLID
  8
0
 62
    15
 10
2.985840
 20
8.203800
 11
3.648040
 21
8.200720
 12
2.909280
 22
8.066960
 13
3.571480
 23
8.063440
  0
POLYLINE
  8
0
  6
CONTINUOUS
 66
     1
 40
0.000000
 41
0.000000
  0
VERTEX
  8
0
  6
CONTINUOUS
 10
2.985840
 20
8.203800
  0
VERTEX
  8
0
  6
CONTINUOUS
 10
3.648040
 20
8.200720
  0
VERTEX
  8
0
  6
CONTINUOUS
 10
3.571480
 20
8.063440
  0
VERTEX
  8
0
  6
CONTINUOUS
 10
2.909280
 20
8.066960
  0
VERTEX
  8
0
  6
CONTINUOUS
 10
2.985840
 20
8.203800
  0
SEQEND
  8
0
  0
SOLID
  8
0
 62
    15
 10
2.909280
 20
8.066960
 11
3.571480
 21
8.063440
 12
2.845920
 22
7.919120
 13
3.508120
 23
7.915600
  0
POLYLINE
  8
0
  6
CONTINUOUS
 66
     1
 40
0.000000
 41
0.000000
  0
VERTEX
  8
0
  6
CONTINUOUS
 10
2.909280
 20
8.066960
  0
VERTEX
  8
0
  6
CONTINUOUS
 10
3.571480
 20
8.063440
  0
VERTEX
  8
0
  6
CONTINUOUS
 10
3.508120
 20
7.915600
  0
VERTEX
  8
0
  6
CONTINUOUS
 10
2.845920
 20
7.919120
  0
VERTEX
  8
0
  6
CONTINUOUS
 10
2.909280
 20
8.066960
  0
SEQEND
  8
0
  0
SOLID
  8
0
 62
    15
 10
2.845920
 20
7.919120
 11
3.508120
 21
7.915600
 12
2.793560
 22
7.763360
 13
3.455760
 23
7.760280
  0
POLYLINE
  8
0
  6
CONTINUOUS
 66
     1
 40
0.000000
 41
0.000000
  0
VERTEX
  8
0
  6
CONTINUOUS
 10
2.845920
 20
7.919120
  0
VERTEX
  8
0
  6
CONTINUOUS
 10
3.508120
 20
7.915600
  0
VERTEX
  8
0
  6
CONTINUOUS
 10
3.455760
 20
7.760280
  0
VERTEX
  8
0
  6
CONTINUOUS
 10
2.793560
 20
7.763360
  0
VERTEX
  8
0
  6
CONTINUOUS
 10
2.845920
 20
7.919120
  0
SEQEND
  8
0
  0
SOLID
  8
0
 62
    15
 10
2.793560
 20
7.763360
 11
3.455760
 21
7.760280
 12
2.752200
 22
7.602760
 13
3.414400
 23
7.599680
  0
POLYLINE
  8
0
  6
CONTINUOUS
 66
     1
 40
0.000000
 41
0.000000
  0
VERTEX
  8
0
  6
CONTINUOUS
 10
2.793560
 20
7.763360
  0
VERTEX
  8
0
  6
CONTINUOUS
 10
3.455760
 20
7.760280
  0
VERTEX
  8
0
  6
CONTINUOUS
 10
3.414400
 20
7.599680
  0
VERTEX
  8
0
  6
CONTINUOUS
 10
2.752200
 20
7.602760
  0
VERTEX
  8
0
  6
CONTINUOUS
 10
2.793560
 20
7.763360
  0
SEQEND
  8
0
  0
SOLID
  8
0
 62
    15
 10
2.752200
 20
7.602760
 11
3.414400
 21
7.599680
 12
2.720080
 22
7.440400
 13
3.382280
 23
7.436880
  0
POLYLINE
  8
0
  6
CONTINUOUS
 66
     1
 40
0.000000
 41
0.000000
  0
VERTEX
  8
0
  6
CONTINUOUS
 10
2.752200
 20
7.602760
  0
VERTEX
  8
0
  6
CONTINUOUS
 10
3.414400
 20
7.599680
  0
VERTEX
  8
0
  6
CONTINUOUS
 10
3.382280
 20
7.436880
  0
VERTEX
  8
0
  6
CONTINUOUS
 10
2.720080
 20
7.440400
  0
VERTEX
  8
0
  6
CONTINUOUS
 10
2.752200
 20
7.602760
  0
SEQEND
  8
0
  0
SOLID
  8
0
 62
    15
 10
2.720080
 20
7.440400
 11
3.382280
 21
7.436880
 12
2.695880
 22
7.278040
 13
3.358080
 23
7.274960
  0
POLYLINE
  8
0
  6
CONTINUOUS
 66
     1
 40
0.000000
 41
0.000000
  0
VERTEX
  8
0
  6
CONTINUOUS
 10
2.720080
 20
7.440400
  0
VERTEX
  8
0
  6
CONTINUOUS
 10
3.382280
 20
7.436880
  0
VERTEX
  8
0
  6
CONTINUOUS
 10
3.358080
 20
7.274960
  0
VERTEX
  8
0
  6
CONTINUOUS
 10
2.695880
 20
7.278040
  0
VERTEX
  8
0
  6
CONTINUOUS
 10
2.720080
 20
7.440400
  0
SEQEND
  8
0
  0
POLYLINE
  8
0
  6
CONTINUOUS
 66
     1
 40
0.000000
 41
0.000000
  0
VERTEX
  8
0
  6
CONTINUOUS
 10
3.597880
 20
9.071920
  0
VERTEX
  8
0
  6
CONTINUOUS
 10
4.260080
 20
9.068840
  0
VERTEX
  8
0
  6
CONTINUOUS
 10
3.597880
 20
9.071920
  0
SEQEND
  8
0
  0
SOLID
  8
0
 62
    15
 10
2.679160
 20
7.119640
 11
3.341360
 21
7.116120
 12
2.668160
 22
6.967400
 13
3.330360
 23
6.963880
  0
POLYLINE
  8
0
  6
CONTINUOUS
 66
     1
 40
0.000000
 41
0.000000
  0
VERTEX
  8
0
  6
CONTINUOUS
 10
2.679160
 20
7.119640
  0
VERTEX
  8
0
  6
CONTINUOUS
 10
3.341360
 20
7.116120
  0
VERTEX
  8
0
  6
CONTINUOUS
 10
3.330360
 20
6.963880
  0
VERTEX
  8
0
  6
CONTINUOUS
 10
2.668160
 20
6.967400
  0
VERTEX
  8
0
  6
CONTINUOUS
 10
2.679160
 20
7.119640
  0
SEQEND
  8
0
  0
SOLID
  8
0
 62
    15
 10
2.668160
 20
6.967400
 11
3.330360
 21
6.963880
 12
2.662000
 22
6.824400
 13
3.324200
 23
6.820880
  0
POLYLINE
  8
0
  6
CONTINUOUS
 66
     1
 40
0.000000
 41
0.000000
  0
VERTEX
  8
0
  6
CONTINUOUS
 10
2.668160
 20
6.967400
  0
VERTEX
  8
0
  6
CONTINUOUS
 10
3.330360
 20
6.963880
  0
VERTEX
  8
0
  6
CONTINUOUS
 10
3.324200
 20
6.820880
  0
VERTEX
  8
0
  6
CONTINUOUS
 10
2.662000
 20
6.824400
  0
VERTEX
  8
0
  6
CONTINUOUS
 10
2.668160
 20
6.967400
  0
SEQEND
  8
0
  0
SOLID
  8
0
 62
    15
 10
2.662000
 20
6.824400
 11
3.324200
 21
6.820880
 12
2.659800
 22
6.693280
 13
3.322000
 23
6.689760
  0
POLYLINE
  8
0
  6
CONTINUOUS
 66
     1
 40
0.000000
 41
0.000000
  0
VERTEX
  8
0
  6
CONTINUOUS
 10
2.662000
 20
6.824400
  0
VERTEX
  8
0
  6
CONTINUOUS
 10
3.324200
 20
6.820880
  0
VERTEX
  8
0
  6
CONTINUOUS
 10
3.322000
 20
6.689760
  0
VERTEX
  8
0
  6
CONTINUOUS
 10
2.659800
 20
6.693280
  0
VERTEX
  8
0
  6
CONTINUOUS
 10
2.662000
 20
6.824400
  0
SEQEND
  8
0
  0
SOLID
  8
0
 62
    15
 10
2.659800
 20
6.693280
 11
3.322000
 21
6.689760
 12
2.660240
 22
6.576680
 13
3.322440
 23
6.573600
  0
POLYLINE
  8
0
  6
CONTINUOUS
 66
     1
 40
0.000000
 41
0.000000
  0
VERTEX
  8
0
  6
CONTINUOUS
 10
2.659800
 20
6.693280
  0
VERTEX
  8
0
  6
CONTINUOUS
 10
3.322000
 20
6.689760
  0
VERTEX
  8
0
  6
CONTINUOUS
 10
3.322440
 20
6.573600
  0
VERTEX
  8
0
  6
CONTINUOUS
 10
2.660240
 20
6.576680
  0
VERTEX
  8
0
  6
CONTINUOUS
 10
2.659800
 20
6.693280
  0
SEQEND
  8
0
  0
SOLID
  8
0
 62
    15
 10
2.660240
 20
6.576680
 11
3.322440
 21
6.573600
 12
2.581920
 22
6.541040
 13
3.244120
 23
6.537520
  0
POLYLINE
  8
0
  6
CONTINUOUS
 66
     1
 40
0.000000
 41
0.000000
  0
VERTEX
  8
0
  6
CONTINUOUS
 10
2.660240
 20
6.576680
  0
VERTEX
  8
0
  6
CONTINUOUS
 10
3.322440
 20
6.573600
  0
VERTEX
  8
0
  6
CONTINUOUS
 10
3.244120
 20
6.537520
  0
VERTEX
  8
0
  6
CONTINUOUS
 10
2.581920
 20
6.541040
  0
VERTEX
  8
0
  6
CONTINUOUS
 10
2.660240
 20
6.576680
  0
SEQEND
  8
0
  0
SOLID
  8
0
 62
    15
 10
2.581920
 20
6.541040
 11
3.244120
 21
6.537520
 12
2.573560
 22
6.474160
 13
3.235760
 23
6.470640
  0
POLYLINE
  8
0
  6
CONTINUOUS
 66
     1
 40
0.000000
 41
0.000000
  0
VERTEX
  8
0
  6
CONTINUOUS
 10
2.581920
 20
6.541040
  0
VERTEX
  8
0
  6
CONTINUOUS
 10
3.244120
 20
6.537520
  0
VERTEX
  8
0
  6
CONTINUOUS
 10
3.235760
 20
6.470640
  0
VERTEX
  8
0
  6
CONTINUOUS
 10
2.573560
 20
6.474160
  0
VERTEX
  8
0
  6
CONTINUOUS
 10
2.581920
 20
6.541040
  0
SEQEND
  8
0
  0
SOLID
  8
0
 62
    15
 10
2.573560
 20
6.474160
 11
3.235760
 21
6.470640
 12
2.560800
 22
6.414320
 13
3.222560
 23
6.410800
  0
POLYLINE
  8
0
  6
CONTINUOUS
 66
     1
 40
0.000000
 41
0.000000
  0
VERTEX
  8
0
  6
CONTINUOUS
 10
2.573560
 20
6.474160
  0
VERTEX
  8
0
  6
CONTINUOUS
 10
3.235760
 20
6.470640
  0
VERTEX
  8
0
  6
CONTINUOUS
 10
3.222560
 20
6.410800
  0
VERTEX
  8
0
  6
CONTINUOUS
 10
2.560800
 20
6.414320
  0
VERTEX
  8
0
  6
CONTINUOUS
 10
2.573560
 20
6.474160
  0
SEQEND
  8
0
  0
SOLID
  8
0
 62
    15
 10
2.560800
 20
6.414320
 11
3.222560
 21
6.410800
 12
2.543640
 22
6.360640
 13
3.205840
 23
6.357560
  0
POLYLINE
  8
0
  6
CONTINUOUS
 66
     1
 40
0.000000
 41
0.000000
  0
VERTEX
  8
0
  6
CONTINUOUS
 10
2.560800
 20
6.414320
  0
VERTEX
  8
0
  6
CONTINUOUS
 10
3.222560
 20
6.410800
  0
VERTEX
  8
0
  6
CONTINUOUS
 10
3.205840
 20
6.357560
  0
VERTEX
  8
0
  6
CONTINUOUS
 10
2.543640
 20
6.360640
  0
VERTEX
  8
0
  6
CONTINUOUS
 10
2.560800
 20
6.414320
  0
SEQEND
  8
0
  0
SOLID
  8
0
 62
    15
 10
2.543640
 20
6.360640
 11
3.205840
 21
6.357560
 12
2.523400
 22
6.313560
 13
3.185600
 23
6.310040
  0
POLYLINE
  8
0
  6
CONTINUOUS
 66
     1
 40
0.000000
 41
0.000000
  0
VERTEX
  8
0
  6
CONTINUOUS
 10
2.543640
 20
6.360640
  0
VERTEX
  8
0
  6
CONTINUOUS
 10
3.205840
 20
6.357560
  0
VERTEX
  8
0
  6
CONTINUOUS
 10
3.185600
 20
6.310040
  0
VERTEX
  8
0
  6
CONTINUOUS
 10
2.523400
 20
6.313560
  0
VERTEX
  8
0
  6
CONTINUOUS
 10
2.543640
 20
6.360640
  0
SEQEND
  8
0
  0
SOLID
  8
0
 62
    15
 10
2.523400
 20
6.313560
 11
3.185600
 21
6.310040
 12
2.476320
 22
6.236120
 13
3.138520
 23
6.233040
  0
POLYLINE
  8
0
  6
CONTINUOUS
 66
     1
 40
0.000000
 41
0.000000
  0
VERTEX
  8
0
  6
CONTINUOUS
 10
2.523400
 20
6.313560
  0
VERTEX
  8
0
  6
CONTINUOUS
 10
3.185600
 20
6.310040
  0
VERTEX
  8
0
  6
CONTINUOUS
 10
3.138520
 20
6.233040
  0
VERTEX
  8
0
  6
CONTINUOUS
 10
2.476320
 20
6.236120
  0
VERTEX
  8
0
  6
CONTINUOUS
 10
2.523400
 20
6.313560
  0
SEQEND
  8
0
  0
SOLID
  8
0
 62
    15
 10
2.476320
 20
6.236120
 11
3.138520
 21
6.233040
 12
2.424840
 22
6.179800
 13
3.087040
 23
6.176280
  0
POLYLINE
  8
0
  6
CONTINUOUS
 66
     1
 40
0.000000
 41
0.000000
  0
VERTEX
  8
0
  6
CONTINUOUS
 10
2.476320
 20
6.236120
  0
VERTEX
  8
0
  6
CONTINUOUS
 10
3.138520
 20
6.233040
  0
VERTEX
  8
0
  6
CONTINUOUS
 10
3.087040
 20
6.176280
  0
VERTEX
  8
0
  6
CONTINUOUS
 10
2.424840
 20
6.179800
  0
VERTEX
  8
0
  6
CONTINUOUS
 10
2.476320
 20
6.236120
  0
SEQEND
  8
0
  0
SOLID
  8
0
 62
    15
 10
2.424840
 20
6.179800
 11
3.087040
 21
6.176280
 12
2.373800
 22
6.140640
 13
3.036000
 23
6.137560
  0
POLYLINE
  8
0
  6
CONTINUOUS
 66
     1
 40
0.000000
 41
0.000000
  0
VERTEX
  8
0
  6
CONTINUOUS
 10
2.424840
 20
6.179800
  0
VERTEX
  8
0
  6
CONTINUOUS
 10
3.087040
 20
6.176280
  0
VERTEX
  8
0
  6
CONTINUOUS
 10
3.036000
 20
6.137560
  0
VERTEX
  8
0
  6
CONTINUOUS
 10
2.373800
 20
6.140640
  0
VERTEX
  8
0
  6
CONTINUOUS
 10
2.424840
 20
6.179800
  0
SEQEND
  8
0
  0
SOLID
  8
0
 62
    15
 10
2.373800
 20
6.140640
 11
3.036000
 21
6.137560
 12
2.329360
 22
6.116440
 13
2.991560
 23
6.113360
  0
POLYLINE
  8
0
  6
CONTINUOUS
 66
     1
 40
0.000000
 41
0.000000
  0
VERTEX
  8
0
  6
CONTINUOUS
 10
2.373800
 20
6.140640
  0
VERTEX
  8
0
  6
CONTINUOUS
 10
3.036000
 20
6.137560
  0
VERTEX
  8
0
  6
CONTINUOUS
 10
2.991560
 20
6.113360
  0
VERTEX
  8
0
  6
CONTINUOUS
 10
2.329360
 20
6.116440
  0
VERTEX
  8
0
  6
CONTINUOUS
 10
2.373800
 20
6.140640
  0
SEQEND
  8
0
  0
SOLID
  8
0
 62
    15
 10
2.329360
 20
6.116440
 11
2.991560
 21
6.113360
 12
2.296800
 22
6.104120
 13
2.959000
 23
6.100600
  0
POLYLINE
  8
0
  6
CONTINUOUS
 66
     1
 40
0.000000
 41
0.000000
  0
VERTEX
  8
0
  6
CONTINUOUS
 10
2.329360
 20
6.116440
  0
VERTEX
  8
0
  6
CONTINUOUS
 10
2.991560
 20
6.113360
  0
VERTEX
  8
0
  6
CONTINUOUS
 10
2.959000
 20
6.100600
  0
VERTEX
  8
0
  6
CONTINUOUS
 10
2.296800
 20
6.104120
  0
VERTEX
  8
0
  6
CONTINUOUS
 10
2.329360
 20
6.116440
  0
SEQEND
  8
0
  0
SOLID
  8
0
 62
    15
 10
2.281400
 20
6.100600
 11
2.943600
 21
6.097520
 12
2.258960
 22
6.100600
 13
2.921160
 23
6.097520
  0
POLYLINE
  8
0
  6
CONTINUOUS
 66
     1
 40
0.000000
 41
0.000000
  0
VERTEX
  8
0
  6
CONTINUOUS
 10
2.281400
 20
6.100600
  0
VERTEX
  8
0
  6
CONTINUOUS
 10
2.943600
 20
6.097520
  0
VERTEX
  8
0
  6
CONTINUOUS
 10
2.921160
 20
6.097520
  0
VERTEX
  8
0
  6
CONTINUOUS
 10
2.258960
 20
6.100600
  0
VERTEX
  8
0
  6
CONTINUOUS
 10
2.281400
 20
6.100600
  0
SEQEND
  8
0
  0
SOLID
  8
0
 62
    15
 10
2.296800
 20
6.104120
 11
2.959000
 21
6.100600
 12
2.281400
 22
6.100600
 13
2.943600
 23
6.097520
  0
POLYLINE
  8
0
  6
CONTINUOUS
 66
     1
 40
0.000000
 41
0.000000
  0
VERTEX
  8
0
  6
CONTINUOUS
 10
2.296800
 20
6.104120
  0
VERTEX
  8
0
  6
CONTINUOUS
 10
2.959000
 20
6.100600
  0
VERTEX
  8
0
  6
CONTINUOUS
 10
2.943600
 20
6.097520
  0
VERTEX
  8
0
  6
CONTINUOUS
 10
2.281400
 20
6.100600
  0
VERTEX
  8
0
  6
CONTINUOUS
 10
2.296800
 20
6.104120
  0
SEQEND
  8
0
  0
POLYLINE
  8
0
  6
CONTINUOUS
 66
     1
 40
0.000000
 41
0.000000
  0
VERTEX
  8
0
  6
CONTINUOUS
 10
2.258960
 20
6.101480
  0
VERTEX
  8
0
  6
CONTINUOUS
 10
2.258960
 20
9.071920
  0
VERTEX
  8
0
  6
CONTINUOUS
 10
3.597880
 20
9.071920
  0
VERTEX
  8
0
  6
CONTINUOUS
 10
3.597880
 20
8.630600
  0
VERTEX
  8
0
  6
CONTINUOUS
 10
3.517360
 20
8.613000
  0
VERTEX
  8
0
  6
CONTINUOUS
 10
3.441240
 20
8.589240
  0
VERTEX
  8
0
  6
CONTINUOUS
 10
3.369520
 20
8.558880
  0
VERTEX
  8
0
  6
CONTINUOUS
 10
3.302640
 20
8.523240
  0
VERTEX
  8
0
  6
CONTINUOUS
 10
3.239720
 20
8.481440
  0
VERTEX
  8
0
  6
CONTINUOUS
 10
3.181200
 20
8.434800
  0
VERTEX
  8
0
  6
CONTINUOUS
 10
3.076040
 20
8.327440
  0
VERTEX
  8
0
  6
CONTINUOUS
 10
2.985840
 20
8.203800
  0
VERTEX
  8
0
  6
CONTINUOUS
 10
2.909280
 20
8.066960
  0
VERTEX
  8
0
  6
CONTINUOUS
 10
2.845920
 20
7.919120
  0
VERTEX
  8
0
  6
CONTINUOUS
 10
2.793560
 20
7.763360
  0
VERTEX
  8
0
  6
CONTINUOUS
 10
2.752200
 20
7.602760
  0
VERTEX
  8
0
  6
CONTINUOUS
 10
2.720080
 20
7.440400
  0
VERTEX
  8
0
  6
CONTINUOUS
 10
2.695880
 20
7.278040
  0
VERTEX
  8
0
  6
CONTINUOUS
 10
2.679160
 20
7.119640
  0
VERTEX
  8
0
  6
CONTINUOUS
 10
2.668160
 20
6.967400
  0
VERTEX
  8
0
  6
CONTINUOUS
 10
2.662000
 20
6.824400
  0
VERTEX
  8
0
  6
CONTINUOUS
 10
2.659800
 20
6.693280
  0
VERTEX
  8
0
  6
CONTINUOUS
 10
2.660240
 20
6.576680
  0
VERTEX
  8
0
  6
CONTINUOUS
 10
2.581920
 20
6.541040
  0
VERTEX
  8
0
  6
CONTINUOUS
 10
2.573560
 20
6.474160
  0
VERTEX
  8
0
  6
CONTINUOUS
 10
2.560800
 20
6.414320
  0
VERTEX
  8
0
  6
CONTINUOUS
 10
2.543640
 20
6.360640
  0
VERTEX
  8
0
  6
CONTINUOUS
 10
2.523400
 20
6.313560
  0
VERTEX
  8
0
  6
CONTINUOUS
 10
2.476320
 20
6.236120
  0
VERTEX
  8
0
  6
CONTINUOUS
 10
2.424840
 20
6.179800
  0
VERTEX
  8
0
  6
CONTINUOUS
 10
2.373800
 20
6.140640
  0
VERTEX
  8
0
  6
CONTINUOUS
 10
2.329360
 20
6.116440
  0
VERTEX
  8
0
  6
CONTINUOUS
 10
2.296800
 20
6.104120
  0
VERTEX
  8
0
  6
CONTINUOUS
 10
2.281400
 20
6.100600
  0
VERTEX
  8
0
  6
CONTINUOUS
 10
2.258960
 20
6.100600
  0
VERTEX
  8
0
  6
CONTINUOUS
 10
2.258960
 20
6.101480
  0
SEQEND
  8
0
  0
TEXT
  8
0
 10
2.916760
 20
1.291400
 40
0.137867
  1
BA  1305
 41
1.000000
  7
SN0
 71
     0
 72
     5
 11
3.601944
 21
1.291400
  0
TEXT
  8
0
 10
3.067240
 20
1.100000
 40
0.137867
  1
9/16"
 41
1.000000
  7
SN0
 71
     0
 72
     5
 11
3.450725
 21
1.100000
  0
TEXT
  8
0
 10
3.483480
 20
3.138960
 40
0.137867
  1
BA  1304
 41
1.000000
  7
SN0
 71
     0
 72
     5
 11
4.168664
 21
3.138960
  0
TEXT
  8
0
 10
3.373480
 20
2.937440
 40
0.137867
  1
7/8" x 2-1/8"
 41
1.000000
  7
SN0
 71
     0
 72
     5
 11
4.279031
 21
2.937440
  0
TEXT
  8
0
 10
3.576320
 20
6.317960
 40
0.137867
  1
BA  1303
 41
1.000000
  7
SN0
 71
     0
 72
     5
 11
4.261504
 21
6.317960
  0
TEXT
  8
0
 10
3.490080
 20
6.116440
 40
0.137867
  1
1-5/16" x 3"
 41
1.000000
  7
SN0
 71
     0
 72
     5
 11
4.349286
 21
6.116440
  0
TEXT
  8
0
 10
4.805240
 20
9.305560
 40
0.137867
  1
BA  1302
 41
1.000000
  7
SN0
 71
     0
 72
     5
 11
5.490424
 21
9.305560
  0
TEXT
  8
0
 10
4.882240
 20
9.104480
 40
0.137867
  1
1-1/16"
 41
1.000000
  7
SN0
 71
     0
 72
     5
 11
5.413848
 21
9.104480
  0
TEXT
  8
0
 10
5.396160
 20
7.968400
 40
0.137867
  1
BA  1302
 41
1.000000
  7
SN0
 71
     0
 72
     5
 11
6.081344
 21
7.968400
  0
TEXT
  8
0
 10
5.472720
 20
7.766880
 40
0.137867
  1
1-1/16"
 41
1.000000
  7
SN0
 71
     0
 72
     5
 11
6.004328
 21
7.766880
  0
POLYLINE
  8
0
  6
CONTINUOUS
 66
     1
 40
0.000000
 41
0.000000
  0
VERTEX
  8
0
  6
CONTINUOUS
 10
4.905120
 20
6.229520
  0
VERTEX
  8
0
  6
CONTINUOUS
 10
4.905120
 20
5.170880
  0
VERTEX
  8
0
  6
CONTINUOUS
 10
6.791400
 20
5.170880
  0
VERTEX
  8
0
  6
CONTINUOUS
 10
7.040880
 20
5.170880
  0
VERTEX
  8
0
  6
CONTINUOUS
 10
7.040880
 20
5.369760
  0
VERTEX
  8
0
  6
CONTINUOUS
 10
7.069040
 20
5.381200
  0
VERTEX
  8
0
  6
CONTINUOUS
 10
7.095440
 20
5.394840
  0
VERTEX
  8
0
  6
CONTINUOUS
 10
7.120080
 20
5.409800
  0
VERTEX
  8
0
  6
CONTINUOUS
 10
7.142960
 20
5.426080
  0
VERTEX
  8
0
  6
CONTINUOUS
 10
7.164080
 20
5.443680
  0
VERTEX
  8
0
  6
CONTINUOUS
 10
7.183440
 20
5.462600
  0
VERTEX
  8
0
  6
CONTINUOUS
 10
7.201040
 20
5.482400
  0
VERTEX
  8
0
  6
CONTINUOUS
 10
7.216440
 20
5.503520
  0
VERTEX
  8
0
  6
CONTINUOUS
 10
7.230520
 20
5.525520
  0
VERTEX
  8
0
  6
CONTINUOUS
 10
7.242400
 20
5.548400
  0
VERTEX
  8
0
  6
CONTINUOUS
 10
7.252520
 20
5.571720
  0
VERTEX
  8
0
  6
CONTINUOUS
 10
7.260880
 20
5.595920
  0
VERTEX
  8
0
  6
CONTINUOUS
 10
7.267480
 20
5.620120
  0
VERTEX
  8
0
  6
CONTINUOUS
 10
7.272320
 20
5.645200
  0
VERTEX
  8
0
  6
CONTINUOUS
 10
7.274960
 20
5.670280
  0
VERTEX
  8
0
  6
CONTINUOUS
 10
7.276280
 20
5.695360
  0
VERTEX
  8
0
  6
CONTINUOUS
 10
7.275400
 20
5.720440
  0
VERTEX
  8
0
  6
CONTINUOUS
 10
7.272760
 20
5.745520
  0
VERTEX
  8
0
  6
CONTINUOUS
 10
7.268360
 20
5.770600
  0
VERTEX
  8
0
  6
CONTINUOUS
 10
7.262200
 20
5.795240
  0
VERTEX
  8
0
  6
CONTINUOUS
 10
7.253840
 20
5.819000
  0
VERTEX
  8
0
  6
CONTINUOUS
 10
7.243720
 20
5.842760
  0
VERTEX
  8
0
  6
CONTINUOUS
 10
7.231840
 20
5.865640
  0
VERTEX
  8
0
  6
CONTINUOUS
 10
7.218200
 20
5.888080
  0
VERTEX
  8
0
  6
CONTINUOUS
 10
7.202800
 20
5.909200
  0
VERTEX
  8
0
  6
CONTINUOUS
 10
7.185200
 20
5.929880
  0
VERTEX
  8
0
  6
CONTINUOUS
 10
7.165840
 20
5.949240
  0
VERTEX
  8
0
  6
CONTINUOUS
 10
7.144720
 20
5.967280
  0
VERTEX
  8
0
  6
CONTINUOUS
 10
7.121400
 20
5.984000
  0
VERTEX
  8
0
  6
CONTINUOUS
 10
7.096320
 20
5.999400
  0
VERTEX
  8
0
  6
CONTINUOUS
 10
7.069480
 20
6.013040
  0
VERTEX
  8
0
  6
CONTINUOUS
 10
7.040880
 20
6.025360
  0
VERTEX
  8
0
  6
CONTINUOUS
 10
7.040880
 20
6.229520
  0
VERTEX
  8
0
  6
CONTINUOUS
 10
6.791400
 20
6.229520
  0
VERTEX
  8
0
  6
CONTINUOUS
 10
4.905120
 20
6.229520
  0
SEQEND
  8
0
  0
TEXT
  8
0
 10
5.492080
 20
5.648720
 40
0.137867
  1
BA  1302
 41
1.000000
  7
SN0
 71
     0
 72
     5
 11
6.177264
 21
5.648720
  0
TEXT
  8
0
 10
5.568640
 20
5.447640
 40
0.137867
  1
1-1/16"
 41
1.000000
  7
SN0
 71
     0
 72
     5
 11
6.100248
 21
5.447640
  0
ENDSEC
  0
EOF
