  0
SECTION
  2
HEADER
  9
$ACADVER
  1
AC1006
  9
$EXTMIN
 10
1.387760
 20
0.374000
  9
$EXTMAX
 10
7.088840
 20
10.046080
  9
$LTSCALE
 40
0.044000
  9
$PDMODE
 70
    35
  9
$PDSIZE
 40
0.035200
  0
ENDSEC
  0
SECTION
  2
TABLES
  0
TABLE
  2
LTYPE
 70
     9
  0
LTYPE
  2
CONTINUOUS
 70
    64
  3
Solid line
 72
    65
 73
     0
 40
0.000000
  0
LTYPE
  2
DASHED
 70
    64
  3
__ __ __ __ __ __ __ __ __ __ __ __ __ __ __
 72
    65
 73
     2
 40
0.000330
 49
0.000220
 49
-0.000110
  0
LTYPE
  2
HIDDEN
 70
    64
  3
 _ _ _ _ _ _ _ _ _ _ _ _ _ _ _ _ _ _ _ _ _ _
 72
    65
 73
     2
 40
0.000165
 49
0.000110
 49
-0.000055
  0
LTYPE
  2
CENTER
 70
    64
  3
____ _ ____ _ ____ _ ____ _ ____ _ ____ _ ____
 72
    65
 73
     4
 40
0.000880
 49
0.000550
 49
-0.000110
 49
0.000110
 49
-0.000110
  0
LTYPE
  2
PHANTOM
 70
    64
  3
_____ _ _ _____ _ _ _____ _ _ _____ _ _ ____
 72
    65
 73
     6
 40
0.001100
 49
0.000550
 49
-0.000110
 49
0.000110
 49
-0.000110
 49
0.000110
 49
-0.000110
  0
LTYPE
  2
DOT
 70
    64
  3
...............................................
 72
    65
 73
     2
 40
0.000110
 49
0.000000
 49
-0.000110
  0
LTYPE
  2
DASHDOT
 70
    64
  3
__ . __ . __ . __ . __ . __ . __ . __ . __ . __
 72
    65
 73
     4
 40
0.000440
 49
0.000220
 49
-0.000110
 49
0.000000
 49
-0.000110
  0
LTYPE
  2
BORDER
 70
    64
  3
__ __ . __ __ . __ __ . __ __ . __ __ . __ __
 72
    65
 73
     6
 40
0.000770
 49
0.000220
 49
-0.000110
 49
0.000220
 49
-0.000110
 49
0.000000
 49
-0.000110
  0
LTYPE
  2
DIVIDE
 70
    64
  3
__ . . __ . . __ . . __ . . __ . . __ . . __
 72
    65
 73
     6
 40
0.000550
 49
0.000220
 49
-0.000110
 49
0.000000
 49
-0.000110
 49
0.000000
 49
-0.000110
  0
LTYPE
  2
DOTDOT
 70
    64
  3
 . .  . .  . .  . .  . .  . . 
 72
    65
 73
     5
 40
0.000242
 49
-0.000110
 49
0.000000
 49
-0.000110
 49
0.000000
 49
-0.000110
  0
ENDTAB
  0
TABLE
  2
STYLE
 70
     2
  0
STYLE
 70
     0
  2
SN0
 40
0.000000
 41
0.000440
 50
0.000000
 71
     0
 42
0.000000
  3
ROMAND
  0
STYLE
 70
    68
  2
SV0
 40
0.000000
 41
0.000440
 50
0.000000
 71
     0
 42
0.000000
  3
ROMAND
  0
ENDTAB
  0
TABLE
  2
LAYER
 70
     3
  0
LAYER
  2
FOREGROUND
 70
    64
 62
     7
  6
CONTINUOUS
  0
LAYER
  2
BACKGROUND
 70
    65
 62
    -7
  6
CONTINUOUS
  0
LAYER
  2
0
 70
    64
 62
     7
  6
CONTINUOUS
  0
ENDTAB
  0
ENDSEC
  0
SECTION
  2
ENTITIES
  0
POLYLINE
  8
FOREGROUND
  6
CONTINUOUS
 66
     1
 40
0.000000
 41
0.000000
  0
VERTEX
  8
FOREGROUND
  6
CONTINUOUS
 10
0.000000
 20
10.420080
  0
VERTEX
  8
FOREGROUND
  6
CONTINUOUS
 10
8.499920
 20
10.420080
  0
VERTEX
  8
FOREGROUND
  6
CONTINUOUS
 10
8.499920
 20
-0.579920
  0
VERTEX
  8
FOREGROUND
  6
CONTINUOUS
 10
0.000000
 20
-0.579920
  0
VERTEX
  8
FOREGROUND
  6
CONTINUOUS
 10
0.000000
 20
10.420080
  0
SEQEND
  8
0
  0
POLYLINE
  8
FOREGROUND
  6
CONTINUOUS
 66
     1
 40
0.000000
 41
0.000000
  0
VERTEX
  8
FOREGROUND
  6
CONTINUOUS
 10
0.000000
 20
10.420080
  0
VERTEX
  8
FOREGROUND
  6
CONTINUOUS
 10
8.499920
 20
10.420080
  0
VERTEX
  8
FOREGROUND
  6
CONTINUOUS
 10
8.499920
 20
-0.579920
  0
VERTEX
  8
FOREGROUND
  6
CONTINUOUS
 10
0.000000
 20
-0.579920
  0
VERTEX
  8
FOREGROUND
  6
CONTINUOUS
 10
0.000000
 20
10.420080
  0
SEQEND
  8
0
  0
POLYLINE
  8
0
  6
CONTINUOUS
 66
     1
 40
0.014080
 41
0.014080
  0
VERTEX
  8
0
  6
CONTINUOUS
 10
2.277880
 20
7.318960
  0
VERTEX
  8
0
  6
CONTINUOUS
 10
2.247520
 20
7.337440
  0
VERTEX
  8
0
  6
CONTINUOUS
 10
2.224200
 20
7.357680
  0
VERTEX
  8
0
  6
CONTINUOUS
 10
2.206600
 20
7.379240
  0
VERTEX
  8
0
  6
CONTINUOUS
 10
2.194280
 20
7.402120
  0
VERTEX
  8
0
  6
CONTINUOUS
 10
2.187240
 20
7.425440
  0
VERTEX
  8
0
  6
CONTINUOUS
 10
2.184600
 20
7.449200
  0
VERTEX
  8
0
  6
CONTINUOUS
 10
2.185920
 20
7.472520
  0
VERTEX
  8
0
  6
CONTINUOUS
 10
2.194720
 20
7.506400
  0
VERTEX
  8
0
  6
CONTINUOUS
 10
2.209680
 20
7.538080
  0
VERTEX
  8
0
  6
CONTINUOUS
 10
2.229480
 20
7.565360
  0
VERTEX
  8
0
  6
CONTINUOUS
 10
2.251920
 20
7.587360
  0
VERTEX
  8
0
  6
CONTINUOUS
 10
2.276120
 20
7.602320
  0
VERTEX
  8
0
  6
CONTINUOUS
 10
2.291960
 20
7.608040
  0
VERTEX
  8
0
  6
CONTINUOUS
 10
2.299880
 20
7.609360
  0
VERTEX
  8
0
  6
CONTINUOUS
 10
2.299880
 20
7.628720
  0
VERTEX
  8
0
  6
CONTINUOUS
 10
2.277000
 20
7.636640
  0
VERTEX
  8
0
  6
CONTINUOUS
 10
2.257640
 20
7.646320
  0
VERTEX
  8
0
  6
CONTINUOUS
 10
2.234320
 20
7.664800
  0
VERTEX
  8
0
  6
CONTINUOUS
 10
2.216720
 20
7.687240
  0
VERTEX
  8
0
  6
CONTINUOUS
 10
2.207920
 20
7.704400
  0
VERTEX
  8
0
  6
CONTINUOUS
 10
2.200440
 20
7.723320
  0
VERTEX
  8
0
  6
CONTINUOUS
 10
2.189000
 20
7.766880
  0
VERTEX
  8
0
  6
CONTINUOUS
 10
2.165240
 20
7.905040
  0
VERTEX
  8
0
  6
CONTINUOUS
 10
2.149840
 20
7.971480
  0
VERTEX
  8
0
  6
CONTINUOUS
 10
2.122120
 20
8.067840
  0
VERTEX
  8
0
  6
CONTINUOUS
 10
2.086040
 20
8.170360
  0
VERTEX
  8
0
  6
CONTINUOUS
 10
2.059640
 20
8.229760
  0
VERTEX
  8
0
  6
CONTINUOUS
 10
2.042920
 20
8.261000
  0
VERTEX
  8
0
  6
CONTINUOUS
 10
2.017840
 20
8.296640
  0
VERTEX
  8
0
  6
CONTINUOUS
 10
2.000240
 20
8.312920
  0
VERTEX
  8
0
  6
CONTINUOUS
 10
1.975600
 20
8.325680
  0
VERTEX
  8
0
  6
CONTINUOUS
 10
1.881000
 20
8.356480
  0
VERTEX
  8
0
  6
CONTINUOUS
 10
1.866040
 20
8.362640
  0
VERTEX
  8
0
  6
CONTINUOUS
 10
1.840520
 20
8.378480
  0
VERTEX
  8
0
  6
CONTINUOUS
 10
1.826440
 20
8.393440
  0
VERTEX
  8
0
  6
CONTINUOUS
 10
1.819840
 20
8.405760
  0
VERTEX
  8
0
  6
CONTINUOUS
 10
1.816760
 20
8.419400
  0
VERTEX
  8
0
  6
CONTINUOUS
 10
1.816320
 20
9.122960
  0
VERTEX
  8
0
  6
CONTINUOUS
 10
1.973400
 20
9.122960
  0
VERTEX
  8
0
  6
CONTINUOUS
 10
1.973840
 20
9.148920
  0
VERTEX
  8
0
  6
CONTINUOUS
 10
1.977360
 20
9.174000
  0
VERTEX
  8
0
  6
CONTINUOUS
 10
1.983520
 20
9.199080
  0
VERTEX
  8
0
  6
CONTINUOUS
 10
1.992760
 20
9.223280
  0
VERTEX
  8
0
  6
CONTINUOUS
 10
2.004200
 20
9.247040
  0
VERTEX
  8
0
  6
CONTINUOUS
 10
2.017840
 20
9.269920
  0
VERTEX
  8
0
  6
CONTINUOUS
 10
2.033680
 20
9.292800
  0
VERTEX
  8
0
  6
CONTINUOUS
 10
2.071080
 20
9.336360
  0
VERTEX
  8
0
  6
CONTINUOUS
 10
2.115080
 20
9.377720
  0
VERTEX
  8
0
  6
CONTINUOUS
 10
2.164360
 20
9.416880
  0
VERTEX
  8
0
  6
CONTINUOUS
 10
2.244880
 20
9.471000
  0
VERTEX
  8
0
  6
CONTINUOUS
 10
2.300760
 20
9.504440
  0
VERTEX
  8
0
  6
CONTINUOUS
 10
2.412960
 20
9.564720
  0
VERTEX
  8
0
  6
CONTINUOUS
 10
2.598200
 20
9.655800
  0
VERTEX
  8
0
  6
CONTINUOUS
 10
2.628560
 20
9.672520
  0
VERTEX
  8
0
  6
CONTINUOUS
 10
2.653640
 20
9.688360
  0
VERTEX
  8
0
  6
CONTINUOUS
 10
2.697640
 20
9.722680
  0
VERTEX
  8
0
  6
CONTINUOUS
 10
2.754400
 20
9.778120
  0
VERTEX
  8
0
  6
CONTINUOUS
 10
2.845040
 20
9.876240
  0
VERTEX
  8
0
  6
CONTINUOUS
 10
2.887720
 20
9.914960
  0
VERTEX
  8
0
  6
CONTINUOUS
 10
2.911920
 20
9.933880
  0
VERTEX
  8
0
  6
CONTINUOUS
 10
2.967360
 20
9.969960
  0
VERTEX
  8
0
  6
CONTINUOUS
 10
3.021920
 20
9.999440
  0
VERTEX
  8
0
  6
CONTINUOUS
 10
3.065480
 20
10.019240
  0
VERTEX
  8
0
  6
CONTINUOUS
 10
3.100680
 20
10.031120
  0
VERTEX
  8
0
  6
CONTINUOUS
 10
3.129280
 20
10.036840
  0
VERTEX
  8
0
  6
CONTINUOUS
 10
3.153920
 20
10.038160
  0
VERTEX
  8
0
  6
CONTINUOUS
 10
3.223440
 20
10.033760
  0
VERTEX
  8
0
  6
CONTINUOUS
 10
5.480200
 20
10.034200
  0
VERTEX
  8
0
  6
CONTINUOUS
 10
5.536960
 20
10.038160
  0
VERTEX
  8
0
  6
CONTINUOUS
 10
5.561600
 20
10.036840
  0
VERTEX
  8
0
  6
CONTINUOUS
 10
5.590200
 20
10.031120
  0
VERTEX
  8
0
  6
CONTINUOUS
 10
5.625400
 20
10.019240
  0
VERTEX
  8
0
  6
CONTINUOUS
 10
5.681280
 20
9.993280
  0
VERTEX
  8
0
  6
CONTINUOUS
 10
5.738480
 20
9.961160
  0
VERTEX
  8
0
  6
CONTINUOUS
 10
5.778960
 20
9.933880
  0
VERTEX
  8
0
  6
CONTINUOUS
 10
5.825160
 20
9.895600
  0
VERTEX
  8
0
  6
CONTINUOUS
 10
5.865200
 20
9.856440
  0
VERTEX
  8
0
  6
CONTINUOUS
 10
5.954520
 20
9.759200
  0
VERTEX
  8
0
  6
CONTINUOUS
 10
5.993240
 20
9.722680
  0
VERTEX
  8
0
  6
CONTINUOUS
 10
6.037240
 20
9.688360
  0
VERTEX
  8
0
  6
CONTINUOUS
 10
6.076400
 20
9.664600
  0
VERTEX
  8
0
  6
CONTINUOUS
 10
6.305640
 20
9.550200
  0
VERTEX
  8
0
  6
CONTINUOUS
 10
6.418280
 20
9.488160
  0
VERTEX
  8
0
  6
CONTINUOUS
 10
6.500560
 20
9.435360
  0
VERTEX
  8
0
  6
CONTINUOUS
 10
6.551600
 20
9.397520
  0
VERTEX
  8
0
  6
CONTINUOUS
 10
6.598240
 20
9.357040
  0
VERTEX
  8
0
  6
CONTINUOUS
 10
6.619800
 20
9.336360
  0
VERTEX
  8
0
  6
CONTINUOUS
 10
6.657200
 20
9.292800
  0
VERTEX
  8
0
  6
CONTINUOUS
 10
6.673040
 20
9.269920
  0
VERTEX
  8
0
  6
CONTINUOUS
 10
6.686680
 20
9.247040
  0
VERTEX
  8
0
  6
CONTINUOUS
 10
6.702960
 20
9.210960
  0
VERTEX
  8
0
  6
CONTINUOUS
 10
6.710440
 20
9.186760
  0
VERTEX
  8
0
  6
CONTINUOUS
 10
6.715720
 20
9.161680
  0
VERTEX
  8
0
  6
CONTINUOUS
 10
6.717480
 20
9.136160
  0
VERTEX
  8
0
  6
CONTINUOUS
 10
6.717480
 20
9.122960
  0
VERTEX
  8
0
  6
CONTINUOUS
 10
6.874560
 20
9.122960
  0
VERTEX
  8
0
  6
CONTINUOUS
 10
6.874120
 20
8.419400
  0
VERTEX
  8
0
  6
CONTINUOUS
 10
6.871040
 20
8.405760
  0
VERTEX
  8
0
  6
CONTINUOUS
 10
6.860480
 20
8.388160
  0
VERTEX
  8
0
  6
CONTINUOUS
 10
6.850360
 20
8.378480
  0
VERTEX
  8
0
  6
CONTINUOUS
 10
6.824840
 20
8.362640
  0
VERTEX
  8
0
  6
CONTINUOUS
 10
6.794480
 20
8.350760
  0
VERTEX
  8
0
  6
CONTINUOUS
 10
6.715280
 20
8.325680
  0
VERTEX
  8
0
  6
CONTINUOUS
 10
6.690640
 20
8.312920
  0
VERTEX
  8
0
  6
CONTINUOUS
 10
6.673040
 20
8.296640
  0
VERTEX
  8
0
  6
CONTINUOUS
 10
6.647960
 20
8.261000
  0
VERTEX
  8
0
  6
CONTINUOUS
 10
6.622440
 20
8.211720
  0
VERTEX
  8
0
  6
CONTINUOUS
 10
6.596040
 20
8.147480
  0
VERTEX
  8
0
  6
CONTINUOUS
 10
6.568760
 20
8.067840
  0
VERTEX
  8
0
  6
CONTINUOUS
 10
6.541040
 20
7.971480
  0
VERTEX
  8
0
  6
CONTINUOUS
 10
6.525640
 20
7.905040
  0
VERTEX
  8
0
  6
CONTINUOUS
 10
6.501880
 20
7.766880
  0
VERTEX
  8
0
  6
CONTINUOUS
 10
6.490440
 20
7.723320
  0
VERTEX
  8
0
  6
CONTINUOUS
 10
6.479000
 20
7.695600
  0
VERTEX
  8
0
  6
CONTINUOUS
 10
6.463160
 20
7.671840
  0
VERTEX
  8
0
  6
CONTINUOUS
 10
6.441600
 20
7.652040
  0
VERTEX
  8
0
  6
CONTINUOUS
 10
6.424000
 20
7.641480
  0
VERTEX
  8
0
  6
CONTINUOUS
 10
6.402880
 20
7.632240
  0
VERTEX
  8
0
  6
CONTINUOUS
 10
6.391000
 20
7.628720
  0
VERTEX
  8
0
  6
CONTINUOUS
 10
6.391000
 20
7.609360
  0
VERTEX
  8
0
  6
CONTINUOUS
 10
6.406840
 20
7.605840
  0
VERTEX
  8
0
  6
CONTINUOUS
 10
6.431040
 20
7.593080
  0
VERTEX
  8
0
  6
CONTINUOUS
 10
6.454360
 20
7.573280
  0
VERTEX
  8
0
  6
CONTINUOUS
 10
6.475040
 20
7.547760
  0
VERTEX
  8
0
  6
CONTINUOUS
 10
6.491760
 20
7.517400
  0
VERTEX
  8
0
  6
CONTINUOUS
 10
6.502760
 20
7.483960
  0
VERTEX
  8
0
  6
CONTINUOUS
 10
6.505840
 20
7.461080
  0
VERTEX
  8
0
  6
CONTINUOUS
 10
6.506280
 20
7.449200
  0
VERTEX
  8
0
  6
CONTINUOUS
 10
6.503640
 20
7.425440
  0
VERTEX
  8
0
  6
CONTINUOUS
 10
6.496600
 20
7.402120
  0
VERTEX
  8
0
  6
CONTINUOUS
 10
6.484280
 20
7.379240
  0
VERTEX
  8
0
  6
CONTINUOUS
 10
6.466680
 20
7.357680
  0
VERTEX
  8
0
  6
CONTINUOUS
 10
6.443360
 20
7.337440
  0
VERTEX
  8
0
  6
CONTINUOUS
 10
6.413000
 20
7.318960
  0
VERTEX
  8
0
  6
CONTINUOUS
 10
2.277880
 20
7.318960
  0
SEQEND
  8
0
  0
POLYLINE
  8
0
  6
CONTINUOUS
 66
     1
 40
0.000000
 41
0.000000
  0
VERTEX
  8
0
  6
CONTINUOUS
 10
1.991440
 20
0.374000
  0
VERTEX
  8
0
  6
CONTINUOUS
 10
1.961520
 20
0.392480
  0
VERTEX
  8
0
  6
CONTINUOUS
 10
1.937760
 20
0.412720
  0
VERTEX
  8
0
  6
CONTINUOUS
 10
1.920160
 20
0.434280
  0
VERTEX
  8
0
  6
CONTINUOUS
 10
1.908280
 20
0.457160
  0
VERTEX
  8
0
  6
CONTINUOUS
 10
1.900800
 20
0.480480
  0
VERTEX
  8
0
  6
CONTINUOUS
 10
1.898600
 20
0.504240
  0
VERTEX
  8
0
  6
CONTINUOUS
 10
1.898600
 20
0.516120
  0
VERTEX
  8
0
  6
CONTINUOUS
 10
1.904760
 20
0.550440
  0
VERTEX
  8
0
  6
CONTINUOUS
 10
1.917960
 20
0.583000
  0
VERTEX
  8
0
  6
CONTINUOUS
 10
1.929840
 20
0.602800
  0
VERTEX
  8
0
  6
CONTINUOUS
 10
1.950520
 20
0.628320
  0
VERTEX
  8
0
  6
CONTINUOUS
 10
1.973840
 20
0.648120
  0
VERTEX
  8
0
  6
CONTINUOUS
 10
1.989680
 20
0.657360
  0
VERTEX
  8
0
  6
CONTINUOUS
 10
2.005520
 20
0.663080
  0
VERTEX
  8
0
  6
CONTINUOUS
 10
2.013440
 20
0.664400
  0
VERTEX
  8
0
  6
CONTINUOUS
 10
2.013440
 20
0.683760
  0
VERTEX
  8
0
  6
CONTINUOUS
 10
1.990560
 20
0.691680
  0
VERTEX
  8
0
  6
CONTINUOUS
 10
1.971200
 20
0.701360
  0
VERTEX
  8
0
  6
CONTINUOUS
 10
1.947880
 20
0.719840
  0
VERTEX
  8
0
  6
CONTINUOUS
 10
1.930280
 20
0.742280
  0
VERTEX
  8
0
  6
CONTINUOUS
 10
1.921480
 20
0.759440
  0
VERTEX
  8
0
  6
CONTINUOUS
 10
1.914000
 20
0.778360
  0
VERTEX
  8
0
  6
CONTINUOUS
 10
1.907840
 20
0.799040
  0
VERTEX
  8
0
  6
CONTINUOUS
 10
1.898160
 20
0.846120
  0
VERTEX
  8
0
  6
CONTINUOUS
 10
1.879240
 20
0.960080
  0
VERTEX
  8
0
  6
CONTINUOUS
 10
1.863840
 20
1.026520
  0
VERTEX
  8
0
  6
CONTINUOUS
 10
1.836120
 20
1.122880
  0
VERTEX
  8
0
  6
CONTINUOUS
 10
1.800040
 20
1.225400
  0
VERTEX
  8
0
  6
CONTINUOUS
 10
1.773640
 20
1.284800
  0
VERTEX
  8
0
  6
CONTINUOUS
 10
1.756920
 20
1.316040
  0
VERTEX
  8
0
  6
CONTINUOUS
 10
1.731840
 20
1.351680
  0
VERTEX
  8
0
  6
CONTINUOUS
 10
1.714240
 20
1.367960
  0
VERTEX
  8
0
  6
CONTINUOUS
 10
1.689160
 20
1.380720
  0
VERTEX
  8
0
  6
CONTINUOUS
 10
1.594560
 20
1.411520
  0
VERTEX
  8
0
  6
CONTINUOUS
 10
1.579600
 20
1.417680
  0
VERTEX
  8
0
  6
CONTINUOUS
 10
1.554080
 20
1.433520
  0
VERTEX
  8
0
  6
CONTINUOUS
 10
1.540000
 20
1.448480
  0
VERTEX
  8
0
  6
CONTINUOUS
 10
1.533400
 20
1.460800
  0
VERTEX
  8
0
  6
CONTINUOUS
 10
1.530320
 20
1.474440
  0
VERTEX
  8
0
  6
CONTINUOUS
 10
1.529880
 20
2.178000
  0
VERTEX
  8
0
  6
CONTINUOUS
 10
1.687400
 20
2.178000
  0
VERTEX
  8
0
  6
CONTINUOUS
 10
1.687840
 20
2.203960
  0
VERTEX
  8
0
  6
CONTINUOUS
 10
1.694000
 20
2.241800
  0
VERTEX
  8
0
  6
CONTINUOUS
 10
1.706760
 20
2.278320
  0
VERTEX
  8
0
  6
CONTINUOUS
 10
1.717760
 20
2.302080
  0
VERTEX
  8
0
  6
CONTINUOUS
 10
1.747680
 20
2.347400
  0
VERTEX
  8
0
  6
CONTINUOUS
 10
1.765280
 20
2.369840
  0
VERTEX
  8
0
  6
CONTINUOUS
 10
1.806200
 20
2.412080
  0
VERTEX
  8
0
  6
CONTINUOUS
 10
1.852840
 20
2.452560
  0
VERTEX
  8
0
  6
CONTINUOUS
 10
1.903880
 20
2.490400
  0
VERTEX
  8
0
  6
CONTINUOUS
 10
1.986160
 20
2.543200
  0
VERTEX
  8
0
  6
CONTINUOUS
 10
2.098800
 20
2.605240
  0
VERTEX
  8
0
  6
CONTINUOUS
 10
2.328480
 20
2.719640
  0
VERTEX
  8
0
  6
CONTINUOUS
 10
2.367640
 20
2.743400
  0
VERTEX
  8
0
  6
CONTINUOUS
 10
2.411640
 20
2.777720
  0
VERTEX
  8
0
  6
CONTINUOUS
 10
2.449920
 20
2.814240
  0
VERTEX
  8
0
  6
CONTINUOUS
 10
2.559040
 20
2.931280
  0
VERTEX
  8
0
  6
CONTINUOUS
 10
2.601720
 20
2.970000
  0
VERTEX
  8
0
  6
CONTINUOUS
 10
2.625920
 20
2.988920
  0
VERTEX
  8
0
  6
CONTINUOUS
 10
2.681360
 20
3.025000
  0
VERTEX
  8
0
  6
CONTINUOUS
 10
2.735920
 20
3.054480
  0
VERTEX
  8
0
  6
CONTINUOUS
 10
2.779480
 20
3.074280
  0
VERTEX
  8
0
  6
CONTINUOUS
 10
2.814680
 20
3.086160
  0
VERTEX
  8
0
  6
CONTINUOUS
 10
2.843280
 20
3.091880
  0
VERTEX
  8
0
  6
CONTINUOUS
 10
2.867480
 20
3.093200
  0
VERTEX
  8
0
  6
CONTINUOUS
 10
2.937440
 20
3.088800
  0
VERTEX
  8
0
  6
CONTINUOUS
 10
5.193760
 20
3.089240
  0
VERTEX
  8
0
  6
CONTINUOUS
 10
5.250960
 20
3.093200
  0
VERTEX
  8
0
  6
CONTINUOUS
 10
5.275160
 20
3.091880
  0
VERTEX
  8
0
  6
CONTINUOUS
 10
5.303760
 20
3.086160
  0
VERTEX
  8
0
  6
CONTINUOUS
 10
5.338960
 20
3.074280
  0
VERTEX
  8
0
  6
CONTINUOUS
 10
5.395280
 20
3.048320
  0
VERTEX
  8
0
  6
CONTINUOUS
 10
5.452040
 20
3.016200
  0
VERTEX
  8
0
  6
CONTINUOUS
 10
5.492520
 20
2.988920
  0
VERTEX
  8
0
  6
CONTINUOUS
 10
5.538720
 20
2.950640
  0
VERTEX
  8
0
  6
CONTINUOUS
 10
5.578760
 20
2.911480
  0
VERTEX
  8
0
  6
CONTINUOUS
 10
5.668520
 20
2.814240
  0
VERTEX
  8
0
  6
CONTINUOUS
 10
5.706800
 20
2.777720
  0
VERTEX
  8
0
  6
CONTINUOUS
 10
5.750800
 20
2.743400
  0
VERTEX
  8
0
  6
CONTINUOUS
 10
5.789960
 20
2.719640
  0
VERTEX
  8
0
  6
CONTINUOUS
 10
5.913160
 20
2.658040
  0
VERTEX
  8
0
  6
CONTINUOUS
 10
6.047360
 20
2.590720
  0
VERTEX
  8
0
  6
CONTINUOUS
 10
6.132280
 20
2.543200
  0
VERTEX
  8
0
  6
CONTINUOUS
 10
6.214560
 20
2.490400
  0
VERTEX
  8
0
  6
CONTINUOUS
 10
6.265600
 20
2.452560
  0
VERTEX
  8
0
  6
CONTINUOUS
 10
6.312240
 20
2.412080
  0
VERTEX
  8
0
  6
CONTINUOUS
 10
6.353160
 20
2.369840
  0
VERTEX
  8
0
  6
CONTINUOUS
 10
6.386600
 20
2.324960
  0
VERTEX
  8
0
  6
CONTINUOUS
 10
6.400680
 20
2.302080
  0
VERTEX
  8
0
  6
CONTINUOUS
 10
6.416520
 20
2.266000
  0
VERTEX
  8
0
  6
CONTINUOUS
 10
6.424440
 20
2.241800
  0
VERTEX
  8
0
  6
CONTINUOUS
 10
6.430600
 20
2.203960
  0
VERTEX
  8
0
  6
CONTINUOUS
 10
6.431040
 20
2.178000
  0
VERTEX
  8
0
  6
CONTINUOUS
 10
6.588560
 20
2.178000
  0
VERTEX
  8
0
  6
CONTINUOUS
 10
6.588120
 20
1.474440
  0
VERTEX
  8
0
  6
CONTINUOUS
 10
6.585040
 20
1.460800
  0
VERTEX
  8
0
  6
CONTINUOUS
 10
6.574480
 20
1.443200
  0
VERTEX
  8
0
  6
CONTINUOUS
 10
6.564360
 20
1.433520
  0
VERTEX
  8
0
  6
CONTINUOUS
 10
6.538840
 20
1.417680
  0
VERTEX
  8
0
  6
CONTINUOUS
 10
6.508480
 20
1.405800
  0
VERTEX
  8
0
  6
CONTINUOUS
 10
6.429280
 20
1.380720
  0
VERTEX
  8
0
  6
CONTINUOUS
 10
6.404640
 20
1.367960
  0
VERTEX
  8
0
  6
CONTINUOUS
 10
6.387040
 20
1.351680
  0
VERTEX
  8
0
  6
CONTINUOUS
 10
6.361960
 20
1.316040
  0
VERTEX
  8
0
  6
CONTINUOUS
 10
6.336000
 20
1.266760
  0
VERTEX
  8
0
  6
CONTINUOUS
 10
6.309600
 20
1.202520
  0
VERTEX
  8
0
  6
CONTINUOUS
 10
6.282760
 20
1.122880
  0
VERTEX
  8
0
  6
CONTINUOUS
 10
6.255040
 20
1.026520
  0
VERTEX
  8
0
  6
CONTINUOUS
 10
6.239640
 20
0.960080
  0
VERTEX
  8
0
  6
CONTINUOUS
 10
6.215880
 20
0.821920
  0
VERTEX
  8
0
  6
CONTINUOUS
 10
6.204440
 20
0.778360
  0
VERTEX
  8
0
  6
CONTINUOUS
 10
6.192560
 20
0.750640
  0
VERTEX
  8
0
  6
CONTINUOUS
 10
6.182880
 20
0.734360
  0
VERTEX
  8
0
  6
CONTINUOUS
 10
6.163520
 20
0.713240
  0
VERTEX
  8
0
  6
CONTINUOUS
 10
6.147240
 20
0.701360
  0
VERTEX
  8
0
  6
CONTINUOUS
 10
6.116880
 20
0.687280
  0
VERTEX
  8
0
  6
CONTINUOUS
 10
6.105000
 20
0.683760
  0
VERTEX
  8
0
  6
CONTINUOUS
 10
6.105000
 20
0.664400
  0
VERTEX
  8
0
  6
CONTINUOUS
 10
6.120840
 20
0.660880
  0
VERTEX
  8
0
  6
CONTINUOUS
 10
6.136680
 20
0.653400
  0
VERTEX
  8
0
  6
CONTINUOUS
 10
6.160440
 20
0.635800
  0
VERTEX
  8
0
  6
CONTINUOUS
 10
6.182440
 20
0.611600
  0
VERTEX
  8
0
  6
CONTINUOUS
 10
6.200480
 20
0.583000
  0
VERTEX
  8
0
  6
CONTINUOUS
 10
6.210160
 20
0.561440
  0
VERTEX
  8
0
  6
CONTINUOUS
 10
6.216760
 20
0.539000
  0
VERTEX
  8
0
  6
CONTINUOUS
 10
6.219840
 20
0.516120
  0
VERTEX
  8
0
  6
CONTINUOUS
 10
6.220280
 20
0.504240
  0
VERTEX
  8
0
  6
CONTINUOUS
 10
6.217640
 20
0.480480
  0
VERTEX
  8
0
  6
CONTINUOUS
 10
6.210600
 20
0.457160
  0
VERTEX
  8
0
  6
CONTINUOUS
 10
6.198280
 20
0.434280
  0
VERTEX
  8
0
  6
CONTINUOUS
 10
6.180680
 20
0.412720
  0
VERTEX
  8
0
  6
CONTINUOUS
 10
6.157360
 20
0.392480
  0
VERTEX
  8
0
  6
CONTINUOUS
 10
6.127000
 20
0.374000
  0
VERTEX
  8
0
  6
CONTINUOUS
 10
1.991440
 20
0.374000
  0
SEQEND
  8
0
  0
SOLID
  8
0
 62
    15
 10
6.123920
 20
6.114240
 11
6.765880
 21
6.473720
 12
6.211480
 22
6.031520
 13
6.853440
 23
6.391000
  0
POLYLINE
  8
0
  6
CONTINUOUS
 66
     1
 40
0.000000
 41
0.000000
  0
VERTEX
  8
0
  6
CONTINUOUS
 10
6.123920
 20
6.114240
  0
VERTEX
  8
0
  6
CONTINUOUS
 10
6.765880
 20
6.473720
  0
VERTEX
  8
0
  6
CONTINUOUS
 10
6.853440
 20
6.391000
  0
VERTEX
  8
0
  6
CONTINUOUS
 10
6.211480
 20
6.031520
  0
VERTEX
  8
0
  6
CONTINUOUS
 10
6.123920
 20
6.114240
  0
SEQEND
  8
0
  0
SOLID
  8
0
 62
    15
 10
1.388640
 20
5.840120
 11
2.030160
 21
6.199160
 12
1.545720
 22
5.840120
 13
2.187680
 23
6.199160
  0
POLYLINE
  8
0
  6
CONTINUOUS
 66
     1
 40
0.000000
 41
0.000000
  0
VERTEX
  8
0
  6
CONTINUOUS
 10
1.388640
 20
5.840120
  0
VERTEX
  8
0
  6
CONTINUOUS
 10
2.030160
 20
6.199160
  0
VERTEX
  8
0
  6
CONTINUOUS
 10
2.187680
 20
6.199160
  0
VERTEX
  8
0
  6
CONTINUOUS
 10
1.545720
 20
5.840120
  0
VERTEX
  8
0
  6
CONTINUOUS
 10
1.388640
 20
5.840120
  0
SEQEND
  8
0
  0
SOLID
  8
0
 62
    15
 10
1.816760
 20
6.188160
 11
2.458720
 21
6.547640
 12
2.038080
 22
6.307840
 13
2.680040
 23
6.667320
  0
POLYLINE
  8
0
  6
CONTINUOUS
 66
     1
 40
0.000000
 41
0.000000
  0
VERTEX
  8
0
  6
CONTINUOUS
 10
1.816760
 20
6.188160
  0
VERTEX
  8
0
  6
CONTINUOUS
 10
2.458720
 20
6.547640
  0
VERTEX
  8
0
  6
CONTINUOUS
 10
2.680040
 20
6.667320
  0
VERTEX
  8
0
  6
CONTINUOUS
 10
2.038080
 20
6.307840
  0
VERTEX
  8
0
  6
CONTINUOUS
 10
1.816760
 20
6.188160
  0
SEQEND
  8
0
  0
SOLID
  8
0
 62
    15
 10
2.038080
 20
6.307840
 11
2.680040
 21
6.667320
 12
2.132240
 22
6.353600
 13
2.774200
 23
6.713080
  0
POLYLINE
  8
0
  6
CONTINUOUS
 66
     1
 40
0.000000
 41
0.000000
  0
VERTEX
  8
0
  6
CONTINUOUS
 10
2.038080
 20
6.307840
  0
VERTEX
  8
0
  6
CONTINUOUS
 10
2.680040
 20
6.667320
  0
VERTEX
  8
0
  6
CONTINUOUS
 10
2.774200
 20
6.713080
  0
VERTEX
  8
0
  6
CONTINUOUS
 10
2.132240
 20
6.353600
  0
VERTEX
  8
0
  6
CONTINUOUS
 10
2.038080
 20
6.307840
  0
SEQEND
  8
0
  0
SOLID
  8
0
 62
    15
 10
2.132240
 20
6.353600
 11
2.774200
 21
6.713080
 12
2.200880
 22
6.389680
 13
2.842840
 23
6.748720
  0
POLYLINE
  8
0
  6
CONTINUOUS
 66
     1
 40
0.000000
 41
0.000000
  0
VERTEX
  8
0
  6
CONTINUOUS
 10
2.132240
 20
6.353600
  0
VERTEX
  8
0
  6
CONTINUOUS
 10
2.774200
 20
6.713080
  0
VERTEX
  8
0
  6
CONTINUOUS
 10
2.842840
 20
6.748720
  0
VERTEX
  8
0
  6
CONTINUOUS
 10
2.200880
 20
6.389680
  0
VERTEX
  8
0
  6
CONTINUOUS
 10
2.132240
 20
6.353600
  0
SEQEND
  8
0
  0
SOLID
  8
0
 62
    15
 10
2.539680
 20
6.687120
 11
3.181640
 21
7.046160
 12
2.594240
 22
6.716600
 13
3.236200
 23
7.076080
  0
POLYLINE
  8
0
  6
CONTINUOUS
 66
     1
 40
0.000000
 41
0.000000
  0
VERTEX
  8
0
  6
CONTINUOUS
 10
2.539680
 20
6.687120
  0
VERTEX
  8
0
  6
CONTINUOUS
 10
3.181640
 20
7.046160
  0
VERTEX
  8
0
  6
CONTINUOUS
 10
3.236200
 20
7.076080
  0
VERTEX
  8
0
  6
CONTINUOUS
 10
2.594240
 20
6.716600
  0
VERTEX
  8
0
  6
CONTINUOUS
 10
2.539680
 20
6.687120
  0
SEQEND
  8
0
  0
SOLID
  8
0
 62
    15
 10
2.594240
 20
6.716600
 11
3.236200
 21
7.076080
 12
2.637800
 22
6.736400
 13
3.279760
 23
7.095880
  0
POLYLINE
  8
0
  6
CONTINUOUS
 66
     1
 40
0.000000
 41
0.000000
  0
VERTEX
  8
0
  6
CONTINUOUS
 10
2.594240
 20
6.716600
  0
VERTEX
  8
0
  6
CONTINUOUS
 10
3.236200
 20
7.076080
  0
VERTEX
  8
0
  6
CONTINUOUS
 10
3.279760
 20
7.095880
  0
VERTEX
  8
0
  6
CONTINUOUS
 10
2.637800
 20
6.736400
  0
VERTEX
  8
0
  6
CONTINUOUS
 10
2.594240
 20
6.716600
  0
SEQEND
  8
0
  0
SOLID
  8
0
 62
    15
 10
2.637800
 20
6.736400
 11
3.279760
 21
7.095880
 12
2.701600
 22
6.754000
 13
3.343560
 23
7.113480
  0
POLYLINE
  8
0
  6
CONTINUOUS
 66
     1
 40
0.000000
 41
0.000000
  0
VERTEX
  8
0
  6
CONTINUOUS
 10
2.637800
 20
6.736400
  0
VERTEX
  8
0
  6
CONTINUOUS
 10
3.279760
 20
7.095880
  0
VERTEX
  8
0
  6
CONTINUOUS
 10
3.343560
 20
7.113480
  0
VERTEX
  8
0
  6
CONTINUOUS
 10
2.701600
 20
6.754000
  0
VERTEX
  8
0
  6
CONTINUOUS
 10
2.637800
 20
6.736400
  0
SEQEND
  8
0
  0
SOLID
  8
0
 62
    15
 10
2.701600
 20
6.754000
 11
3.343560
 21
7.113480
 12
2.795760
 22
6.750920
 13
3.437720
 23
7.110400
  0
POLYLINE
  8
0
  6
CONTINUOUS
 66
     1
 40
0.000000
 41
0.000000
  0
VERTEX
  8
0
  6
CONTINUOUS
 10
2.701600
 20
6.754000
  0
VERTEX
  8
0
  6
CONTINUOUS
 10
3.343560
 20
7.113480
  0
VERTEX
  8
0
  6
CONTINUOUS
 10
3.437720
 20
7.110400
  0
VERTEX
  8
0
  6
CONTINUOUS
 10
2.795760
 20
6.750920
  0
VERTEX
  8
0
  6
CONTINUOUS
 10
2.701600
 20
6.754000
  0
SEQEND
  8
0
  0
SOLID
  8
0
 62
    15
 10
2.795760
 20
6.750920
 11
3.437720
 21
7.110400
 12
5.039760
 22
6.750920
 13
5.681280
 23
7.110400
  0
POLYLINE
  8
0
  6
CONTINUOUS
 66
     1
 40
0.000000
 41
0.000000
  0
VERTEX
  8
0
  6
CONTINUOUS
 10
2.795760
 20
6.750920
  0
VERTEX
  8
0
  6
CONTINUOUS
 10
3.437720
 20
7.110400
  0
VERTEX
  8
0
  6
CONTINUOUS
 10
5.681280
 20
7.110400
  0
VERTEX
  8
0
  6
CONTINUOUS
 10
5.039760
 20
6.750920
  0
VERTEX
  8
0
  6
CONTINUOUS
 10
2.795760
 20
6.750920
  0
SEQEND
  8
0
  0
SOLID
  8
0
 62
    15
 10
5.039760
 20
6.750920
 11
5.681280
 21
7.110400
 12
5.133920
 22
6.754000
 13
5.775440
 23
7.113480
  0
POLYLINE
  8
0
  6
CONTINUOUS
 66
     1
 40
0.000000
 41
0.000000
  0
VERTEX
  8
0
  6
CONTINUOUS
 10
5.039760
 20
6.750920
  0
VERTEX
  8
0
  6
CONTINUOUS
 10
5.681280
 20
7.110400
  0
VERTEX
  8
0
  6
CONTINUOUS
 10
5.775440
 20
7.113480
  0
VERTEX
  8
0
  6
CONTINUOUS
 10
5.133920
 20
6.754000
  0
VERTEX
  8
0
  6
CONTINUOUS
 10
5.039760
 20
6.750920
  0
SEQEND
  8
0
  0
SOLID
  8
0
 62
    15
 10
5.133920
 20
6.754000
 11
5.775440
 21
7.113480
 12
5.197280
 22
6.736400
 13
5.839240
 23
7.095880
  0
POLYLINE
  8
0
  6
CONTINUOUS
 66
     1
 40
0.000000
 41
0.000000
  0
VERTEX
  8
0
  6
CONTINUOUS
 10
5.133920
 20
6.754000
  0
VERTEX
  8
0
  6
CONTINUOUS
 10
5.775440
 20
7.113480
  0
VERTEX
  8
0
  6
CONTINUOUS
 10
5.839240
 20
7.095880
  0
VERTEX
  8
0
  6
CONTINUOUS
 10
5.197280
 20
6.736400
  0
VERTEX
  8
0
  6
CONTINUOUS
 10
5.133920
 20
6.754000
  0
SEQEND
  8
0
  0
SOLID
  8
0
 62
    15
 10
5.197280
 20
6.736400
 11
5.839240
 21
7.095880
 12
5.241280
 22
6.716600
 13
5.882800
 23
7.076080
  0
POLYLINE
  8
0
  6
CONTINUOUS
 66
     1
 40
0.000000
 41
0.000000
  0
VERTEX
  8
0
  6
CONTINUOUS
 10
5.197280
 20
6.736400
  0
VERTEX
  8
0
  6
CONTINUOUS
 10
5.839240
 20
7.095880
  0
VERTEX
  8
0
  6
CONTINUOUS
 10
5.882800
 20
7.076080
  0
VERTEX
  8
0
  6
CONTINUOUS
 10
5.241280
 20
6.716600
  0
VERTEX
  8
0
  6
CONTINUOUS
 10
5.197280
 20
6.736400
  0
SEQEND
  8
0
  0
SOLID
  8
0
 62
    15
 10
5.241280
 20
6.716600
 11
5.882800
 21
7.076080
 12
5.295840
 22
6.687120
 13
5.937360
 23
7.046160
  0
POLYLINE
  8
0
  6
CONTINUOUS
 66
     1
 40
0.000000
 41
0.000000
  0
VERTEX
  8
0
  6
CONTINUOUS
 10
5.241280
 20
6.716600
  0
VERTEX
  8
0
  6
CONTINUOUS
 10
5.882800
 20
7.076080
  0
VERTEX
  8
0
  6
CONTINUOUS
 10
5.937360
 20
7.046160
  0
VERTEX
  8
0
  6
CONTINUOUS
 10
5.295840
 20
6.687120
  0
VERTEX
  8
0
  6
CONTINUOUS
 10
5.241280
 20
6.716600
  0
SEQEND
  8
0
  0
SOLID
  8
0
 62
    15
 10
5.295840
 20
6.687120
 11
5.937360
 21
7.046160
 12
5.397480
 22
6.612760
 13
6.039000
 23
6.972240
  0
POLYLINE
  8
0
  6
CONTINUOUS
 66
     1
 40
0.000000
 41
0.000000
  0
VERTEX
  8
0
  6
CONTINUOUS
 10
5.295840
 20
6.687120
  0
VERTEX
  8
0
  6
CONTINUOUS
 10
5.937360
 20
7.046160
  0
VERTEX
  8
0
  6
CONTINUOUS
 10
6.039000
 20
6.972240
  0
VERTEX
  8
0
  6
CONTINUOUS
 10
5.397480
 20
6.612760
  0
VERTEX
  8
0
  6
CONTINUOUS
 10
5.295840
 20
6.687120
  0
SEQEND
  8
0
  0
SOLID
  8
0
 62
    15
 10
5.397480
 20
6.612760
 11
6.039000
 21
6.972240
 12
5.473600
 22
6.534440
 13
6.115120
 23
6.893480
  0
POLYLINE
  8
0
  6
CONTINUOUS
 66
     1
 40
0.000000
 41
0.000000
  0
VERTEX
  8
0
  6
CONTINUOUS
 10
5.397480
 20
6.612760
  0
VERTEX
  8
0
  6
CONTINUOUS
 10
6.039000
 20
6.972240
  0
VERTEX
  8
0
  6
CONTINUOUS
 10
6.115120
 20
6.893480
  0
VERTEX
  8
0
  6
CONTINUOUS
 10
5.473600
 20
6.534440
  0
VERTEX
  8
0
  6
CONTINUOUS
 10
5.397480
 20
6.612760
  0
SEQEND
  8
0
  0
SOLID
  8
0
 62
    15
 10
5.473600
 20
6.534440
 11
6.115120
 21
6.893480
 12
5.545320
 22
6.457880
 13
6.187280
 23
6.816920
  0
POLYLINE
  8
0
  6
CONTINUOUS
 66
     1
 40
0.000000
 41
0.000000
  0
VERTEX
  8
0
  6
CONTINUOUS
 10
5.473600
 20
6.534440
  0
VERTEX
  8
0
  6
CONTINUOUS
 10
6.115120
 20
6.893480
  0
VERTEX
  8
0
  6
CONTINUOUS
 10
6.187280
 20
6.816920
  0
VERTEX
  8
0
  6
CONTINUOUS
 10
5.545320
 20
6.457880
  0
VERTEX
  8
0
  6
CONTINUOUS
 10
5.473600
 20
6.534440
  0
SEQEND
  8
0
  0
SOLID
  8
0
 62
    15
 10
5.545320
 20
6.457880
 11
6.187280
 21
6.816920
 12
5.634640
 22
6.389680
 13
6.276160
 23
6.748720
  0
POLYLINE
  8
0
  6
CONTINUOUS
 66
     1
 40
0.000000
 41
0.000000
  0
VERTEX
  8
0
  6
CONTINUOUS
 10
5.545320
 20
6.457880
  0
VERTEX
  8
0
  6
CONTINUOUS
 10
6.187280
 20
6.816920
  0
VERTEX
  8
0
  6
CONTINUOUS
 10
6.276160
 20
6.748720
  0
VERTEX
  8
0
  6
CONTINUOUS
 10
5.634640
 20
6.389680
  0
VERTEX
  8
0
  6
CONTINUOUS
 10
5.545320
 20
6.457880
  0
SEQEND
  8
0
  0
SOLID
  8
0
 62
    15
 10
5.634640
 20
6.389680
 11
6.276160
 21
6.748720
 12
5.703280
 22
6.353600
 13
6.344800
 23
6.713080
  0
POLYLINE
  8
0
  6
CONTINUOUS
 66
     1
 40
0.000000
 41
0.000000
  0
VERTEX
  8
0
  6
CONTINUOUS
 10
5.634640
 20
6.389680
  0
VERTEX
  8
0
  6
CONTINUOUS
 10
6.276160
 20
6.748720
  0
VERTEX
  8
0
  6
CONTINUOUS
 10
6.344800
 20
6.713080
  0
VERTEX
  8
0
  6
CONTINUOUS
 10
5.703280
 20
6.353600
  0
VERTEX
  8
0
  6
CONTINUOUS
 10
5.634640
 20
6.389680
  0
SEQEND
  8
0
  0
SOLID
  8
0
 62
    15
 10
5.703280
 20
6.353600
 11
6.344800
 21
6.713080
 12
5.797000
 22
6.307840
 13
6.438960
 23
6.667320
  0
POLYLINE
  8
0
  6
CONTINUOUS
 66
     1
 40
0.000000
 41
0.000000
  0
VERTEX
  8
0
  6
CONTINUOUS
 10
5.703280
 20
6.353600
  0
VERTEX
  8
0
  6
CONTINUOUS
 10
6.344800
 20
6.713080
  0
VERTEX
  8
0
  6
CONTINUOUS
 10
6.438960
 20
6.667320
  0
VERTEX
  8
0
  6
CONTINUOUS
 10
5.797000
 20
6.307840
  0
VERTEX
  8
0
  6
CONTINUOUS
 10
5.703280
 20
6.353600
  0
SEQEND
  8
0
  0
SOLID
  8
0
 62
    15
 10
5.797000
 20
6.307840
 11
6.438960
 21
6.667320
 12
6.018320
 22
6.188160
 13
6.660280
 23
6.547640
  0
POLYLINE
  8
0
  6
CONTINUOUS
 66
     1
 40
0.000000
 41
0.000000
  0
VERTEX
  8
0
  6
CONTINUOUS
 10
5.797000
 20
6.307840
  0
VERTEX
  8
0
  6
CONTINUOUS
 10
6.438960
 20
6.667320
  0
VERTEX
  8
0
  6
CONTINUOUS
 10
6.660280
 20
6.547640
  0
VERTEX
  8
0
  6
CONTINUOUS
 10
6.018320
 20
6.188160
  0
VERTEX
  8
0
  6
CONTINUOUS
 10
5.797000
 20
6.307840
  0
SEQEND
  8
0
  0
SOLID
  8
0
 62
    15
 10
6.018320
 20
6.188160
 11
6.660280
 21
6.547640
 12
6.123920
 22
6.114240
 13
6.765880
 23
6.473720
  0
POLYLINE
  8
0
  6
CONTINUOUS
 66
     1
 40
0.000000
 41
0.000000
  0
VERTEX
  8
0
  6
CONTINUOUS
 10
6.018320
 20
6.188160
  0
VERTEX
  8
0
  6
CONTINUOUS
 10
6.660280
 20
6.547640
  0
VERTEX
  8
0
  6
CONTINUOUS
 10
6.765880
 20
6.473720
  0
VERTEX
  8
0
  6
CONTINUOUS
 10
6.123920
 20
6.114240
  0
VERTEX
  8
0
  6
CONTINUOUS
 10
6.018320
 20
6.188160
  0
SEQEND
  8
0
  0
SOLID
  8
0
 62
    15
 10
1.840080
 20
4.315520
 11
2.482040
 21
4.674560
 12
1.872200
 22
4.326520
 13
2.513720
 23
4.686000
  0
POLYLINE
  8
0
  6
CONTINUOUS
 66
     1
 40
0.000000
 41
0.000000
  0
VERTEX
  8
0
  6
CONTINUOUS
 10
1.840080
 20
4.315520
  0
VERTEX
  8
0
  6
CONTINUOUS
 10
2.482040
 20
4.674560
  0
VERTEX
  8
0
  6
CONTINUOUS
 10
2.513720
 20
4.686000
  0
VERTEX
  8
0
  6
CONTINUOUS
 10
1.872200
 20
4.326520
  0
VERTEX
  8
0
  6
CONTINUOUS
 10
1.840080
 20
4.315520
  0
SEQEND
  8
0
  0
SOLID
  8
0
 62
    15
 10
6.211480
 20
6.031520
 11
6.853440
 21
6.391000
 12
6.270440
 22
5.940000
 13
6.911960
 23
6.299480
  0
POLYLINE
  8
0
  6
CONTINUOUS
 66
     1
 40
0.000000
 41
0.000000
  0
VERTEX
  8
0
  6
CONTINUOUS
 10
6.211480
 20
6.031520
  0
VERTEX
  8
0
  6
CONTINUOUS
 10
6.853440
 20
6.391000
  0
VERTEX
  8
0
  6
CONTINUOUS
 10
6.911960
 20
6.299480
  0
VERTEX
  8
0
  6
CONTINUOUS
 10
6.270440
 20
5.940000
  0
VERTEX
  8
0
  6
CONTINUOUS
 10
6.211480
 20
6.031520
  0
SEQEND
  8
0
  0
SOLID
  8
0
 62
    15
 10
6.270440
 20
5.940000
 11
6.911960
 21
6.299480
 12
6.289360
 22
5.840120
 13
6.931320
 23
6.199160
  0
POLYLINE
  8
0
  6
CONTINUOUS
 66
     1
 40
0.000000
 41
0.000000
  0
VERTEX
  8
0
  6
CONTINUOUS
 10
6.270440
 20
5.940000
  0
VERTEX
  8
0
  6
CONTINUOUS
 10
6.911960
 20
6.299480
  0
VERTEX
  8
0
  6
CONTINUOUS
 10
6.931320
 20
6.199160
  0
VERTEX
  8
0
  6
CONTINUOUS
 10
6.289360
 20
5.840120
  0
VERTEX
  8
0
  6
CONTINUOUS
 10
6.270440
 20
5.940000
  0
SEQEND
  8
0
  0
SOLID
  8
0
 62
    15
 10
6.289360
 20
5.840120
 11
6.931320
 21
6.199160
 12
6.446880
 22
5.840120
 13
7.088840
 23
6.199160
  0
POLYLINE
  8
0
  6
CONTINUOUS
 66
     1
 40
0.000000
 41
0.000000
  0
VERTEX
  8
0
  6
CONTINUOUS
 10
6.289360
 20
5.840120
  0
VERTEX
  8
0
  6
CONTINUOUS
 10
6.931320
 20
6.199160
  0
VERTEX
  8
0
  6
CONTINUOUS
 10
7.088840
 20
6.199160
  0
VERTEX
  8
0
  6
CONTINUOUS
 10
6.446880
 20
5.840120
  0
VERTEX
  8
0
  6
CONTINUOUS
 10
6.289360
 20
5.840120
  0
SEQEND
  8
0
  0
SOLID
  8
0
 62
    15
 10
6.446880
 20
5.840120
 11
7.088840
 21
6.199160
 12
6.446880
 22
5.144480
 13
7.088840
 23
5.503520
  0
POLYLINE
  8
0
  6
CONTINUOUS
 66
     1
 40
0.000000
 41
0.000000
  0
VERTEX
  8
0
  6
CONTINUOUS
 10
6.446880
 20
5.840120
  0
VERTEX
  8
0
  6
CONTINUOUS
 10
7.088840
 20
6.199160
  0
VERTEX
  8
0
  6
CONTINUOUS
 10
7.088840
 20
5.503520
  0
VERTEX
  8
0
  6
CONTINUOUS
 10
6.446880
 20
5.144480
  0
VERTEX
  8
0
  6
CONTINUOUS
 10
6.446880
 20
5.840120
  0
SEQEND
  8
0
  0
SOLID
  8
0
 62
    15
 10
6.440280
 20
5.116320
 11
7.082240
 21
5.475800
 12
6.422680
 22
5.095640
 13
7.064640
 23
5.454680
  0
POLYLINE
  8
0
  6
CONTINUOUS
 66
     1
 40
0.000000
 41
0.000000
  0
VERTEX
  8
0
  6
CONTINUOUS
 10
6.440280
 20
5.116320
  0
VERTEX
  8
0
  6
CONTINUOUS
 10
7.082240
 20
5.475800
  0
VERTEX
  8
0
  6
CONTINUOUS
 10
7.064640
 20
5.454680
  0
VERTEX
  8
0
  6
CONTINUOUS
 10
6.422680
 20
5.095640
  0
VERTEX
  8
0
  6
CONTINUOUS
 10
6.440280
 20
5.116320
  0
SEQEND
  8
0
  0
SOLID
  8
0
 62
    15
 10
6.446880
 20
5.144480
 11
7.088840
 21
5.503520
 12
6.440280
 22
5.116320
 13
7.082240
 23
5.475800
  0
POLYLINE
  8
0
  6
CONTINUOUS
 66
     1
 40
0.000000
 41
0.000000
  0
VERTEX
  8
0
  6
CONTINUOUS
 10
6.446880
 20
5.144480
  0
VERTEX
  8
0
  6
CONTINUOUS
 10
7.088840
 20
5.503520
  0
VERTEX
  8
0
  6
CONTINUOUS
 10
7.082240
 20
5.475800
  0
VERTEX
  8
0
  6
CONTINUOUS
 10
6.440280
 20
5.116320
  0
VERTEX
  8
0
  6
CONTINUOUS
 10
6.446880
 20
5.144480
  0
SEQEND
  8
0
  0
SOLID
  8
0
 62
    15
 10
6.220280
 20
4.978160
 11
6.862240
 21
5.337200
 12
6.185960
 22
4.909080
 13
6.827480
 23
5.268560
  0
POLYLINE
  8
0
  6
CONTINUOUS
 66
     1
 40
0.000000
 41
0.000000
  0
VERTEX
  8
0
  6
CONTINUOUS
 10
6.220280
 20
4.978160
  0
VERTEX
  8
0
  6
CONTINUOUS
 10
6.862240
 20
5.337200
  0
VERTEX
  8
0
  6
CONTINUOUS
 10
6.827480
 20
5.268560
  0
VERTEX
  8
0
  6
CONTINUOUS
 10
6.185960
 20
4.909080
  0
VERTEX
  8
0
  6
CONTINUOUS
 10
6.220280
 20
4.978160
  0
SEQEND
  8
0
  0
SOLID
  8
0
 62
    15
 10
6.253720
 20
5.022160
 11
6.895240
 21
5.381640
 12
6.220280
 22
4.978160
 13
6.862240
 23
5.337200
  0
POLYLINE
  8
0
  6
CONTINUOUS
 66
     1
 40
0.000000
 41
0.000000
  0
VERTEX
  8
0
  6
CONTINUOUS
 10
6.253720
 20
5.022160
  0
VERTEX
  8
0
  6
CONTINUOUS
 10
6.895240
 20
5.381640
  0
VERTEX
  8
0
  6
CONTINUOUS
 10
6.862240
 20
5.337200
  0
VERTEX
  8
0
  6
CONTINUOUS
 10
6.220280
 20
4.978160
  0
VERTEX
  8
0
  6
CONTINUOUS
 10
6.253720
 20
5.022160
  0
SEQEND
  8
0
  0
SOLID
  8
0
 62
    15
 10
6.185960
 20
4.909080
 11
6.827480
 21
5.268560
 12
6.150320
 22
4.813600
 13
6.791840
 23
5.172640
  0
POLYLINE
  8
0
  6
CONTINUOUS
 66
     1
 40
0.000000
 41
0.000000
  0
VERTEX
  8
0
  6
CONTINUOUS
 10
6.185960
 20
4.909080
  0
VERTEX
  8
0
  6
CONTINUOUS
 10
6.827480
 20
5.268560
  0
VERTEX
  8
0
  6
CONTINUOUS
 10
6.791840
 20
5.172640
  0
VERTEX
  8
0
  6
CONTINUOUS
 10
6.150320
 20
4.813600
  0
VERTEX
  8
0
  6
CONTINUOUS
 10
6.185960
 20
4.909080
  0
SEQEND
  8
0
  0
SOLID
  8
0
 62
    15
 10
6.150320
 20
4.813600
 11
6.791840
 21
5.172640
 12
6.113360
 22
4.688640
 13
6.754880
 23
5.048120
  0
POLYLINE
  8
0
  6
CONTINUOUS
 66
     1
 40
0.000000
 41
0.000000
  0
VERTEX
  8
0
  6
CONTINUOUS
 10
6.150320
 20
4.813600
  0
VERTEX
  8
0
  6
CONTINUOUS
 10
6.791840
 20
5.172640
  0
VERTEX
  8
0
  6
CONTINUOUS
 10
6.754880
 20
5.048120
  0
VERTEX
  8
0
  6
CONTINUOUS
 10
6.113360
 20
4.688640
  0
VERTEX
  8
0
  6
CONTINUOUS
 10
6.150320
 20
4.813600
  0
SEQEND
  8
0
  0
SOLID
  8
0
 62
    15
 10
6.113360
 20
4.688640
 11
6.754880
 21
5.048120
 12
6.087400
 22
4.561920
 13
6.728920
 23
4.920960
  0
POLYLINE
  8
0
  6
CONTINUOUS
 66
     1
 40
0.000000
 41
0.000000
  0
VERTEX
  8
0
  6
CONTINUOUS
 10
6.113360
 20
4.688640
  0
VERTEX
  8
0
  6
CONTINUOUS
 10
6.754880
 20
5.048120
  0
VERTEX
  8
0
  6
CONTINUOUS
 10
6.728920
 20
4.920960
  0
VERTEX
  8
0
  6
CONTINUOUS
 10
6.087400
 20
4.561920
  0
VERTEX
  8
0
  6
CONTINUOUS
 10
6.113360
 20
4.688640
  0
SEQEND
  8
0
  0
SOLID
  8
0
 62
    15
 10
6.087400
 20
4.561920
 11
6.728920
 21
4.920960
 12
6.068920
 22
4.461160
 13
6.710880
 23
4.820640
  0
POLYLINE
  8
0
  6
CONTINUOUS
 66
     1
 40
0.000000
 41
0.000000
  0
VERTEX
  8
0
  6
CONTINUOUS
 10
6.087400
 20
4.561920
  0
VERTEX
  8
0
  6
CONTINUOUS
 10
6.728920
 20
4.920960
  0
VERTEX
  8
0
  6
CONTINUOUS
 10
6.710880
 20
4.820640
  0
VERTEX
  8
0
  6
CONTINUOUS
 10
6.068920
 20
4.461160
  0
VERTEX
  8
0
  6
CONTINUOUS
 10
6.087400
 20
4.561920
  0
SEQEND
  8
0
  0
SOLID
  8
0
 62
    15
 10
5.963320
 20
4.345880
 11
6.605280
 21
4.705360
 12
5.963320
 22
4.326520
 13
6.605280
 23
4.686000
  0
POLYLINE
  8
0
  6
CONTINUOUS
 66
     1
 40
0.000000
 41
0.000000
  0
VERTEX
  8
0
  6
CONTINUOUS
 10
5.963320
 20
4.345880
  0
VERTEX
  8
0
  6
CONTINUOUS
 10
6.605280
 20
4.705360
  0
VERTEX
  8
0
  6
CONTINUOUS
 10
6.605280
 20
4.686000
  0
VERTEX
  8
0
  6
CONTINUOUS
 10
5.963320
 20
4.326520
  0
VERTEX
  8
0
  6
CONTINUOUS
 10
5.963320
 20
4.345880
  0
SEQEND
  8
0
  0
SOLID
  8
0
 62
    15
 10
6.035480
 20
4.389000
 11
6.677000
 21
4.748040
 12
6.005560
 22
4.363480
 13
6.647080
 23
4.722960
  0
POLYLINE
  8
0
  6
CONTINUOUS
 66
     1
 40
0.000000
 41
0.000000
  0
VERTEX
  8
0
  6
CONTINUOUS
 10
6.035480
 20
4.389000
  0
VERTEX
  8
0
  6
CONTINUOUS
 10
6.677000
 20
4.748040
  0
VERTEX
  8
0
  6
CONTINUOUS
 10
6.647080
 20
4.722960
  0
VERTEX
  8
0
  6
CONTINUOUS
 10
6.005560
 20
4.363480
  0
VERTEX
  8
0
  6
CONTINUOUS
 10
6.035480
 20
4.389000
  0
SEQEND
  8
0
  0
SOLID
  8
0
 62
    15
 10
6.068920
 20
4.461160
 11
6.710880
 21
4.820640
 12
6.035480
 22
4.389000
 13
6.677000
 23
4.748040
  0
POLYLINE
  8
0
  6
CONTINUOUS
 66
     1
 40
0.000000
 41
0.000000
  0
VERTEX
  8
0
  6
CONTINUOUS
 10
6.068920
 20
4.461160
  0
VERTEX
  8
0
  6
CONTINUOUS
 10
6.710880
 20
4.820640
  0
VERTEX
  8
0
  6
CONTINUOUS
 10
6.677000
 20
4.748040
  0
VERTEX
  8
0
  6
CONTINUOUS
 10
6.035480
 20
4.389000
  0
VERTEX
  8
0
  6
CONTINUOUS
 10
6.068920
 20
4.461160
  0
SEQEND
  8
0
  0
SOLID
  8
0
 62
    15
 10
5.963320
 20
4.326520
 11
6.605280
 21
4.686000
 12
5.995000
 22
4.315520
 13
6.636960
 23
4.674560
  0
POLYLINE
  8
0
  6
CONTINUOUS
 66
     1
 40
0.000000
 41
0.000000
  0
VERTEX
  8
0
  6
CONTINUOUS
 10
5.963320
 20
4.326520
  0
VERTEX
  8
0
  6
CONTINUOUS
 10
6.605280
 20
4.686000
  0
VERTEX
  8
0
  6
CONTINUOUS
 10
6.636960
 20
4.674560
  0
VERTEX
  8
0
  6
CONTINUOUS
 10
5.995000
 20
4.315520
  0
VERTEX
  8
0
  6
CONTINUOUS
 10
5.963320
 20
4.326520
  0
SEQEND
  8
0
  0
SOLID
  8
0
 62
    15
 10
5.995000
 20
4.315520
 11
6.636960
 21
4.674560
 12
6.026240
 22
4.290440
 13
6.668200
 23
4.649480
  0
POLYLINE
  8
0
  6
CONTINUOUS
 66
     1
 40
0.000000
 41
0.000000
  0
VERTEX
  8
0
  6
CONTINUOUS
 10
5.995000
 20
4.315520
  0
VERTEX
  8
0
  6
CONTINUOUS
 10
6.636960
 20
4.674560
  0
VERTEX
  8
0
  6
CONTINUOUS
 10
6.668200
 20
4.649480
  0
VERTEX
  8
0
  6
CONTINUOUS
 10
6.026240
 20
4.290440
  0
VERTEX
  8
0
  6
CONTINUOUS
 10
5.995000
 20
4.315520
  0
SEQEND
  8
0
  0
SOLID
  8
0
 62
    15
 10
6.026240
 20
4.290440
 11
6.668200
 21
4.649480
 12
6.072000
 22
4.212560
 13
6.713960
 23
4.572040
  0
POLYLINE
  8
0
  6
CONTINUOUS
 66
     1
 40
0.000000
 41
0.000000
  0
VERTEX
  8
0
  6
CONTINUOUS
 10
6.026240
 20
4.290440
  0
VERTEX
  8
0
  6
CONTINUOUS
 10
6.668200
 20
4.649480
  0
VERTEX
  8
0
  6
CONTINUOUS
 10
6.713960
 20
4.572040
  0
VERTEX
  8
0
  6
CONTINUOUS
 10
6.072000
 20
4.212560
  0
VERTEX
  8
0
  6
CONTINUOUS
 10
6.026240
 20
4.290440
  0
SEQEND
  8
0
  0
SOLID
  8
0
 62
    15
 10
6.072000
 20
4.212560
 11
6.713960
 21
4.572040
 12
6.078600
 22
4.166360
 13
6.720120
 23
4.525400
  0
POLYLINE
  8
0
  6
CONTINUOUS
 66
     1
 40
0.000000
 41
0.000000
  0
VERTEX
  8
0
  6
CONTINUOUS
 10
6.072000
 20
4.212560
  0
VERTEX
  8
0
  6
CONTINUOUS
 10
6.713960
 20
4.572040
  0
VERTEX
  8
0
  6
CONTINUOUS
 10
6.720120
 20
4.525400
  0
VERTEX
  8
0
  6
CONTINUOUS
 10
6.078600
 20
4.166360
  0
VERTEX
  8
0
  6
CONTINUOUS
 10
6.072000
 20
4.212560
  0
SEQEND
  8
0
  0
SOLID
  8
0
 62
    15
 10
6.068920
 20
4.119280
 11
6.710440
 21
4.478320
 12
6.039000
 22
4.074840
 13
6.680960
 23
4.433880
  0
POLYLINE
  8
0
  6
CONTINUOUS
 66
     1
 40
0.000000
 41
0.000000
  0
VERTEX
  8
0
  6
CONTINUOUS
 10
6.068920
 20
4.119280
  0
VERTEX
  8
0
  6
CONTINUOUS
 10
6.710440
 20
4.478320
  0
VERTEX
  8
0
  6
CONTINUOUS
 10
6.680960
 20
4.433880
  0
VERTEX
  8
0
  6
CONTINUOUS
 10
6.039000
 20
4.074840
  0
VERTEX
  8
0
  6
CONTINUOUS
 10
6.068920
 20
4.119280
  0
SEQEND
  8
0
  0
SOLID
  8
0
 62
    15
 10
6.078600
 20
4.166360
 11
6.720120
 21
4.525400
 12
6.068920
 22
4.119280
 13
6.710440
 23
4.478320
  0
POLYLINE
  8
0
  6
CONTINUOUS
 66
     1
 40
0.000000
 41
0.000000
  0
VERTEX
  8
0
  6
CONTINUOUS
 10
6.078600
 20
4.166360
  0
VERTEX
  8
0
  6
CONTINUOUS
 10
6.720120
 20
4.525400
  0
VERTEX
  8
0
  6
CONTINUOUS
 10
6.710440
 20
4.478320
  0
VERTEX
  8
0
  6
CONTINUOUS
 10
6.068920
 20
4.119280
  0
VERTEX
  8
0
  6
CONTINUOUS
 10
6.078600
 20
4.166360
  0
SEQEND
  8
0
  0
SOLID
  8
0
 62
    15
 10
6.039000
 20
4.074840
 11
6.680960
 21
4.433880
 12
5.985320
 22
4.036120
 13
6.627280
 23
4.395600
  0
POLYLINE
  8
0
  6
CONTINUOUS
 66
     1
 40
0.000000
 41
0.000000
  0
VERTEX
  8
0
  6
CONTINUOUS
 10
6.039000
 20
4.074840
  0
VERTEX
  8
0
  6
CONTINUOUS
 10
6.680960
 20
4.433880
  0
VERTEX
  8
0
  6
CONTINUOUS
 10
6.627280
 20
4.395600
  0
VERTEX
  8
0
  6
CONTINUOUS
 10
5.985320
 20
4.036120
  0
VERTEX
  8
0
  6
CONTINUOUS
 10
6.039000
 20
4.074840
  0
SEQEND
  8
0
  0
POLYLINE
  8
0
  6
CONTINUOUS
 66
     1
 40
0.000000
 41
0.000000
  0
VERTEX
  8
0
  6
CONTINUOUS
 10
1.849760
 20
4.036120
  0
VERTEX
  8
0
  6
CONTINUOUS
 10
1.796080
 20
4.074840
  0
VERTEX
  8
0
  6
CONTINUOUS
 10
1.766600
 20
4.119280
  0
VERTEX
  8
0
  6
CONTINUOUS
 10
1.756920
 20
4.166360
  0
VERTEX
  8
0
  6
CONTINUOUS
 10
1.763080
 20
4.212560
  0
VERTEX
  8
0
  6
CONTINUOUS
 10
1.808840
 20
4.290440
  0
VERTEX
  8
0
  6
CONTINUOUS
 10
1.840080
 20
4.315520
  0
VERTEX
  8
0
  6
CONTINUOUS
 10
1.872200
 20
4.326520
  0
VERTEX
  8
0
  6
CONTINUOUS
 10
1.872200
 20
4.345880
  0
VERTEX
  8
0
  6
CONTINUOUS
 10
1.829960
 20
4.363480
  0
VERTEX
  8
0
  6
CONTINUOUS
 10
1.800040
 20
4.389000
  0
VERTEX
  8
0
  6
CONTINUOUS
 10
1.766600
 20
4.461160
  0
VERTEX
  8
0
  6
CONTINUOUS
 10
1.748120
 20
4.561920
  0
VERTEX
  8
0
  6
CONTINUOUS
 10
1.722160
 20
4.688640
  0
VERTEX
  8
0
  6
CONTINUOUS
 10
1.685200
 20
4.813600
  0
VERTEX
  8
0
  6
CONTINUOUS
 10
1.649560
 20
4.909080
  0
VERTEX
  8
0
  6
CONTINUOUS
 10
1.615240
 20
4.978160
  0
VERTEX
  8
0
  6
CONTINUOUS
 10
1.581800
 20
5.022160
  0
VERTEX
  8
0
  6
CONTINUOUS
 10
1.532960
 20
5.048120
  0
VERTEX
  8
0
  6
CONTINUOUS
 10
1.468720
 20
5.067920
  0
VERTEX
  8
0
  6
CONTINUOUS
 10
1.412400
 20
5.095640
  0
VERTEX
  8
0
  6
CONTINUOUS
 10
1.394800
 20
5.116320
  0
VERTEX
  8
0
  6
CONTINUOUS
 10
1.388640
 20
5.144480
  0
VERTEX
  8
0
  6
CONTINUOUS
 10
1.388640
 20
5.840120
  0
VERTEX
  8
0
  6
CONTINUOUS
 10
1.545720
 20
5.840120
  0
VERTEX
  8
0
  6
CONTINUOUS
 10
1.565080
 20
5.940000
  0
VERTEX
  8
0
  6
CONTINUOUS
 10
1.623600
 20
6.031520
  0
VERTEX
  8
0
  6
CONTINUOUS
 10
1.711160
 20
6.114240
  0
VERTEX
  8
0
  6
CONTINUOUS
 10
1.816760
 20
6.188160
  0
VERTEX
  8
0
  6
CONTINUOUS
 10
2.038080
 20
6.307840
  0
VERTEX
  8
0
  6
CONTINUOUS
 10
2.132240
 20
6.353600
  0
VERTEX
  8
0
  6
CONTINUOUS
 10
2.200880
 20
6.389680
  0
VERTEX
  8
0
  6
CONTINUOUS
 10
2.289760
 20
6.457880
  0
VERTEX
  8
0
  6
CONTINUOUS
 10
2.438040
 20
6.612760
  0
VERTEX
  8
0
  6
CONTINUOUS
 10
2.539680
 20
6.687120
  0
VERTEX
  8
0
  6
CONTINUOUS
 10
2.594240
 20
6.716600
  0
VERTEX
  8
0
  6
CONTINUOUS
 10
2.637800
 20
6.736400
  0
VERTEX
  8
0
  6
CONTINUOUS
 10
2.701600
 20
6.754000
  0
VERTEX
  8
0
  6
CONTINUOUS
 10
2.795760
 20
6.750920
  0
VERTEX
  8
0
  6
CONTINUOUS
 10
5.039760
 20
6.750920
  0
VERTEX
  8
0
  6
CONTINUOUS
 10
5.133920
 20
6.754000
  0
VERTEX
  8
0
  6
CONTINUOUS
 10
5.197280
 20
6.736400
  0
VERTEX
  8
0
  6
CONTINUOUS
 10
5.241280
 20
6.716600
  0
VERTEX
  8
0
  6
CONTINUOUS
 10
5.295840
 20
6.687120
  0
VERTEX
  8
0
  6
CONTINUOUS
 10
5.397480
 20
6.612760
  0
VERTEX
  8
0
  6
CONTINUOUS
 10
5.473600
 20
6.534440
  0
VERTEX
  8
0
  6
CONTINUOUS
 10
5.545320
 20
6.457880
  0
VERTEX
  8
0
  6
CONTINUOUS
 10
5.634640
 20
6.389680
  0
VERTEX
  8
0
  6
CONTINUOUS
 10
5.703280
 20
6.353600
  0
VERTEX
  8
0
  6
CONTINUOUS
 10
5.797000
 20
6.307840
  0
VERTEX
  8
0
  6
CONTINUOUS
 10
6.018320
 20
6.188160
  0
VERTEX
  8
0
  6
CONTINUOUS
 10
6.123920
 20
6.114240
  0
VERTEX
  8
0
  6
CONTINUOUS
 10
6.211480
 20
6.031520
  0
VERTEX
  8
0
  6
CONTINUOUS
 10
6.270440
 20
5.940000
  0
VERTEX
  8
0
  6
CONTINUOUS
 10
6.289360
 20
5.840120
  0
VERTEX
  8
0
  6
CONTINUOUS
 10
6.446880
 20
5.840120
  0
VERTEX
  8
0
  6
CONTINUOUS
 10
6.446880
 20
5.144480
  0
VERTEX
  8
0
  6
CONTINUOUS
 10
6.440280
 20
5.116320
  0
VERTEX
  8
0
  6
CONTINUOUS
 10
6.422680
 20
5.095640
  0
VERTEX
  8
0
  6
CONTINUOUS
 10
6.366800
 20
5.067920
  0
VERTEX
  8
0
  6
CONTINUOUS
 10
6.302120
 20
5.048120
  0
VERTEX
  8
0
  6
CONTINUOUS
 10
6.253720
 20
5.022160
  0
VERTEX
  8
0
  6
CONTINUOUS
 10
6.220280
 20
4.978160
  0
VERTEX
  8
0
  6
CONTINUOUS
 10
6.185960
 20
4.909080
  0
VERTEX
  8
0
  6
CONTINUOUS
 10
6.150320
 20
4.813600
  0
VERTEX
  8
0
  6
CONTINUOUS
 10
6.113360
 20
4.688640
  0
VERTEX
  8
0
  6
CONTINUOUS
 10
6.087400
 20
4.561920
  0
VERTEX
  8
0
  6
CONTINUOUS
 10
6.068920
 20
4.461160
  0
VERTEX
  8
0
  6
CONTINUOUS
 10
6.035480
 20
4.389000
  0
VERTEX
  8
0
  6
CONTINUOUS
 10
6.005560
 20
4.363480
  0
VERTEX
  8
0
  6
CONTINUOUS
 10
5.963320
 20
4.345880
  0
VERTEX
  8
0
  6
CONTINUOUS
 10
5.963320
 20
4.326520
  0
VERTEX
  8
0
  6
CONTINUOUS
 10
5.995000
 20
4.315520
  0
VERTEX
  8
0
  6
CONTINUOUS
 10
6.026240
 20
4.290440
  0
VERTEX
  8
0
  6
CONTINUOUS
 10
6.072000
 20
4.212560
  0
VERTEX
  8
0
  6
CONTINUOUS
 10
6.078600
 20
4.166360
  0
VERTEX
  8
0
  6
CONTINUOUS
 10
6.068920
 20
4.119280
  0
VERTEX
  8
0
  6
CONTINUOUS
 10
6.039000
 20
4.074840
  0
VERTEX
  8
0
  6
CONTINUOUS
 10
5.985320
 20
4.036120
  0
VERTEX
  8
0
  6
CONTINUOUS
 10
1.849760
 20
4.036120
  0
SEQEND
  8
0
  0
TEXT
  8
0
 10
3.897520
 20
3.761120
 40
0.137872
  1
BA  1301
 41
1.000000
  7
SN0
 71
     0
 72
     5
 11
4.581336
 21
3.761120
  0
TEXT
  8
0
 10
3.667840
 20
3.559600
 40
0.137872
  1
2-3/4" x 5-1/16"
 41
1.000000
  7
SN0
 71
     0
 72
     5
 11
4.812531
 21
3.559600
  0
TEXT
  8
0
 10
4.080560
 20
7.755000
 40
0.137872
  1
BA  1301
 41
1.000000
  7
SN0
 71
     0
 72
     5
 11
4.764376
 21
7.755000
  0
TEXT
  8
0
 10
3.850880
 20
7.553480
 40
0.137872
  1
2-3/4" x 5-1/16"
 41
1.000000
  7
SN0
 71
     0
 72
     5
 11
4.995571
 21
7.553480
  0
ENDSEC
  0
EOF
