  0
SECTION
  2
HEADER
  9
$ACADVER
  1
AC1006
  9
$EXTMIN
 10
1.249600
 20
1.590160
  9
$EXTMAX
 10
6.791400
 20
9.915400
  9
$LTSCALE
 40
0.044000
  9
$PDMODE
 70
    35
  9
$PDSIZE
 40
0.035200
  0
ENDSEC
  0
SECTION
  2
TABLES
  0
TABLE
  2
LTYPE
 70
     9
  0
LTYPE
  2
CONTINUOUS
 70
    64
  3
Solid line
 72
    65
 73
     0
 40
0.000000
  0
LTYPE
  2
DASHED
 70
    64
  3
__ __ __ __ __ __ __ __ __ __ __ __ __ __ __
 72
    65
 73
     2
 40
0.000330
 49
0.000220
 49
-0.000110
  0
LTYPE
  2
HIDDEN
 70
    64
  3
 _ _ _ _ _ _ _ _ _ _ _ _ _ _ _ _ _ _ _ _ _ _
 72
    65
 73
     2
 40
0.000165
 49
0.000110
 49
-0.000055
  0
LTYPE
  2
CENTER
 70
    64
  3
____ _ ____ _ ____ _ ____ _ ____ _ ____ _ ____
 72
    65
 73
     4
 40
0.000880
 49
0.000550
 49
-0.000110
 49
0.000110
 49
-0.000110
  0
LTYPE
  2
PHANTOM
 70
    64
  3
_____ _ _ _____ _ _ _____ _ _ _____ _ _ ____
 72
    65
 73
     6
 40
0.001100
 49
0.000550
 49
-0.000110
 49
0.000110
 49
-0.000110
 49
0.000110
 49
-0.000110
  0
LTYPE
  2
DOT
 70
    64
  3
...............................................
 72
    65
 73
     2
 40
0.000110
 49
0.000000
 49
-0.000110
  0
LTYPE
  2
DASHDOT
 70
    64
  3
__ . __ . __ . __ . __ . __ . __ . __ . __ . __
 72
    65
 73
     4
 40
0.000440
 49
0.000220
 49
-0.000110
 49
0.000000
 49
-0.000110
  0
LTYPE
  2
BORDER
 70
    64
  3
__ __ . __ __ . __ __ . __ __ . __ __ . __ __
 72
    65
 73
     6
 40
0.000770
 49
0.000220
 49
-0.000110
 49
0.000220
 49
-0.000110
 49
0.000000
 49
-0.000110
  0
LTYPE
  2
DIVIDE
 70
    64
  3
__ . . __ . . __ . . __ . . __ . . __ . . __
 72
    65
 73
     6
 40
0.000550
 49
0.000220
 49
-0.000110
 49
0.000000
 49
-0.000110
 49
0.000000
 49
-0.000110
  0
LTYPE
  2
DOTDOT
 70
    64
  3
 . .  . .  . .  . .  . .  . . 
 72
    65
 73
     5
 40
0.000242
 49
-0.000110
 49
0.000000
 49
-0.000110
 49
0.000000
 49
-0.000110
  0
ENDTAB
  0
TABLE
  2
STYLE
 70
     2
  0
STYLE
 70
     0
  2
SN0
 40
0.000000
 41
0.000440
 50
0.000000
 71
     0
 42
0.000000
  3
ROMAND
  0
STYLE
 70
    68
  2
SV0
 40
0.000000
 41
0.000440
 50
0.000000
 71
     0
 42
0.000000
  3
ROMAND
  0
ENDTAB
  0
TABLE
  2
LAYER
 70
     3
  0
LAYER
  2
FOREGROUND
 70
    64
 62
     7
  6
CONTINUOUS
  0
LAYER
  2
BACKGROUND
 70
    65
 62
    -7
  6
CONTINUOUS
  0
LAYER
  2
0
 70
    64
 62
     7
  6
CONTINUOUS
  0
ENDTAB
  0
ENDSEC
  0
SECTION
  2
ENTITIES
  0
POLYLINE
  8
FOREGROUND
  6
CONTINUOUS
 66
     1
 40
0.000000
 41
0.000000
  0
VERTEX
  8
FOREGROUND
  6
CONTINUOUS
 10
0.000000
 20
11.505560
  0
VERTEX
  8
FOREGROUND
  6
CONTINUOUS
 10
8.499920
 20
11.505560
  0
VERTEX
  8
FOREGROUND
  6
CONTINUOUS
 10
8.499920
 20
0.505560
  0
VERTEX
  8
FOREGROUND
  6
CONTINUOUS
 10
0.000000
 20
0.505560
  0
VERTEX
  8
FOREGROUND
  6
CONTINUOUS
 10
0.000000
 20
11.505560
  0
SEQEND
  8
0
  0
POLYLINE
  8
FOREGROUND
  6
CONTINUOUS
 66
     1
 40
0.000000
 41
0.000000
  0
VERTEX
  8
FOREGROUND
  6
CONTINUOUS
 10
0.000000
 20
11.505560
  0
VERTEX
  8
FOREGROUND
  6
CONTINUOUS
 10
8.499920
 20
11.505560
  0
VERTEX
  8
FOREGROUND
  6
CONTINUOUS
 10
8.499920
 20
0.505560
  0
VERTEX
  8
FOREGROUND
  6
CONTINUOUS
 10
0.000000
 20
0.505560
  0
VERTEX
  8
FOREGROUND
  6
CONTINUOUS
 10
0.000000
 20
11.505560
  0
SEQEND
  8
0
  0
POLYLINE
  8
0
  6
CONTINUOUS
 66
     1
 40
0.014080
 41
0.014080
  0
VERTEX
  8
0
  6
CONTINUOUS
 10
1.541320
 20
9.342960
  0
VERTEX
  8
0
  6
CONTINUOUS
 10
1.645600
 20
9.342960
  0
VERTEX
  8
0
  6
CONTINUOUS
 10
1.691360
 20
9.338120
  0
VERTEX
  8
0
  6
CONTINUOUS
 10
1.734920
 20
9.327560
  0
VERTEX
  8
0
  6
CONTINUOUS
 10
1.775400
 20
9.312160
  0
VERTEX
  8
0
  6
CONTINUOUS
 10
1.800480
 20
9.298960
  0
VERTEX
  8
0
  6
CONTINUOUS
 10
1.823800
 20
9.284000
  0
VERTEX
  8
0
  6
CONTINUOUS
 10
1.845800
 20
9.266840
  0
VERTEX
  8
0
  6
CONTINUOUS
 10
1.866040
 20
9.248360
  0
VERTEX
  8
0
  6
CONTINUOUS
 10
1.884520
 20
9.228120
  0
VERTEX
  8
0
  6
CONTINUOUS
 10
1.900800
 20
9.206560
  0
VERTEX
  8
0
  6
CONTINUOUS
 10
1.915320
 20
9.183680
  0
VERTEX
  8
0
  6
CONTINUOUS
 10
1.932920
 20
9.147160
  0
VERTEX
  8
0
  6
CONTINUOUS
 10
1.945240
 20
9.108880
  0
VERTEX
  8
0
  6
CONTINUOUS
 10
1.950960
 20
9.082040
  0
VERTEX
  8
0
  6
CONTINUOUS
 10
1.954040
 20
9.041560
  0
VERTEX
  8
0
  6
CONTINUOUS
 10
1.953160
 20
9.013840
  0
VERTEX
  8
0
  6
CONTINUOUS
 10
1.946560
 20
8.972040
  0
VERTEX
  8
0
  6
CONTINUOUS
 10
1.933360
 20
8.929800
  0
VERTEX
  8
0
  6
CONTINUOUS
 10
1.913120
 20
8.888440
  0
VERTEX
  8
0
  6
CONTINUOUS
 10
1.886280
 20
8.847960
  0
VERTEX
  8
0
  6
CONTINUOUS
 10
1.851520
 20
8.809240
  0
VERTEX
  8
0
  6
CONTINUOUS
 10
1.809280
 20
8.772280
  0
VERTEX
  8
0
  6
CONTINUOUS
 10
1.776720
 20
8.748520
  0
VERTEX
  8
0
  6
CONTINUOUS
 10
1.720840
 20
8.715960
  0
VERTEX
  8
0
  6
CONTINUOUS
 10
1.678600
 20
8.695720
  0
VERTEX
  8
0
  6
CONTINUOUS
 10
1.632840
 20
8.677240
  0
VERTEX
  8
0
  6
CONTINUOUS
 10
1.632840
 20
8.617400
  0
VERTEX
  8
0
  6
CONTINUOUS
 10
2.011680
 20
8.601560
  0
VERTEX
  8
0
  6
CONTINUOUS
 10
2.011680
 20
2.099680
  0
VERTEX
  8
0
  6
CONTINUOUS
 10
1.257520
 20
2.099680
  0
VERTEX
  8
0
  6
CONTINUOUS
 10
1.257520
 20
9.343840
  0
VERTEX
  8
0
  6
CONTINUOUS
 10
1.541320
 20
9.343840
  0
VERTEX
  8
0
  6
CONTINUOUS
 10
1.541320
 20
9.342960
  0
SEQEND
  8
0
  0
POLYLINE
  8
0
  6
CONTINUOUS
 66
     1
 40
0.000000
 41
0.000000
  0
VERTEX
  8
0
  6
CONTINUOUS
 10
5.150200
 20
9.321400
  0
VERTEX
  8
0
  6
CONTINUOUS
 10
5.254480
 20
9.321400
  0
VERTEX
  8
0
  6
CONTINUOUS
 10
5.300240
 20
9.316560
  0
VERTEX
  8
0
  6
CONTINUOUS
 10
5.343800
 20
9.306000
  0
VERTEX
  8
0
  6
CONTINUOUS
 10
5.384280
 20
9.290600
  0
VERTEX
  8
0
  6
CONTINUOUS
 10
5.409360
 20
9.277400
  0
VERTEX
  8
0
  6
CONTINUOUS
 10
5.432680
 20
9.262440
  0
VERTEX
  8
0
  6
CONTINUOUS
 10
5.454680
 20
9.245280
  0
VERTEX
  8
0
  6
CONTINUOUS
 10
5.474920
 20
9.226800
  0
VERTEX
  8
0
  6
CONTINUOUS
 10
5.493400
 20
9.206560
  0
VERTEX
  8
0
  6
CONTINUOUS
 10
5.509680
 20
9.185000
  0
VERTEX
  8
0
  6
CONTINUOUS
 10
5.524200
 20
9.162120
  0
VERTEX
  8
0
  6
CONTINUOUS
 10
5.541800
 20
9.125600
  0
VERTEX
  8
0
  6
CONTINUOUS
 10
5.554120
 20
9.087320
  0
VERTEX
  8
0
  6
CONTINUOUS
 10
5.559840
 20
9.060480
  0
VERTEX
  8
0
  6
CONTINUOUS
 10
5.562920
 20
9.020000
  0
VERTEX
  8
0
  6
CONTINUOUS
 10
5.562040
 20
8.992280
  0
VERTEX
  8
0
  6
CONTINUOUS
 10
5.555440
 20
8.950480
  0
VERTEX
  8
0
  6
CONTINUOUS
 10
5.542240
 20
8.908240
  0
VERTEX
  8
0
  6
CONTINUOUS
 10
5.522000
 20
8.866880
  0
VERTEX
  8
0
  6
CONTINUOUS
 10
5.495160
 20
8.826400
  0
VERTEX
  8
0
  6
CONTINUOUS
 10
5.460400
 20
8.787680
  0
VERTEX
  8
0
  6
CONTINUOUS
 10
5.418160
 20
8.750720
  0
VERTEX
  8
0
  6
CONTINUOUS
 10
5.385600
 20
8.726960
  0
VERTEX
  8
0
  6
CONTINUOUS
 10
5.329720
 20
8.694400
  0
VERTEX
  8
0
  6
CONTINUOUS
 10
5.287480
 20
8.674160
  0
VERTEX
  8
0
  6
CONTINUOUS
 10
5.241720
 20
8.655680
  0
VERTEX
  8
0
  6
CONTINUOUS
 10
5.241720
 20
8.595840
  0
VERTEX
  8
0
  6
CONTINUOUS
 10
5.620560
 20
8.580000
  0
VERTEX
  8
0
  6
CONTINUOUS
 10
5.620560
 20
2.078120
  0
VERTEX
  8
0
  6
CONTINUOUS
 10
4.866400
 20
2.078120
  0
VERTEX
  8
0
  6
CONTINUOUS
 10
4.866400
 20
9.322280
  0
VERTEX
  8
0
  6
CONTINUOUS
 10
5.150200
 20
9.322280
  0
VERTEX
  8
0
  6
CONTINUOUS
 10
5.150200
 20
9.321400
  0
SEQEND
  8
0
  0
POLYLINE
  8
0
  6
CONTINUOUS
 66
     1
 40
0.000000
 41
0.000000
  0
VERTEX
  8
0
  6
CONTINUOUS
 10
6.507160
 20
9.293240
  0
VERTEX
  8
0
  6
CONTINUOUS
 10
6.402880
 20
9.293240
  0
VERTEX
  8
0
  6
CONTINUOUS
 10
6.357120
 20
9.288400
  0
VERTEX
  8
0
  6
CONTINUOUS
 10
6.313560
 20
9.277840
  0
VERTEX
  8
0
  6
CONTINUOUS
 10
6.273080
 20
9.262440
  0
VERTEX
  8
0
  6
CONTINUOUS
 10
6.248000
 20
9.249240
  0
VERTEX
  8
0
  6
CONTINUOUS
 10
6.224680
 20
9.234280
  0
VERTEX
  8
0
  6
CONTINUOUS
 10
6.202680
 20
9.217120
  0
VERTEX
  8
0
  6
CONTINUOUS
 10
6.182440
 20
9.198640
  0
VERTEX
  8
0
  6
CONTINUOUS
 10
6.163960
 20
9.178400
  0
VERTEX
  8
0
  6
CONTINUOUS
 10
6.147680
 20
9.156840
  0
VERTEX
  8
0
  6
CONTINUOUS
 10
6.133160
 20
9.133960
  0
VERTEX
  8
0
  6
CONTINUOUS
 10
6.115560
 20
9.097440
  0
VERTEX
  8
0
  6
CONTINUOUS
 10
6.103240
 20
9.059160
  0
VERTEX
  8
0
  6
CONTINUOUS
 10
6.096200
 20
9.019120
  0
VERTEX
  8
0
  6
CONTINUOUS
 10
6.094440
 20
8.991840
  0
VERTEX
  8
0
  6
CONTINUOUS
 10
6.095320
 20
8.964120
  0
VERTEX
  8
0
  6
CONTINUOUS
 10
6.101920
 20
8.922320
  0
VERTEX
  8
0
  6
CONTINUOUS
 10
6.115120
 20
8.880080
  0
VERTEX
  8
0
  6
CONTINUOUS
 10
6.135360
 20
8.838720
  0
VERTEX
  8
0
  6
CONTINUOUS
 10
6.162200
 20
8.798240
  0
VERTEX
  8
0
  6
CONTINUOUS
 10
6.196960
 20
8.759520
  0
VERTEX
  8
0
  6
CONTINUOUS
 10
6.239200
 20
8.722560
  0
VERTEX
  8
0
  6
CONTINUOUS
 10
6.271760
 20
8.698800
  0
VERTEX
  8
0
  6
CONTINUOUS
 10
6.327640
 20
8.666240
  0
VERTEX
  8
0
  6
CONTINUOUS
 10
6.369880
 20
8.646000
  0
VERTEX
  8
0
  6
CONTINUOUS
 10
6.415640
 20
8.627520
  0
VERTEX
  8
0
  6
CONTINUOUS
 10
6.415640
 20
8.567680
  0
VERTEX
  8
0
  6
CONTINUOUS
 10
6.036800
 20
8.551840
  0
VERTEX
  8
0
  6
CONTINUOUS
 10
6.036800
 20
2.049960
  0
VERTEX
  8
0
  6
CONTINUOUS
 10
6.790960
 20
2.049960
  0
VERTEX
  8
0
  6
CONTINUOUS
 10
6.790960
 20
9.294120
  0
VERTEX
  8
0
  6
CONTINUOUS
 10
6.507160
 20
9.294120
  0
VERTEX
  8
0
  6
CONTINUOUS
 10
6.507160
 20
9.293240
  0
SEQEND
  8
0
  0
SOLID
  8
0
 62
    15
 10
3.619000
 20
8.965440
 11
4.252600
 21
9.330640
 12
3.600080
 22
8.909560
 13
4.233680
 23
9.275200
  0
POLYLINE
  8
0
  6
CONTINUOUS
 66
     1
 40
0.000000
 41
0.000000
  0
VERTEX
  8
0
  6
CONTINUOUS
 10
3.619000
 20
8.965440
  0
VERTEX
  8
0
  6
CONTINUOUS
 10
4.252600
 20
9.330640
  0
VERTEX
  8
0
  6
CONTINUOUS
 10
4.233680
 20
9.275200
  0
VERTEX
  8
0
  6
CONTINUOUS
 10
3.600080
 20
8.909560
  0
VERTEX
  8
0
  6
CONTINUOUS
 10
3.619000
 20
8.965440
  0
SEQEND
  8
0
  0
SOLID
  8
0
 62
    15
 10
3.302640
 20
9.336360
 11
3.936240
 21
9.701560
 12
3.364240
 22
9.331520
 13
3.997840
 23
9.696720
  0
POLYLINE
  8
0
  6
CONTINUOUS
 66
     1
 40
0.000000
 41
0.000000
  0
VERTEX
  8
0
  6
CONTINUOUS
 10
3.302640
 20
9.336360
  0
VERTEX
  8
0
  6
CONTINUOUS
 10
3.936240
 20
9.701560
  0
VERTEX
  8
0
  6
CONTINUOUS
 10
3.997840
 20
9.696720
  0
VERTEX
  8
0
  6
CONTINUOUS
 10
3.364240
 20
9.331520
  0
VERTEX
  8
0
  6
CONTINUOUS
 10
3.302640
 20
9.336360
  0
SEQEND
  8
0
  0
SOLID
  8
0
 62
    15
 10
3.364240
 20
9.331520
 11
3.997840
 21
9.696720
 12
3.421440
 22
9.316120
 13
4.055040
 23
9.681760
  0
POLYLINE
  8
0
  6
CONTINUOUS
 66
     1
 40
0.000000
 41
0.000000
  0
VERTEX
  8
0
  6
CONTINUOUS
 10
3.364240
 20
9.331520
  0
VERTEX
  8
0
  6
CONTINUOUS
 10
3.997840
 20
9.696720
  0
VERTEX
  8
0
  6
CONTINUOUS
 10
4.055040
 20
9.681760
  0
VERTEX
  8
0
  6
CONTINUOUS
 10
3.421440
 20
9.316120
  0
VERTEX
  8
0
  6
CONTINUOUS
 10
3.364240
 20
9.331520
  0
SEQEND
  8
0
  0
SOLID
  8
0
 62
    15
 10
3.421440
 20
9.316120
 11
4.055040
 21
9.681760
 12
3.473360
 22
9.292360
 13
4.106960
 23
9.657560
  0
POLYLINE
  8
0
  6
CONTINUOUS
 66
     1
 40
0.000000
 41
0.000000
  0
VERTEX
  8
0
  6
CONTINUOUS
 10
3.421440
 20
9.316120
  0
VERTEX
  8
0
  6
CONTINUOUS
 10
4.055040
 20
9.681760
  0
VERTEX
  8
0
  6
CONTINUOUS
 10
4.106960
 20
9.657560
  0
VERTEX
  8
0
  6
CONTINUOUS
 10
3.473360
 20
9.292360
  0
VERTEX
  8
0
  6
CONTINUOUS
 10
3.421440
 20
9.316120
  0
SEQEND
  8
0
  0
SOLID
  8
0
 62
    15
 10
3.473360
 20
9.292360
 11
4.106960
 21
9.657560
 12
3.518680
 22
9.260240
 13
4.152280
 23
9.625440
  0
POLYLINE
  8
0
  6
CONTINUOUS
 66
     1
 40
0.000000
 41
0.000000
  0
VERTEX
  8
0
  6
CONTINUOUS
 10
3.473360
 20
9.292360
  0
VERTEX
  8
0
  6
CONTINUOUS
 10
4.106960
 20
9.657560
  0
VERTEX
  8
0
  6
CONTINUOUS
 10
4.152280
 20
9.625440
  0
VERTEX
  8
0
  6
CONTINUOUS
 10
3.518680
 20
9.260240
  0
VERTEX
  8
0
  6
CONTINUOUS
 10
3.473360
 20
9.292360
  0
SEQEND
  8
0
  0
SOLID
  8
0
 62
    15
 10
3.518680
 20
9.260240
 11
4.152280
 21
9.625440
 12
3.557400
 22
9.221520
 13
4.191000
 23
9.586720
  0
POLYLINE
  8
0
  6
CONTINUOUS
 66
     1
 40
0.000000
 41
0.000000
  0
VERTEX
  8
0
  6
CONTINUOUS
 10
3.518680
 20
9.260240
  0
VERTEX
  8
0
  6
CONTINUOUS
 10
4.152280
 20
9.625440
  0
VERTEX
  8
0
  6
CONTINUOUS
 10
4.191000
 20
9.586720
  0
VERTEX
  8
0
  6
CONTINUOUS
 10
3.557400
 20
9.221520
  0
VERTEX
  8
0
  6
CONTINUOUS
 10
3.518680
 20
9.260240
  0
SEQEND
  8
0
  0
SOLID
  8
0
 62
    15
 10
3.557400
 20
9.221520
 11
4.191000
 21
9.586720
 12
3.588200
 22
9.177080
 13
4.221800
 23
9.542280
  0
POLYLINE
  8
0
  6
CONTINUOUS
 66
     1
 40
0.000000
 41
0.000000
  0
VERTEX
  8
0
  6
CONTINUOUS
 10
3.557400
 20
9.221520
  0
VERTEX
  8
0
  6
CONTINUOUS
 10
4.191000
 20
9.586720
  0
VERTEX
  8
0
  6
CONTINUOUS
 10
4.221800
 20
9.542280
  0
VERTEX
  8
0
  6
CONTINUOUS
 10
3.588200
 20
9.177080
  0
VERTEX
  8
0
  6
CONTINUOUS
 10
3.557400
 20
9.221520
  0
SEQEND
  8
0
  0
SOLID
  8
0
 62
    15
 10
3.588200
 20
9.177080
 11
4.221800
 21
9.542280
 12
3.610640
 22
9.127800
 13
4.243800
 23
9.493440
  0
POLYLINE
  8
0
  6
CONTINUOUS
 66
     1
 40
0.000000
 41
0.000000
  0
VERTEX
  8
0
  6
CONTINUOUS
 10
3.588200
 20
9.177080
  0
VERTEX
  8
0
  6
CONTINUOUS
 10
4.221800
 20
9.542280
  0
VERTEX
  8
0
  6
CONTINUOUS
 10
4.243800
 20
9.493440
  0
VERTEX
  8
0
  6
CONTINUOUS
 10
3.610640
 20
9.127800
  0
VERTEX
  8
0
  6
CONTINUOUS
 10
3.588200
 20
9.177080
  0
SEQEND
  8
0
  0
SOLID
  8
0
 62
    15
 10
3.610640
 20
9.127800
 11
4.243800
 21
9.493440
 12
3.623840
 22
9.075440
 13
4.257440
 23
9.441080
  0
POLYLINE
  8
0
  6
CONTINUOUS
 66
     1
 40
0.000000
 41
0.000000
  0
VERTEX
  8
0
  6
CONTINUOUS
 10
3.610640
 20
9.127800
  0
VERTEX
  8
0
  6
CONTINUOUS
 10
4.243800
 20
9.493440
  0
VERTEX
  8
0
  6
CONTINUOUS
 10
4.257440
 20
9.441080
  0
VERTEX
  8
0
  6
CONTINUOUS
 10
3.623840
 20
9.075440
  0
VERTEX
  8
0
  6
CONTINUOUS
 10
3.610640
 20
9.127800
  0
SEQEND
  8
0
  0
SOLID
  8
0
 62
    15
 10
3.623840
 20
9.075440
 11
4.257440
 21
9.441080
 12
3.626920
 22
9.020880
 13
4.260520
 23
9.386520
  0
POLYLINE
  8
0
  6
CONTINUOUS
 66
     1
 40
0.000000
 41
0.000000
  0
VERTEX
  8
0
  6
CONTINUOUS
 10
3.623840
 20
9.075440
  0
VERTEX
  8
0
  6
CONTINUOUS
 10
4.257440
 20
9.441080
  0
VERTEX
  8
0
  6
CONTINUOUS
 10
4.260520
 20
9.386520
  0
VERTEX
  8
0
  6
CONTINUOUS
 10
3.626920
 20
9.020880
  0
VERTEX
  8
0
  6
CONTINUOUS
 10
3.623840
 20
9.075440
  0
SEQEND
  8
0
  0
SOLID
  8
0
 62
    15
 10
3.626920
 20
9.020880
 11
4.260520
 21
9.386520
 12
3.619000
 22
8.965440
 13
4.252600
 23
9.330640
  0
POLYLINE
  8
0
  6
CONTINUOUS
 66
     1
 40
0.000000
 41
0.000000
  0
VERTEX
  8
0
  6
CONTINUOUS
 10
3.626920
 20
9.020880
  0
VERTEX
  8
0
  6
CONTINUOUS
 10
4.260520
 20
9.386520
  0
VERTEX
  8
0
  6
CONTINUOUS
 10
4.252600
 20
9.330640
  0
VERTEX
  8
0
  6
CONTINUOUS
 10
3.619000
 20
8.965440
  0
VERTEX
  8
0
  6
CONTINUOUS
 10
3.626920
 20
9.020880
  0
SEQEND
  8
0
  0
SOLID
  8
0
 62
    15
 10
2.930400
 20
9.336800
 11
3.564000
 21
9.702440
 12
3.214200
 22
9.336800
 13
3.847800
 23
9.702440
  0
POLYLINE
  8
0
  6
CONTINUOUS
 66
     1
 40
0.000000
 41
0.000000
  0
VERTEX
  8
0
  6
CONTINUOUS
 10
2.930400
 20
9.336800
  0
VERTEX
  8
0
  6
CONTINUOUS
 10
3.564000
 20
9.702440
  0
VERTEX
  8
0
  6
CONTINUOUS
 10
3.847800
 20
9.702440
  0
VERTEX
  8
0
  6
CONTINUOUS
 10
3.214200
 20
9.336800
  0
VERTEX
  8
0
  6
CONTINUOUS
 10
2.930400
 20
9.336800
  0
SEQEND
  8
0
  0
SOLID
  8
0
 62
    15
 10
3.600080
 20
8.909560
 11
4.233680
 21
9.275200
 12
3.568840
 22
8.855000
 13
4.202440
 23
9.220200
  0
POLYLINE
  8
0
  6
CONTINUOUS
 66
     1
 40
0.000000
 41
0.000000
  0
VERTEX
  8
0
  6
CONTINUOUS
 10
3.600080
 20
8.909560
  0
VERTEX
  8
0
  6
CONTINUOUS
 10
4.233680
 20
9.275200
  0
VERTEX
  8
0
  6
CONTINUOUS
 10
4.202440
 20
9.220200
  0
VERTEX
  8
0
  6
CONTINUOUS
 10
3.568840
 20
8.855000
  0
VERTEX
  8
0
  6
CONTINUOUS
 10
3.600080
 20
8.909560
  0
SEQEND
  8
0
  0
SOLID
  8
0
 62
    15
 10
3.568840
 20
8.855000
 11
4.202440
 21
9.220200
 12
3.524400
 22
8.802640
 13
4.158000
 23
9.168280
  0
POLYLINE
  8
0
  6
CONTINUOUS
 66
     1
 40
0.000000
 41
0.000000
  0
VERTEX
  8
0
  6
CONTINUOUS
 10
3.568840
 20
8.855000
  0
VERTEX
  8
0
  6
CONTINUOUS
 10
4.202440
 20
9.220200
  0
VERTEX
  8
0
  6
CONTINUOUS
 10
4.158000
 20
9.168280
  0
VERTEX
  8
0
  6
CONTINUOUS
 10
3.524400
 20
8.802640
  0
VERTEX
  8
0
  6
CONTINUOUS
 10
3.568840
 20
8.855000
  0
SEQEND
  8
0
  0
SOLID
  8
0
 62
    15
 10
3.305720
 20
8.670640
 11
3.939320
 21
9.035840
 12
3.305720
 22
8.610800
 13
3.939320
 23
8.976000
  0
POLYLINE
  8
0
  6
CONTINUOUS
 66
     1
 40
0.000000
 41
0.000000
  0
VERTEX
  8
0
  6
CONTINUOUS
 10
3.305720
 20
8.670640
  0
VERTEX
  8
0
  6
CONTINUOUS
 10
3.939320
 20
9.035840
  0
VERTEX
  8
0
  6
CONTINUOUS
 10
3.939320
 20
8.976000
  0
VERTEX
  8
0
  6
CONTINUOUS
 10
3.305720
 20
8.610800
  0
VERTEX
  8
0
  6
CONTINUOUS
 10
3.305720
 20
8.670640
  0
SEQEND
  8
0
  0
SOLID
  8
0
 62
    15
 10
3.497120
 20
8.777560
 11
4.130720
 21
9.143200
 12
3.466320
 22
8.753800
 13
4.099920
 23
9.119000
  0
POLYLINE
  8
0
  6
CONTINUOUS
 66
     1
 40
0.000000
 41
0.000000
  0
VERTEX
  8
0
  6
CONTINUOUS
 10
3.497120
 20
8.777560
  0
VERTEX
  8
0
  6
CONTINUOUS
 10
4.130720
 20
9.143200
  0
VERTEX
  8
0
  6
CONTINUOUS
 10
4.099920
 20
9.119000
  0
VERTEX
  8
0
  6
CONTINUOUS
 10
3.466320
 20
8.753800
  0
VERTEX
  8
0
  6
CONTINUOUS
 10
3.497120
 20
8.777560
  0
SEQEND
  8
0
  0
SOLID
  8
0
 62
    15
 10
3.466320
 20
8.753800
 11
4.099920
 21
9.119000
 12
3.432000
 22
8.730920
 13
4.065600
 23
9.096560
  0
POLYLINE
  8
0
  6
CONTINUOUS
 66
     1
 40
0.000000
 41
0.000000
  0
VERTEX
  8
0
  6
CONTINUOUS
 10
3.466320
 20
8.753800
  0
VERTEX
  8
0
  6
CONTINUOUS
 10
4.099920
 20
9.119000
  0
VERTEX
  8
0
  6
CONTINUOUS
 10
4.065600
 20
9.096560
  0
VERTEX
  8
0
  6
CONTINUOUS
 10
3.432000
 20
8.730920
  0
VERTEX
  8
0
  6
CONTINUOUS
 10
3.466320
 20
8.753800
  0
SEQEND
  8
0
  0
SOLID
  8
0
 62
    15
 10
3.524400
 20
8.802640
 11
4.158000
 21
9.168280
 12
3.497120
 22
8.777560
 13
4.130720
 23
9.143200
  0
POLYLINE
  8
0
  6
CONTINUOUS
 66
     1
 40
0.000000
 41
0.000000
  0
VERTEX
  8
0
  6
CONTINUOUS
 10
3.524400
 20
8.802640
  0
VERTEX
  8
0
  6
CONTINUOUS
 10
4.158000
 20
9.168280
  0
VERTEX
  8
0
  6
CONTINUOUS
 10
4.130720
 20
9.143200
  0
VERTEX
  8
0
  6
CONTINUOUS
 10
3.497120
 20
8.777560
  0
VERTEX
  8
0
  6
CONTINUOUS
 10
3.524400
 20
8.802640
  0
SEQEND
  8
0
  0
SOLID
  8
0
 62
    15
 10
3.305720
 20
8.610800
 11
3.939320
 21
8.976000
 12
3.684560
 22
8.594960
 13
4.318160
 23
8.960160
  0
POLYLINE
  8
0
  6
CONTINUOUS
 66
     1
 40
0.000000
 41
0.000000
  0
VERTEX
  8
0
  6
CONTINUOUS
 10
3.305720
 20
8.610800
  0
VERTEX
  8
0
  6
CONTINUOUS
 10
3.939320
 20
8.976000
  0
VERTEX
  8
0
  6
CONTINUOUS
 10
4.318160
 20
8.960160
  0
VERTEX
  8
0
  6
CONTINUOUS
 10
3.684560
 20
8.594960
  0
VERTEX
  8
0
  6
CONTINUOUS
 10
3.305720
 20
8.610800
  0
SEQEND
  8
0
  0
SOLID
  8
0
 62
    15
 10
3.684560
 20
8.594960
 11
4.318160
 21
8.960160
 12
3.684560
 22
2.093080
 13
4.318160
 23
2.458280
  0
POLYLINE
  8
0
  6
CONTINUOUS
 66
     1
 40
0.000000
 41
0.000000
  0
VERTEX
  8
0
  6
CONTINUOUS
 10
3.684560
 20
8.594960
  0
VERTEX
  8
0
  6
CONTINUOUS
 10
4.318160
 20
8.960160
  0
VERTEX
  8
0
  6
CONTINUOUS
 10
4.318160
 20
2.458280
  0
VERTEX
  8
0
  6
CONTINUOUS
 10
3.684560
 20
2.093080
  0
VERTEX
  8
0
  6
CONTINUOUS
 10
3.684560
 20
8.594960
  0
SEQEND
  8
0
  0
SOLID
  8
0
 62
    15
 10
3.214200
 20
9.336800
 11
3.847800
 21
9.702440
 12
3.214200
 22
9.336360
 13
3.847800
 23
9.701560
  0
POLYLINE
  8
0
  6
CONTINUOUS
 66
     1
 40
0.000000
 41
0.000000
  0
VERTEX
  8
0
  6
CONTINUOUS
 10
3.214200
 20
9.336800
  0
VERTEX
  8
0
  6
CONTINUOUS
 10
3.847800
 20
9.702440
  0
VERTEX
  8
0
  6
CONTINUOUS
 10
3.847800
 20
9.701560
  0
VERTEX
  8
0
  6
CONTINUOUS
 10
3.214200
 20
9.336360
  0
VERTEX
  8
0
  6
CONTINUOUS
 10
3.214200
 20
9.336800
  0
SEQEND
  8
0
  0
SOLID
  8
0
 62
    15
 10
3.214200
 20
9.336360
 11
3.847800
 21
9.701560
 12
3.302640
 22
9.336360
 13
3.936240
 23
9.701560
  0
POLYLINE
  8
0
  6
CONTINUOUS
 66
     1
 40
0.000000
 41
0.000000
  0
VERTEX
  8
0
  6
CONTINUOUS
 10
3.214200
 20
9.336360
  0
VERTEX
  8
0
  6
CONTINUOUS
 10
3.847800
 20
9.701560
  0
VERTEX
  8
0
  6
CONTINUOUS
 10
3.936240
 20
9.701560
  0
VERTEX
  8
0
  6
CONTINUOUS
 10
3.302640
 20
9.336360
  0
VERTEX
  8
0
  6
CONTINUOUS
 10
3.214200
 20
9.336360
  0
SEQEND
  8
0
  0
POLYLINE
  8
0
  6
CONTINUOUS
 66
     1
 40
0.000000
 41
0.000000
  0
VERTEX
  8
0
  6
CONTINUOUS
 10
3.214200
 20
9.336360
  0
VERTEX
  8
0
  6
CONTINUOUS
 10
3.302640
 20
9.336360
  0
VERTEX
  8
0
  6
CONTINUOUS
 10
3.364240
 20
9.331520
  0
VERTEX
  8
0
  6
CONTINUOUS
 10
3.421440
 20
9.316120
  0
VERTEX
  8
0
  6
CONTINUOUS
 10
3.473360
 20
9.292360
  0
VERTEX
  8
0
  6
CONTINUOUS
 10
3.518680
 20
9.260240
  0
VERTEX
  8
0
  6
CONTINUOUS
 10
3.557400
 20
9.221520
  0
VERTEX
  8
0
  6
CONTINUOUS
 10
3.588200
 20
9.177080
  0
VERTEX
  8
0
  6
CONTINUOUS
 10
3.610640
 20
9.127800
  0
VERTEX
  8
0
  6
CONTINUOUS
 10
3.623840
 20
9.075440
  0
VERTEX
  8
0
  6
CONTINUOUS
 10
3.626920
 20
9.020880
  0
VERTEX
  8
0
  6
CONTINUOUS
 10
3.619000
 20
8.965440
  0
VERTEX
  8
0
  6
CONTINUOUS
 10
3.600080
 20
8.909560
  0
VERTEX
  8
0
  6
CONTINUOUS
 10
3.568840
 20
8.855000
  0
VERTEX
  8
0
  6
CONTINUOUS
 10
3.524400
 20
8.802640
  0
VERTEX
  8
0
  6
CONTINUOUS
 10
3.497120
 20
8.777560
  0
VERTEX
  8
0
  6
CONTINUOUS
 10
3.466320
 20
8.753800
  0
VERTEX
  8
0
  6
CONTINUOUS
 10
3.432000
 20
8.730920
  0
VERTEX
  8
0
  6
CONTINUOUS
 10
3.393720
 20
8.709360
  0
VERTEX
  8
0
  6
CONTINUOUS
 10
3.351920
 20
8.689120
  0
VERTEX
  8
0
  6
CONTINUOUS
 10
3.305720
 20
8.670640
  0
VERTEX
  8
0
  6
CONTINUOUS
 10
3.305720
 20
8.610800
  0
VERTEX
  8
0
  6
CONTINUOUS
 10
3.684560
 20
8.594960
  0
VERTEX
  8
0
  6
CONTINUOUS
 10
3.684560
 20
2.093080
  0
VERTEX
  8
0
  6
CONTINUOUS
 10
2.930400
 20
2.093080
  0
VERTEX
  8
0
  6
CONTINUOUS
 10
2.930400
 20
9.336800
  0
VERTEX
  8
0
  6
CONTINUOUS
 10
3.214200
 20
9.336800
  0
VERTEX
  8
0
  6
CONTINUOUS
 10
3.214200
 20
9.336360
  0
SEQEND
  8
0
  0
TEXT
  8
0
 10
3.282840
 20
1.838320
 40
0.138135
  1
BA  1300
 41
1.000000
  7
SN0
 71
     0
 72
     5
 11
3.964261
 21
1.838320
  0
TEXT
  8
0
 10
3.172840
 20
1.636800
 40
0.138135
  1
3/4" x 7-1/4"
 41
1.000000
  7
SN0
 71
     0
 72
     5
 11
4.071550
 21
1.636800
  0
TEXT
  8
0
 10
1.404040
 20
1.898600
 40
0.138135
  1
BA  1300
 41
1.000000
  7
SN0
 71
     0
 72
     5
 11
2.085461
 21
1.898600
  0
TEXT
  8
0
 10
1.294040
 20
1.697080
 40
0.138135
  1
3/4" x 7-1/4"
 41
1.000000
  7
SN0
 71
     0
 72
     5
 11
2.192750
 21
1.697080
  0
TEXT
  8
0
 10
5.657960
 20
9.764040
 40
0.138135
  1
Base Cap
 41
1.000000
  7
SN0
 71
     0
 72
     5
 11
6.385586
 21
9.764040
  0
ENDSEC
  0
EOF
